  0
SECTION
  2
HEADER
  9
$EXTMAX
 10
208.5
 20
148.5
  9
$EXTMIN
 10
-208.5
 20
-148.5
  0
ENDSEC
  0
SECTION
  2
TABLES
  0
TABLE
  2
LTYPE
 70
    22
  0
LTYPE
  2
CONTINUOUS
 70
    64
  3
Solid line
 72
    65
 73
     0
 40
0.000000
  0
LTYPE
  2
DASHED
 70
    64
  3
__ __ __ __ __ __ __ __ __ __ __ __ __ __ __
 72
    65
 73
     2
 40
3.500000
 49
2.000000
 49
-1.500000
  0
LTYPE
  2
CENTER
 70
    64
  3
____ _ ____ _ ____ _ ____ _ ____ _ ____ _ ____
 72
    65
 73
     4
 40
17.500000
 49
13.000000
 49
-1.500000
 49
1.500000
 49
-1.500000
  0
LTYPE
  2
PHANTOM
 70
    64
  3
_____ _ _ _____ _ _ _____ _ _ _____ _ _ ____  
 72
    65
 73
     6
 40
15.500000
 49
8.000000
 49
-1.500000
 49
1.500000
 49
-1.500000
 49
1.500000
 49
-1.500000
  0
LTYPE
  2
DOT
 70
    64
  3
. . . . . . . . . . . . . . . . . . . . . . . .
 72
    65
 73
     2
 40
0.25
 49
0.0
 49
-0.25
  0
ENDTAB
  0
TABLE
  2
LAYER
 70
     3
  0
LAYER
  2
0
 70
     0
 62
     7
  6
CONTINUOUS
  0
LAYER
  2
1
 70
     0
 62
     7
  6
CONTINUOUS
  0
LAYER
  2
2
 70
     0
 62
     7
  6
CONTINUOUS
  0
ENDTAB
  0
TABLE
  2
STYLE
 70
     1
  0
STYLE
  2
STANDARD
 70
     0
 40
0.000000
 41
1.000000
 50
0.000000
 71
     0
 42
0.200000
  3
txt
  4
BIGFONT
  0
ENDTAB
  0
TABLE
  2
VIEW
 70
     0
  0
ENDTAB
  0
ENDSEC
  0
SECTION
  2
BLOCKS
  0
ENDSEC
  0
SECTION
  2
ENTITIES
  0
POINT
  8
0
  6
CONTINUOUS
 62
     7
 10
-121.056
 20
48.318146
  0
POINT
  8
0
  6
CONTINUOUS
 62
     7
 10
-14.416727
 20
48.318146
  0
POINT
  8
0
  6
CONTINUOUS
 62
     7
 10
104.33511
 20
48.318146
  0
POINT
  8
0
  6
CONTINUOUS
 62
     7
 10
104.33511
 20
48.318146
  0
POINT
  8
0
  6
CONTINUOUS
 62
     7
 10
104.33511
 20
48.318146
  0
POINT
  8
0
  6
CONTINUOUS
 62
     7
 10
-83.128159
 20
-78.610115
  0
POINT
  8
0
  6
CONTINUOUS
 62
     7
 10
92.61866
 20
-84.468338
  0
POINT
  8
0
  6
CONTINUOUS
 62
     7
 10
-74.34082
 20
-269.97888
  0
POINT
  8
0
  6
CONTINUOUS
 62
     7
 10
77.973091
 20
-279.74258
  0
POINT
  8
0
  6
CONTINUOUS
 62
     7
 10
-305.14255
 20
112.83893
  0
POINT
  8
0
  6
CONTINUOUS
 62
     7
 10
-305.14255
 20
67.762352
  0
POINT
  8
0
  6
CONTINUOUS
 62
     7
 10
-305.14255
 20
16.948168
  0
POINT
  8
0
  6
CONTINUOUS
 62
     7
 10
-305.14255
 20
-39.122654
  0
POINT
  8
0
  6
CONTINUOUS
 62
     7
 10
-305.14255
 20
-126.10135
  0
POINT
  8
0
  6
CONTINUOUS
 62
     7
 10
-305.14255
 20
-229.99887
  0
POINT
  8
0
  6
CONTINUOUS
 62
     7
 10
-305.14255
 20
-335.72815
  0
LINE
  8
0
  6
CONTINUOUS
 62
     7
 10
-121.056
 20
31.218142
 11
-106.556
 21
31.218142
  0
LINE
  8
0
  6
CENTER
 62
     7
 10
-121.056
 20
13.955305
 11
-121.056
 21
48.318138
  0
LINE
  8
0
  6
CENTER
 62
     7
 10
-121.056
 20
48.318138
 11
-95.909187
 21
73.464951
  0
LINE
  8
0
  6
CONTINUOUS
 62
     7
 10
-106.056
 20
31.718142
 11
-106.056
 21
33.218143
  0
LINE
  8
0
  6
CONTINUOUS
 62
     7
 10
-98.711418
 20
50.15662
 11
-108.96447
 21
60.409672
  0
LINE
  8
0
  6
CONTINUOUS
 62
     7
 10
-98.711418
 20
49.449516
 11
-99.772079
 21
48.388855
  0
LINE
  8
0
  6
CONTINUOUS
 62
     7
 10
-103.52021
 20
46.700382
 11
-107.51264
 21
37.062748
  0
LINE
  8
0
  6
CONTINUOUS
 62
     7
 10
-98.711426
 20
50.15662
 11
-98.711426
 21
49.449512
  0
LINE
  8
0
  6
CONTINUOUS
 62
     7
 10
-106.556
 20
31.218145
 11
-106.056
 21
31.718147
  0
LINE
  8
0
  6
CONTINUOUS
 62
     7
 10
-105.8532
 20
78.370178
 11
-91.00396
 21
63.520939
  0
LINE
  8
0
  6
CONTINUOUS
 62
     7
 10
-96.57502
 20
53.535656
 11
-95.953705
 21
52.914337
  0
LINE
  8
0
  6
CONTINUOUS
 62
     7
 10
-95.953705
 20
52.914337
 11
-91.00396
 21
57.864086
  0
LINE
  8
0
  6
CONTINUOUS
 62
     7
 10
-96.660812
 20
52.914337
 11
-95.953705
 21
52.914337
  0
LINE
  8
0
  6
CONTINUOUS
 62
     7
 10
-102.83848
 20
59.799114
 11
-101.33808
 21
58.29871
  0
LINE
  8
0
  6
CONTINUOUS
 62
     7
 10
-96.57502
 20
53.535656
 11
-91.625275
 21
58.485405
  0
LINE
  8
0
  6
CONTINUOUS
 62
     7
 10
-102.83848
 20
59.799114
 11
-97.888733
 21
64.748863
  0
LINE
  8
0
  6
CONTINUOUS
 62
     7
 10
-101.33808
 20
58.29871
 11
-96.388329
 21
63.248459
  0
LINE
  8
0
  6
CONTINUOUS
 62
     7
 10
-101.257
 20
68.117134
 11
-91.00396
 21
57.864086
  0
LINE
  8
0
  6
CONTINUOUS
 62
     7
 10
-131.556
 20
16.31814
 11
-110.556
 21
16.31814
  0
LINE
  8
0
  6
CONTINUOUS
 62
     7
 10
-107.43468
 20
27.31814
 11
-106.556
 21
27.31814
  0
LINE
  8
0
  6
CONTINUOUS
 62
     7
 10
-106.556
 20
27.31814
 11
-106.556
 21
20.31814
  0
LINE
  8
0
  6
CONTINUOUS
 62
     7
 10
-107.05599
 20
27.818136
 11
-106.55599
 21
27.31814
  0
LINE
  8
0
  6
CONTINUOUS
 62
     7
 10
-116.29254
 20
27.31814
 11
-114.17065
 21
27.31814
  0
LINE
  8
0
  6
CONTINUOUS
 62
     7
 10
-107.43468
 20
27.31814
 11
-107.43468
 21
20.31814
  0
LINE
  8
0
  6
CONTINUOUS
 62
     7
 10
-116.29254
 20
27.31814
 11
-116.29254
 21
20.31814
  0
LINE
  8
0
  6
CONTINUOUS
 62
     7
 10
-114.17065
 20
27.31814
 11
-114.17065
 21
20.31814
  0
LINE
  8
0
  6
CONTINUOUS
 62
     7
 10
-121.056
 20
20.31814
 11
-106.556
 21
20.31814
  0
LINE
  8
0
  6
CONTINUOUS
 62
     7
 10
-106.5603
 20
62.813831
 11
-96.660812
 21
52.914337
  0
LINE
  8
0
  6
CONTINUOUS
 62
     7
 10
-121.056
 20
27.81814
 11
-107.056
 21
27.81814
  0
LINE
  8
0
  6
CONTINUOUS
 62
     7
 10
-14.416727
 20
31.218138
 11
2.5832729
 21
31.218138
  0
LINE
  8
0
  6
CENTER
 62
     7
 10
-14.416727
 20
8.1306477
 11
-14.416727
 21
48.318138
  0
LINE
  8
0
  6
CENTER
 62
     7
 10
-14.416727
 20
48.318138
 11
12.45179
 21
75.186653
  0
LINE
  8
0
  6
CONTINUOUS
 62
     7
 10
3.0832729
 20
31.718138
 11
3.0832729
 21
33.21814
  0
LINE
  8
0
  6
CONTINUOUS
 62
     7
 10
1.4596843
 20
36.637825
 11
3.2642541
 21
40.994446
  0
LINE
  8
0
  6
CONTINUOUS
 62
     7
 10
2.5832727
 20
31.218138
 11
3.083272
 21
31.718136
  0
LINE
  8
0
  6
CONTINUOUS
 62
     7
 10
-26.416723
 20
14.31814
 11
-2.4167271
 21
14.31814
  0
LINE
  8
0
  6
CONTINUOUS
 62
     7
 10
-6.4964161
 20
27.318144
 11
-6.4964161
 21
19.31814
  0
LINE
  8
0
  6
CONTINUOUS
 62
     7
 10
1.7045957
 20
27.318144
 11
2.5832729
 21
27.318144
  0
LINE
  8
0
  6
CONTINUOUS
 62
     7
 10
2.5832744
 20
27.318142
 11
2.0832736
 21
27.818144
  0
LINE
  8
0
  6
CONTINUOUS
 62
     7
 10
2.5832729
 20
27.31814
 11
2.5832729
 21
19.31814
  0
LINE
  8
0
  6
CONTINUOUS
 62
     7
 10
1.7045957
 20
27.318144
 11
1.7045957
 21
19.31814
  0
LINE
  8
0
  6
CONTINUOUS
 62
     7
 10
-8.6177349
 20
27.318144
 11
-8.6177349
 21
19.31814
  0
LINE
  8
0
  6
CONTINUOUS
 62
     7
 10
-14.416727
 20
19.31814
 11
2.5832729
 21
19.31814
  0
LINE
  8
0
  6
CONTINUOUS
 62
     7
 10
-8.6177349
 20
27.318144
 11
-6.4964161
 21
27.318144
  0
LINE
  8
0
  6
CONTINUOUS
 62
     7
 10
-14.416727
 20
27.81814
 11
2.0832729
 21
27.81814
  0
LINE
  8
0
  6
CONTINUOUS
 62
     7
 10
-2.3251925
 20
60.409672
 11
9.6956177
 21
48.388863
  0
LINE
  8
0
  6
CONTINUOUS
 62
     7
 10
9.6956177
 20
47.681755
 11
8.6349573
 21
46.621098
  0
LINE
  8
0
  6
CONTINUOUS
 62
     7
 10
5.0688257
 20
45.351059
 11
3.2642558
 21
40.994442
  0
LINE
  8
0
  6
CONTINUOUS
 62
     7
 10
9.6956158
 20
48.388863
 11
9.6956158
 21
47.681755
  0
LINE
  8
0
  6
CONTINUOUS
 62
     7
 10
6.03302
 20
57.566883
 11
11.689877
 21
63.223743
  0
LINE
  8
0
  6
CONTINUOUS
 62
     7
 10
12.453333
 20
51.146568
 11
11.746225
 21
51.146568
  0
LINE
  8
0
  6
CONTINUOUS
 62
     7
 10
4.5330238
 20
59.066879
 11
10.18988
 21
64.72374
  0
LINE
  8
0
  6
CONTINUOUS
 62
     7
 10
11.832011
 20
51.767895
 11
17.488869
 21
57.424751
  0
LINE
  8
0
  6
CONTINUOUS
 62
     7
 10
12.453338
 20
51.146572
 11
18.110191
 21
56.803425
  0
LINE
  8
0
  6
CONTINUOUS
 62
     7
 10
11.832011
 20
51.767895
 11
12.453335
 21
51.146568
  0
LINE
  8
0
  6
CONTINUOUS
 62
     7
 10
4.5330238
 20
59.066879
 11
6.03302
 21
57.566883
  0
LINE
  8
0
  6
CONTINUOUS
 62
     7
 10
6.0893764
 20
68.824242
 11
18.110191
 21
56.803425
  0
LINE
  8
0
  6
CONTINUOUS
 62
     7
 10
0.078969032
 20
62.813835
 11
11.746231
 21
51.146572
  0
LINE
  8
0
  6
CONTINUOUS
 62
     7
 10
1.1396265
 20
80.845055
 11
18.110189
 21
63.874493
  0
LINE
  8
0
  6
CENTER
 62
     7
 10
104.33511
 20
48.318142
 11
134.62369
 21
78.60672
  0
LINE
  8
0
  6
CENTER
 62
     7
 10
104.33511
 20
48.318146
 11
104.33511
 21
6.2768574
  0
LINE
  8
0
  6
CONTINUOUS
 62
     7
 10
104.33511
 20
31.318144
 11
125.83512
 21
31.318144
  0
LINE
  8
0
  6
CONTINUOUS
 62
     7
 10
125.69878
 20
39.469025
 11
124.77459
 21
37.237835
  0
LINE
  8
0
  6
CONTINUOUS
 62
     7
 10
126.33511
 20
33.335175
 11
126.33511
 21
31.818144
  0
LINE
  8
0
  6
CONTINUOUS
 62
     7
 10
125.83511
 20
31.318138
 11
126.33511
 21
31.818138
  0
LINE
  8
0
  6
CONTINUOUS
 62
     7
 10
110.96836
 20
27.318144
 11
114.8475
 21
27.318144
  0
LINE
  8
0
  6
CONTINUOUS
 62
     7
 10
125.33511
 20
27.81814
 11
125.83511
 21
27.318144
  0
LINE
  8
0
  6
CONTINUOUS
 62
     7
 10
124.22832
 20
27.318144
 11
125.83511
 21
27.318144
  0
LINE
  8
0
  6
CONTINUOUS
 62
     7
 10
125.83511
 20
27.318144
 11
125.83511
 21
18.318144
  0
LINE
  8
0
  6
CONTINUOUS
 62
     7
 10
87.835114
 20
13.318144
 11
120.83511
 21
13.318144
  0
LINE
  8
0
  6
CONTINUOUS
 62
     7
 10
104.33511
 20
18.318144
 11
125.83511
 21
18.318144
  0
LINE
  8
0
  6
CONTINUOUS
 62
     7
 10
110.96836
 20
27.318144
 11
110.96836
 21
18.318144
  0
LINE
  8
0
  6
CONTINUOUS
 62
     7
 10
114.8475
 20
27.318144
 11
114.8475
 21
18.318144
  0
LINE
  8
0
  6
CONTINUOUS
 62
     7
 10
124.22832
 20
27.318144
 11
124.22832
 21
18.318144
  0
LINE
  8
0
  6
CONTINUOUS
 62
     7
 10
104.33511
 20
27.818144
 11
125.33511
 21
27.818144
  0
LINE
  8
0
  6
CONTINUOUS
 62
     7
 10
118.8308
 20
62.813831
 11
133.68004
 21
47.964592
  0
LINE
  8
0
  6
CONTINUOUS
 62
     7
 10
116.35593
 20
60.338959
 11
131.55873
 21
45.136166
  0
LINE
  8
0
  6
CONTINUOUS
 62
     7
 10
125.69878
 20
39.469025
 11
126.62297
 21
41.700214
  0
LINE
  8
0
  6
CONTINUOUS
 62
     7
 10
130.48602
 20
43.356358
 11
131.55873
 21
44.429058
  0
LINE
  8
0
  6
CONTINUOUS
 62
     7
 10
131.55873
 20
45.136166
 11
131.55873
 21
44.429058
  0
LINE
  8
0
  6
CONTINUOUS
 62
     7
 10
123.87477
 20
58.476971
 11
126.61773
 21
55.734009
  0
LINE
  8
0
  6
CONTINUOUS
 62
     7
 10
133.68004
 20
47.964592
 11
134.38715
 21
47.964592
  0
LINE
  8
0
  6
CONTINUOUS
 62
     7
 10
133.25098
 20
49.100761
 11
134.38715
 21
47.964592
  0
LINE
  8
0
  6
CONTINUOUS
 62
     7
 10
134.38715
 20
47.964592
 11
140.75111
 21
54.328552
  0
LINE
  8
0
  6
CONTINUOUS
 62
     7
 10
117.41659
 20
84.734146
 11
140.75111
 21
61.39962
  0
LINE
  8
0
  6
CONTINUOUS
 62
     7
 10
125.54832
 20
69.531349
 11
140.75111
 21
54.328552
  0
LINE
  8
0
  6
CONTINUOUS
 62
     7
 10
123.87477
 20
58.476971
 11
130.23874
 21
64.840935
  0
LINE
  8
0
  6
CONTINUOUS
 62
     7
 10
126.61773
 20
55.734009
 11
132.98169
 21
62.097973
  0
LINE
  8
0
  6
CONTINUOUS
 62
     7
 10
133.25098
 20
49.100761
 11
139.61494
 21
55.464725
  0
LINE
  8
0
  6
CENTER
 62
     7
 10
-83.128159
 20
-78.610107
 11
-83.128159
 21
-120.58785
  0
LINE
  8
0
  6
CONTINUOUS
 62
     7
 10
-57.628159
 20
-94.14312
 11
-57.628159
 21
-95.610107
  0
LINE
  8
0
  6
CONTINUOUS
 62
     7
 10
-57.628159
 20
-95.610115
 11
-58.128162
 21
-96.110115
  0
LINE
  8
0
  6
CONTINUOUS
 62
     7
 10
-58.128159
 20
-96.110107
 11
-83.128159
 21
-96.110107
  0
LINE
  8
0
  6
CENTER
 62
     7
 10
-83.128151
 20
-78.610115
 11
-53.372559
 21
-48.854519
  0
LINE
  8
0
  6
CONTINUOUS
 62
     7
 10
-58.830883
 20
-88.674362
 11
-59.729881
 21
-90.844742
  0
LINE
  8
0
  6
CONTINUOUS
 62
     7
 10
-108.62815
 20
-93.610107
 11
-108.61464
 21
-93.610107
  0
LINE
  8
0
  6
CONTINUOUS
 62
     7
 10
-108.62815
 20
-93.610107
 11
-108.59227
 21
-93.610107
  0
LINE
  8
0
  6
CONTINUOUS
 62
     7
 10
-57.628159
 20
-93.610107
 11
-57.628159
 21
-95.610107
  0
LINE
  8
0
  6
CONTINUOUS
 62
     7
 10
-57.628159
 20
-93.610107
 11
-57.882126
 21
-93.610107
  0
LINE
  8
0
  6
CONTINUOUS
 62
     7
 10
-59.649765
 20
-100.21011
 11
-59.649765
 21
-110.61011
  0
LINE
  8
0
  6
CONTINUOUS
 62
     7
 10
-58.628159
 20
-100.21011
 11
-58.628159
 21
-110.61011
  0
LINE
  8
0
  6
CONTINUOUS
 62
     7
 10
-74.424698
 20
-100.21011
 11
-74.424698
 21
-110.61011
  0
LINE
  8
0
  6
CONTINUOUS
 62
     7
 10
-59.128155
 20
-99.710106
 11
-58.628155
 21
-100.21011
  0
LINE
  8
0
  6
CONTINUOUS
 62
     7
 10
-102.62815
 20
-115.61011
 11
-63.628159
 21
-115.61011
  0
LINE
  8
0
  6
CONTINUOUS
 62
     7
 10
-74.424698
 20
-100.21011
 11
-71.958298
 21
-100.21011
  0
LINE
  8
0
  6
CONTINUOUS
 62
     7
 10
-59.649765
 20
-100.21011
 11
-58.628159
 21
-100.21011
  0
LINE
  8
0
  6
CONTINUOUS
 62
     7
 10
-71.958298
 20
-100.21011
 11
-71.958298
 21
-110.61011
  0
LINE
  8
0
  6
CONTINUOUS
 62
     7
 10
-83.128159
 20
-110.61011
 11
-58.628159
 21
-110.61011
  0
LINE
  8
0
  6
CONTINUOUS
 62
     7
 10
-83.128159
 20
-99.710106
 11
-59.128159
 21
-99.710106
  0
LINE
  8
0
  6
CONTINUOUS
 62
     7
 10
-54.514778
 20
-86.059181
 11
-53.076115
 21
-84.620522
  0
LINE
  8
0
  6
CONTINUOUS
 62
     7
 10
-53.076111
 20
-84.620522
 11
-53.076111
 21
-83.913414
  0
LINE
  8
0
  6
CONTINUOUS
 62
     7
 10
-53.076115
 20
-83.913414
 11
-70.753784
 21
-66.235748
  0
LINE
  8
0
  6
CONTINUOUS
 62
     7
 10
-58.830883
 20
-88.67437
 11
-57.931889
 21
-86.504005
  0
LINE
  8
0
  6
CONTINUOUS
 62
     7
 10
-90.552773
 20
-49.97229
 11
-90.543221
 21
-49.981846
  0
LINE
  8
0
  6
CONTINUOUS
 62
     7
 10
-68.208206
 20
-63.690166
 11
-51.237644
 21
-80.660728
  0
LINE
  8
0
  6
CONTINUOUS
 62
     7
 10
-90.552773
 20
-49.97229
 11
-90.527397
 21
-49.997665
  0
LINE
  8
0
  6
CONTINUOUS
 62
     7
 10
-54.49033
 20
-86.034737
 11
-54.66991
 21
-85.855156
  0
LINE
  8
0
  6
CONTINUOUS
 62
     7
 10
-61.700386
 20
-69.490883
 11
-54.34647
 21
-62.136963
  0
LINE
  8
0
  6
CONTINUOUS
 62
     7
 10
-51.237644
 20
-80.660736
 11
-50.530537
 21
-80.660736
  0
LINE
  8
0
  6
CONTINUOUS
 62
     7
 10
-70.753784
 20
-38.658581
 11
-43.17662
 21
-66.235748
  0
LINE
  8
0
  6
CONTINUOUS
 62
     7
 10
-51.25293
 20
-79.938339
 11
-50.530537
 21
-80.660728
  0
LINE
  8
0
  6
CONTINUOUS
 62
     7
 10
-59.956375
 20
-71.234894
 11
-52.602459
 21
-63.880974
  0
LINE
  8
0
  6
CONTINUOUS
 62
     7
 10
-61.700386
 20
-69.490883
 11
-59.956375
 21
-71.234894
  0
LINE
  8
0
  6
CONTINUOUS
 62
     7
 10
-50.530537
 20
-80.660728
 11
-43.17662
 21
-73.306816
  0
LINE
  8
0
  6
CONTINUOUS
 62
     7
 10
-51.25293
 20
-79.938339
 11
-43.899014
 21
-72.584419
  0
LINE
  8
0
  6
CONTINUOUS
 62
     7
 10
-60.500736
 20
-55.982697
 11
-43.17662
 21
-73.306816
  0
LINE
  8
0
  6
CONTINUOUS
 62
     7
 10
123.11866
 20
-102.46834
 11
122.53658
 21
-102.46834
  0
LINE
  8
0
  6
CONTINUOUS
 62
     7
 10
123.11866
 20
-104.46835
 11
122.61866
 21
-104.96835
  0
LINE
  8
0
  6
CONTINUOUS
 62
     7
 10
122.61866
 20
-104.96834
 11
92.61866
 21
-104.96834
  0
LINE
  8
0
  6
CONTINUOUS
 62
     7
 10
123.11866
 20
-102.48663
 11
123.11866
 21
-104.46834
  0
LINE
  8
0
  6
CENTER
 62
     7
 10
92.61866
 20
-84.468346
 11
92.61866
 21
-130.11652
  0
LINE
  8
0
  6
CENTER
 62
     7
 10
92.61866
 20
-84.468346
 11
125.77437
 21
-51.312634
  0
LINE
  8
0
  6
CONTINUOUS
 62
     7
 10
62.118668
 20
-102.46834
 11
62.784073
 21
-102.46834
  0
LINE
  8
0
  6
CONTINUOUS
 62
     7
 10
121.32371
 20
-96.35836
 11
120.2262
 21
-99.013268
  0
LINE
  8
0
  6
CONTINUOUS
 62
     7
 10
92.61866
 20
-120.46834
 11
122.11866
 21
-120.46834
  0
LINE
  8
0
  6
CONTINUOUS
 62
     7
 10
69.118668
 20
-126.46834
 11
116.11866
 21
-126.46834
  0
LINE
  8
0
  6
CONTINUOUS
 62
     7
 10
121.61865
 20
-108.56834
 11
122.11865
 21
-109.06834
  0
LINE
  8
0
  6
CONTINUOUS
 62
     7
 10
122.11866
 20
-109.06834
 11
122.11866
 21
-120.46834
  0
LINE
  8
0
  6
CONTINUOUS
 62
     7
 10
106.74222
 20
-109.06834
 11
106.74222
 21
-120.46834
  0
LINE
  8
0
  6
CONTINUOUS
 62
     7
 10
120.21441
 20
-109.06834
 11
120.21441
 21
-120.46834
  0
LINE
  8
0
  6
CONTINUOUS
 62
     7
 10
102.14494
 20
-109.06834
 11
102.14494
 21
-120.46834
  0
LINE
  8
0
  6
CONTINUOUS
 62
     7
 10
102.14494
 20
-109.06834
 11
106.74222
 21
-109.06834
  0
LINE
  8
0
  6
CONTINUOUS
 62
     7
 10
120.21441
 20
-109.06834
 11
122.11866
 21
-109.06834
  0
LINE
  8
0
  6
CONTINUOUS
 62
     7
 10
92.61866
 20
-108.56834
 11
121.61866
 21
-108.56834
  0
LINE
  8
0
  6
CONTINUOUS
 62
     7
 10
126.91334
 20
-93.307175
 11
126.50175
 21
-92.895584
  0
LINE
  8
0
  6
CONTINUOUS
 62
     7
 10
128.32755
 20
-91.892967
 11
128.32755
 21
-91.18586
  0
LINE
  8
0
  6
CONTINUOUS
 62
     7
 10
128.32756
 20
-91.18586
 11
107.11435
 21
-69.972656
  0
LINE
  8
0
  6
CONTINUOUS
 62
     7
 10
126.92627
 20
-93.294243
 11
128.32756
 21
-91.892967
  0
LINE
  8
0
  6
CONTINUOUS
 62
     7
 10
83.779823
 20
-50.173664
 11
84.250343
 21
-50.64418
  0
LINE
  8
0
  6
CONTINUOUS
 62
     7
 10
121.32371
 20
-96.35836
 11
122.42496
 21
-93.705017
  0
LINE
  8
0
  6
CONTINUOUS
 62
     7
 10
118.07451
 20
-59.012497
 11
138.93416
 21
-79.872147
  0
LINE
  8
0
  6
CONTINUOUS
 62
     7
 10
105.70013
 20
-38.152847
 11
138.93416
 21
-71.386864
  0
LINE
  8
0
  6
CONTINUOUS
 62
     7
 10
130.16603
 20
-87.933167
 11
130.87314
 21
-87.933167
  0
LINE
  8
0
  6
CONTINUOUS
 62
     7
 10
130.87314
 20
-87.933167
 11
138.93416
 21
-79.872147
  0
LINE
  8
0
  6
CONTINUOUS
 62
     7
 10
120.00034
 20
-77.060379
 11
128.06137
 21
-68.999359
  0
LINE
  8
0
  6
CONTINUOUS
 62
     7
 10
129.52663
 20
-86.586662
 11
137.58765
 21
-78.525642
  0
LINE
  8
0
  6
CONTINUOUS
 62
     7
 10
116.74957
 20
-73.809616
 11
124.8106
 21
-65.748596
  0
LINE
  8
0
  6
CONTINUOUS
 62
     7
 10
109.65993
 20
-67.427071
 11
130.16603
 21
-87.933167
  0
LINE
  8
0
  6
CONTINUOUS
 62
     7
 10
116.74957
 20
-73.809616
 11
120.00034
 21
-77.060379
  0
LINE
  8
0
  6
CONTINUOUS
 62
     7
 10
129.52663
 20
-86.586662
 11
130.87314
 21
-87.933174
  0
LINE
  8
0
  6
CENTER
 62
     7
 10
-74.34082
 20
-269.97888
 11
-74.34082
 21
-324.95682
  0
LINE
  8
0
  6
CONTINUOUS
 62
     7
 10
-39.840816
 20
-289.47888
 11
-39.840816
 21
-292.47888
  0
LINE
  8
0
  6
CONTINUOUS
 62
     7
 10
-40.340816
 20
-292.97888
 11
-74.34082
 21
-292.97888
  0
LINE
  8
0
  6
CONTINUOUS
 62
     7
 10
-108.84082
 20
-289.47888
 11
-107.55462
 21
-289.47888
  0
LINE
  8
0
  6
CONTINUOUS
 62
     7
 10
-41.777519
 20
-283.46704
 11
-42.888161
 21
-286.14838
  0
LINE
  8
0
  6
CENTER
 62
     7
 10
-74.340828
 20
-269.97888
 11
-34.759838
 21
-230.39789
  0
LINE
  8
0
  6
CONTINUOUS
 62
     7
 10
-39.840816
 20
-289.47888
 11
-74.34082
 21
-289.47888
  0
LINE
  8
0
  6
CONTINUOUS
 62
     7
 10
-40.340809
 20
-292.97888
 11
-39.840809
 21
-292.47888
  0
LINE
  8
0
  6
CONTINUOUS
 62
     7
 10
-40.34082
 20
-297.47888
 11
-40.84082
 21
-296.97888
  0
LINE
  8
0
  6
CONTINUOUS
 62
     7
 10
-43.079422
 20
-297.47888
 11
-40.34082
 21
-297.47888
  0
LINE
  8
0
  6
CONTINUOUS
 62
     7
 10
-40.34082
 20
-297.47888
 11
-40.34082
 21
-308.97888
  0
LINE
  8
0
  6
CONTINUOUS
 62
     7
 10
-43.079422
 20
-297.47888
 11
-43.079422
 21
-308.97888
  0
LINE
  8
0
  6
CONTINUOUS
 62
     7
 10
-64.130531
 20
-297.47888
 11
-57.518951
 21
-297.47888
  0
LINE
  8
0
  6
CONTINUOUS
 62
     7
 10
-57.518951
 20
-297.47888
 11
-57.518951
 21
-308.97888
  0
LINE
  8
0
  6
CONTINUOUS
 62
     7
 10
-74.34082
 20
-308.97888
 11
-40.34082
 21
-308.97888
  0
LINE
  8
0
  6
CONTINUOUS
 62
     7
 10
-64.130531
 20
-297.47888
 11
-64.130531
 21
-308.97888
  0
LINE
  8
0
  6
CONTINUOUS
 62
     7
 10
-74.34082
 20
-296.97888
 11
-40.84082
 21
-296.97888
  0
LINE
  8
0
  6
CONTINUOUS
 62
     7
 10
-36.157059
 20
-280.58548
 11
-34.03574
 21
-278.46414
  0
LINE
  8
0
  6
CONTINUOUS
 62
     7
 10
-34.03574
 20
-277.75705
 11
-58.07737
 21
-253.71542
  0
LINE
  8
0
  6
CONTINUOUS
 62
     7
 10
-84.947426
 20
-231.7951
 11
-84.037949
 21
-232.70459
  0
LINE
  8
0
  6
CONTINUOUS
 62
     7
 10
-41.777519
 20
-283.46704
 11
-40.666874
 21
-280.78571
  0
LINE
  8
0
  6
CONTINUOUS
 62
     7
 10
-36.157059
 20
-280.58548
 11
-60.552242
 21
-256.19028
  0
LINE
  8
0
  6
CONTINUOUS
 62
     7
 10
-34.035732
 20
-277.75705
 11
-34.035732
 21
-278.46414
  0
LINE
  8
0
  6
CONTINUOUS
 62
     7
 10
-55.248943
 20
-250.88699
 11
-31.560865
 21
-274.57507
  0
LINE
  8
0
  6
CONTINUOUS
 62
     7
 10
-30.853758
 20
-274.57507
 11
-31.560862
 21
-274.57507
  0
LINE
  8
0
  6
CONTINUOUS
 62
     7
 10
-32.790241
 20
-272.63858
 11
-30.85376
 21
-274.57507
  0
LINE
  8
0
  6
CONTINUOUS
 62
     7
 10
-30.85376
 20
-274.57507
 11
-22.722031
 21
-266.44333
  0
LINE
  8
0
  6
CONTINUOUS
 62
     7
 10
-32.790241
 20
-272.63858
 11
-24.658514
 21
-264.50687
  0
LINE
  8
0
  6
CONTINUOUS
 62
     7
 10
-59.491585
 20
-218.36008
 11
-22.722031
 21
-255.12964
  0
LINE
  8
0
  6
CONTINUOUS
 62
     7
 10
-47.675621
 20
-257.7532
 11
-43.00053
 21
-262.42828
  0
LINE
  8
0
  6
CONTINUOUS
 62
     7
 10
-43.00053
 20
-262.42828
 11
-34.868805
 21
-254.29657
  0
LINE
  8
0
  6
CONTINUOUS
 62
     7
 10
-46.76366
 20
-242.4017
 11
-22.722031
 21
-266.44333
  0
LINE
  8
0
  6
CONTINUOUS
 62
     7
 10
-47.675621
 20
-257.7532
 11
-39.543892
 21
-249.62148
  0
LINE
  8
0
  6
CENTER
 62
     7
 10
77.973091
 20
-279.74258
 11
77.973091
 21
-348.17233
  0
LINE
  8
0
  6
CONTINUOUS
 62
     7
 10
119.97309
 20
-309.17511
 11
119.97309
 21
-313.24258
  0
LINE
  8
0
  6
CONTINUOUS
 62
     7
 10
119.47309
 20
-313.74258
 11
77.973091
 21
-313.74258
  0
LINE
  8
0
  6
CONTINUOUS
 62
     7
 10
119.97308
 20
-313.24258
 11
119.47308
 21
-313.74258
  0
LINE
  8
0
  6
CONTINUOUS
 62
     7
 10
35.973091
 20
-309.24258
 11
36.505028
 21
-309.24258
  0
LINE
  8
0
  6
CONTINUOUS
 62
     7
 10
77.973091
 20
-309.24258
 11
119.97309
 21
-309.24258
  0
LINE
  8
0
  6
CONTINUOUS
 62
     7
 10
119.62079
 20
-296.99362
 11
117.27467
 21
-302.63916
  0
LINE
  8
0
  6
CONTINUOUS
 62
     7
 10
118.97309
 20
-317.74258
 11
118.97309
 21
-332.74258
  0
LINE
  8
0
  6
CONTINUOUS
 62
     7
 10
118.97308
 20
-317.74258
 11
118.47309
 21
-317.24258
  0
LINE
  8
0
  6
CONTINUOUS
 62
     7
 10
116.12962
 20
-317.74258
 11
118.97309
 21
-317.74258
  0
LINE
  8
0
  6
CONTINUOUS
 62
     7
 10
44.973091
 20
-340.74258
 11
110.97309
 21
-340.74258
  0
LINE
  8
0
  6
CONTINUOUS
 62
     7
 10
116.12962
 20
-317.74258
 11
116.12962
 21
-332.74258
  0
LINE
  8
0
  6
CONTINUOUS
 62
     7
 10
90.93457
 20
-317.74258
 11
90.93457
 21
-332.74258
  0
LINE
  8
0
  6
CONTINUOUS
 62
     7
 10
77.973091
 20
-332.74258
 11
118.97309
 21
-332.74258
  0
LINE
  8
0
  6
CONTINUOUS
 62
     7
 10
97.799324
 20
-317.74258
 11
97.799324
 21
-332.74258
  0
LINE
  8
0
  6
CONTINUOUS
 62
     7
 10
90.93457
 20
-317.74258
 11
97.799324
 21
-317.74258
  0
LINE
  8
0
  6
CONTINUOUS
 62
     7
 10
77.973091
 20
-317.24258
 11
118.47309
 21
-317.24258
  0
LINE
  8
0
  6
CONTINUOUS
 62
     7
 10
128.48351
 20
-288.62912
 11
131.35965
 21
-285.75299
  0
LINE
  8
0
  6
CONTINUOUS
 62
     7
 10
131.35963
 20
-285.75299
 11
131.35963
 21
-285.04587
  0
LINE
  8
0
  6
CONTINUOUS
 62
     7
 10
69.134254
 20
-229.18445
 11
69.510391
 21
-229.56058
  0
LINE
  8
0
  6
CONTINUOUS
 62
     7
 10
98.832741
 20
-258.88293
 11
128.53122
 21
-288.58142
  0
LINE
  8
0
  6
CONTINUOUS
 62
     7
 10
119.6208
 20
-296.99362
 11
121.95383
 21
-291.34268
  0
LINE
  8
0
  6
CONTINUOUS
 62
     7
 10
133.83452
 20
-281.86389
 11
144.44113
 21
-271.25729
  0
LINE
  8
0
  6
CONTINUOUS
 62
     7
 10
133.83452
 20
-281.86389
 11
133.12741
 21
-281.86389
  0
LINE
  8
0
  6
CONTINUOUS
 62
     7
 10
131.82388
 20
-279.85327
 11
133.83452
 21
-281.86389
  0
LINE
  8
0
  6
CONTINUOUS
 62
     7
 10
97.772079
 20
-213.27455
 11
144.44113
 21
-259.9436
  0
LINE
  8
0
  6
CONTINUOUS
 62
     7
 10
131.82388
 20
-279.85327
 11
142.43048
 21
-269.24667
  0
LINE
  8
0
  6
CONTINUOUS
 62
     7
 10
114.0083
 20
-262.03769
 11
124.61491
 21
-251.43108
  0
LINE
  8
0
  6
CONTINUOUS
 62
     7
 10
115.44975
 20
-242.26591
 11
144.44113
 21
-271.25729
  0
LINE
  8
0
  6
CONTINUOUS
 62
     7
 10
118.86241
 20
-266.89178
 11
129.46901
 21
-256.28519
  0
LINE
  8
0
  6
CONTINUOUS
 62
     7
 10
114.0083
 20
-262.03769
 11
118.86241
 21
-266.89178
  0
LINE
  8
0
  6
CONTINUOUS
 62
     7
 10
-121.056
 20
33.218147
 11
-106.056
 21
33.218147
  0
LINE
  8
0
  6
CONTINUOUS
 62
     7
 10
-107.33678
 20
31.218142
 11
-107.33678
 21
27.81814
  0
LINE
  8
0
  6
CONTINUOUS
 62
     7
 10
-99.772079
 20
48.388855
 11
-110.37868
 21
58.995457
  0
LINE
  8
0
  6
CONTINUOUS
 62
     7
 10
-99.301857
 20
50.747059
 11
-96.897697
 21
53.151222
  0
LINE
  8
0
  6
CONTINUOUS
 62
     7
 10
-119.21751
 20
70.66272
 11
-119.92462
 21
70.66272
  0
LINE
  8
0
  6
CONTINUOUS
 62
     7
 10
-119.21751
 20
70.662712
 11
-108.96447
 21
60.409672
  0
LINE
  8
0
  6
CONTINUOUS
 62
     7
 10
-119.92462
 20
70.662712
 11
-120.98528
 21
69.602051
  0
LINE
  8
0
  6
CONTINUOUS
 62
     7
 10
-115.83848
 20
72.79911
 11
-116.45979
 21
73.420425
  0
LINE
  8
0
  6
CONTINUOUS
 62
     7
 10
-116.45979
 20
73.420425
 11
-111.51005
 21
78.370178
  0
LINE
  8
0
  6
CONTINUOUS
 62
     7
 10
-116.45979
 20
72.713326
 11
-116.45979
 21
73.420433
  0
LINE
  8
0
  6
CONTINUOUS
 62
     7
 10
-109.57503
 20
66.53566
 11
-111.07542
 21
68.036064
  0
LINE
  8
0
  6
CONTINUOUS
 62
     7
 10
-115.83848
 20
72.79911
 11
-110.88873
 21
77.748856
  0
LINE
  8
0
  6
CONTINUOUS
 62
     7
 10
-109.57503
 20
66.53566
 11
-104.62528
 21
71.485405
  0
LINE
  8
0
  6
CONTINUOUS
 62
     7
 10
-111.07542
 20
68.036064
 11
-106.12568
 21
72.985809
  0
LINE
  8
0
  6
CONTINUOUS
 62
     7
 10
-101.257
 20
68.117134
 11
-111.51005
 21
78.370178
  0
LINE
  8
0
  6
CONTINUOUS
 62
     7
 10
-106.5603
 20
62.813831
 11
-116.45979
 21
72.713326
  0
LINE
  8
0
  6
CONTINUOUS
 62
     7
 10
-120.98528
 20
69.602051
 11
-110.37868
 21
58.995457
  0
LINE
  8
0
  6
CONTINUOUS
 62
     7
 10
-118.62708
 20
70.072273
 11
-116.22291
 21
72.47644
  0
LINE
  8
0
  6
CONTINUOUS
 62
     7
 10
-121.056
 20
31.218142
 11
-135.556
 21
31.218142
  0
LINE
  8
0
  6
CONTINUOUS
 62
     7
 10
-136.056
 20
31.718142
 11
-136.056
 21
33.218143
  0
LINE
  8
0
  6
CONTINUOUS
 62
     7
 10
-135.556
 20
31.218145
 11
-136.056
 21
31.718145
  0
LINE
  8
0
  6
CONTINUOUS
 62
     7
 10
-134.67732
 20
27.31814
 11
-135.556
 21
27.31814
  0
LINE
  8
0
  6
CONTINUOUS
 62
     7
 10
-135.556
 20
27.31814
 11
-135.556
 21
20.31814
  0
LINE
  8
0
  6
CONTINUOUS
 62
     7
 10
-135.056
 20
27.818138
 11
-135.556
 21
27.318144
  0
LINE
  8
0
  6
CONTINUOUS
 62
     7
 10
-125.81946
 20
27.31814
 11
-127.94135
 21
27.31814
  0
LINE
  8
0
  6
CONTINUOUS
 62
     7
 10
-134.67732
 20
27.31814
 11
-134.67732
 21
20.31814
  0
LINE
  8
0
  6
CONTINUOUS
 62
     7
 10
-125.81946
 20
27.31814
 11
-125.81946
 21
20.31814
  0
LINE
  8
0
  6
CONTINUOUS
 62
     7
 10
-127.94135
 20
27.31814
 11
-127.94135
 21
20.31814
  0
LINE
  8
0
  6
CONTINUOUS
 62
     7
 10
-121.056
 20
20.31814
 11
-135.556
 21
20.31814
  0
LINE
  8
0
  6
CONTINUOUS
 62
     7
 10
-121.056
 20
27.81814
 11
-135.056
 21
27.81814
  0
LINE
  8
0
  6
CONTINUOUS
 62
     7
 10
-134.77522
 20
31.218142
 11
-134.77522
 21
27.81814
  0
LINE
  8
0
  6
CONTINUOUS
 62
     7
 10
-121.056
 20
33.218147
 11
-136.056
 21
33.218147
  0
LINE
  8
0
  6
CONTINUOUS
 62
     7
 10
-14.416727
 20
33.21814
 11
3.0832729
 21
33.21814
  0
LINE
  8
0
  6
CONTINUOUS
 62
     7
 10
1.7639524
 20
31.218138
 11
1.7639524
 21
27.81814
  0
LINE
  8
0
  6
CONTINUOUS
 62
     7
 10
-14.416727
 20
31.218138
 11
-31.416731
 21
31.218138
  0
LINE
  8
0
  6
CONTINUOUS
 62
     7
 10
-31.916731
 20
31.718138
 11
-31.916731
 21
33.21814
  0
LINE
  8
0
  6
CONTINUOUS
 62
     7
 10
-31.416729
 20
31.218138
 11
-31.916723
 21
31.718134
  0
LINE
  8
0
  6
CONTINUOUS
 62
     7
 10
-22.337034
 20
27.318144
 11
-22.337034
 21
19.31814
  0
LINE
  8
0
  6
CONTINUOUS
 62
     7
 10
-30.538054
 20
27.318144
 11
-31.416731
 21
27.318144
  0
LINE
  8
0
  6
CONTINUOUS
 62
     7
 10
-31.416729
 20
27.318142
 11
-30.916729
 21
27.818144
  0
LINE
  8
0
  6
CONTINUOUS
 62
     7
 10
-31.416731
 20
27.31814
 11
-31.416731
 21
19.31814
  0
LINE
  8
0
  6
CONTINUOUS
 62
     7
 10
-30.538054
 20
27.318144
 11
-30.538054
 21
19.31814
  0
LINE
  8
0
  6
CONTINUOUS
 62
     7
 10
-20.215719
 20
27.318144
 11
-20.215719
 21
19.31814
  0
LINE
  8
0
  6
CONTINUOUS
 62
     7
 10
-14.416727
 20
19.31814
 11
-31.416731
 21
19.31814
  0
LINE
  8
0
  6
CONTINUOUS
 62
     7
 10
-20.215719
 20
27.318144
 11
-22.337034
 21
27.318144
  0
LINE
  8
0
  6
CONTINUOUS
 62
     7
 10
-14.416727
 20
27.81814
 11
-30.916731
 21
27.81814
  0
LINE
  8
0
  6
CONTINUOUS
 62
     7
 10
-30.59741
 20
31.218138
 11
-30.59741
 21
27.81814
  0
LINE
  8
0
  6
CONTINUOUS
 62
     7
 10
-14.416727
 20
33.21814
 11
-31.916731
 21
33.21814
  0
LINE
  8
0
  6
CONTINUOUS
 62
     7
 10
-3.7394087
 20
58.995457
 11
8.6349545
 21
46.621094
  0
LINE
  8
0
  6
CONTINUOUS
 62
     7
 10
9.0488672
 20
49.035614
 11
11.453029
 21
51.439774
  0
LINE
  8
0
  6
CONTINUOUS
 62
     7
 10
-15.053109
 20
72.430481
 11
-16.11377
 21
71.36982
  0
LINE
  8
0
  6
CONTINUOUS
 62
     7
 10
-2.3251925
 20
60.409672
 11
-14.346003
 21
72.430481
  0
LINE
  8
0
  6
CONTINUOUS
 62
     7
 10
-5.1679807
 20
68.767883
 11
0.48887646
 21
74.424744
  0
LINE
  8
0
  6
CONTINUOUS
 62
     7
 10
-3.6679842
 20
67.267891
 11
1.9888726
 21
72.924744
  0
LINE
  8
0
  6
CONTINUOUS
 62
     7
 10
-10.966971
 20
74.566879
 11
-5.3101144
 21
80.223732
  0
LINE
  8
0
  6
CONTINUOUS
 62
     7
 10
-11.588293
 20
75.188202
 11
-5.9314384
 21
80.845055
  0
LINE
  8
0
  6
CONTINUOUS
 62
     7
 10
-10.966971
 20
74.566879
 11
-11.588296
 21
75.188202
  0
LINE
  8
0
  6
CONTINUOUS
 62
     7
 10
-3.6679842
 20
67.267891
 11
-5.1679807
 21
68.767883
  0
LINE
  8
0
  6
CONTINUOUS
 62
     7
 10
6.0893764
 20
68.824242
 11
-5.9314384
 21
80.845055
  0
LINE
  8
0
  6
CONTINUOUS
 62
     7
 10
0.078969032
 20
62.813835
 11
-11.588293
 21
74.481094
  0
LINE
  8
0
  6
CONTINUOUS
 62
     7
 10
-14.346003
 20
72.430489
 11
-15.05311
 21
72.430489
  0
LINE
  8
0
  6
CONTINUOUS
 62
     7
 10
-3.7394087
 20
58.995457
 11
-16.113771
 21
71.36982
  0
LINE
  8
0
  6
CONTINUOUS
 62
     7
 10
-13.699252
 20
71.78373
 11
-11.295091
 21
74.187897
  0
LINE
  8
0
  6
CONTINUOUS
 62
     7
 10
-11.588293
 20
75.188194
 11
-11.588293
 21
74.481087
  0
LINE
  8
0
  6
CONTINUOUS
 62
     7
 10
104.33511
 20
33.335178
 11
126.33511
 21
33.335178
  0
LINE
  8
0
  6
CONTINUOUS
 62
     7
 10
114.92968
 20
58.912704
 11
130.48602
 21
43.356358
  0
LINE
  8
0
  6
CONTINUOUS
 62
     7
 10
125.07879
 20
31.318144
 11
125.07879
 21
27.818144
  0
LINE
  8
0
  6
CONTINUOUS
 62
     7
 10
130.90697
 20
45.78793
 11
133.38184
 21
48.262802
  0
LINE
  8
0
  6
CONTINUOUS
 62
     7
 10
118.8308
 20
62.813831
 11
103.98157
 21
77.663071
  0
LINE
  8
0
  6
CONTINUOUS
 62
     7
 10
116.35593
 20
60.338959
 11
101.15314
 21
75.541748
  0
LINE
  8
0
  6
CONTINUOUS
 62
     7
 10
114.49394
 20
67.857796
 11
111.75098
 21
70.600761
  0
LINE
  8
0
  6
CONTINUOUS
 62
     7
 10
103.98156
 20
77.663078
 11
103.98156
 21
78.370186
  0
LINE
  8
0
  6
CONTINUOUS
 62
     7
 10
105.11774
 20
77.234009
 11
103.98157
 21
78.370178
  0
LINE
  8
0
  6
CONTINUOUS
 62
     7
 10
103.98157
 20
78.370178
 11
110.34553
 21
84.734138
  0
LINE
  8
0
  6
CONTINUOUS
 62
     7
 10
125.54832
 20
69.531349
 11
110.34553
 21
84.734138
  0
LINE
  8
0
  6
CONTINUOUS
 62
     7
 10
114.49394
 20
67.857796
 11
120.8579
 21
74.221764
  0
LINE
  8
0
  6
CONTINUOUS
 62
     7
 10
111.75098
 20
70.600761
 11
118.11494
 21
76.964722
  0
LINE
  8
0
  6
CONTINUOUS
 62
     7
 10
105.11774
 20
77.234009
 11
111.4817
 21
83.597969
  0
LINE
  8
0
  6
CONTINUOUS
 62
     7
 10
114.92968
 20
58.912704
 11
99.373329
 21
74.469048
  0
LINE
  8
0
  6
CONTINUOUS
 62
     7
 10
101.8049
 20
74.889984
 11
104.27978
 21
77.364861
  0
LINE
  8
0
  6
CONTINUOUS
 62
     7
 10
101.15314
 20
75.541756
 11
100.44603
 21
75.541756
  0
LINE
  8
0
  6
CONTINUOUS
 62
     7
 10
99.373329
 20
74.469048
 11
100.44603
 21
75.541748
  0
LINE
  8
0
  6
CONTINUOUS
 62
     7
 10
104.33511
 20
31.318144
 11
82.835106
 21
31.318144
  0
LINE
  8
0
  6
CONTINUOUS
 62
     7
 10
82.335114
 20
33.335175
 11
82.335114
 21
31.818144
  0
LINE
  8
0
  6
CONTINUOUS
 62
     7
 10
82.835121
 20
31.31814
 11
82.335121
 21
31.81814
  0
LINE
  8
0
  6
CONTINUOUS
 62
     7
 10
97.701866
 20
27.318144
 11
93.822731
 21
27.318144
  0
LINE
  8
0
  6
CONTINUOUS
 62
     7
 10
83.335114
 20
27.818146
 11
82.835114
 21
27.318146
  0
LINE
  8
0
  6
CONTINUOUS
 62
     7
 10
84.441902
 20
27.318144
 11
82.835114
 21
27.318144
  0
LINE
  8
0
  6
CONTINUOUS
 62
     7
 10
82.835114
 20
27.318144
 11
82.835114
 21
18.318144
  0
LINE
  8
0
  6
CONTINUOUS
 62
     7
 10
104.33511
 20
18.318144
 11
82.835114
 21
18.318144
  0
LINE
  8
0
  6
CONTINUOUS
 62
     7
 10
97.701866
 20
27.318144
 11
97.701866
 21
18.318144
  0
LINE
  8
0
  6
CONTINUOUS
 62
     7
 10
93.822731
 20
27.318144
 11
93.822731
 21
18.318144
  0
LINE
  8
0
  6
CONTINUOUS
 62
     7
 10
84.441902
 20
27.318144
 11
84.441902
 21
18.318144
  0
LINE
  8
0
  6
CONTINUOUS
 62
     7
 10
104.33511
 20
27.818144
 11
83.335114
 21
27.818144
  0
LINE
  8
0
  6
CONTINUOUS
 62
     7
 10
83.591438
 20
31.318144
 11
83.591438
 21
27.818144
  0
LINE
  8
0
  6
CONTINUOUS
 62
     7
 10
104.33511
 20
33.335178
 11
82.335114
 21
33.335178
  0
LINE
  8
0
  6
CONTINUOUS
 62
     7
 10
-83.128159
 20
-93.575539
 11
-57.628159
 21
-93.575539
  0
LINE
  8
0
  6
CONTINUOUS
 62
     7
 10
-59.515366
 20
-96.110107
 11
-59.515366
 21
-99.710106
  0
LINE
  8
0
  6
CONTINUOUS
 62
     7
 10
-54.514778
 20
-86.059181
 11
-72.545998
 21
-68.027962
  0
LINE
  8
0
  6
CONTINUOUS
 62
     7
 10
-53.998302
 20
-82.991226
 11
-51.452724
 21
-80.445648
  0
LINE
  8
0
  6
CONTINUOUS
 62
     7
 10
-90.577225
 20
-49.996738
 11
-89.138565
 21
-48.558075
  0
LINE
  8
0
  6
CONTINUOUS
 62
     7
 10
-88.431458
 20
-48.558075
 11
-70.753784
 21
-66.235748
  0
LINE
  8
0
  6
CONTINUOUS
 62
     7
 10
-68.208206
 20
-63.690166
 11
-85.178772
 21
-46.719604
  0
LINE
  8
0
  6
CONTINUOUS
 62
     7
 10
-74.008919
 20
-57.18235
 11
-66.654999
 21
-49.828434
  0
LINE
  8
0
  6
CONTINUOUS
 62
     7
 10
-87.50927
 20
-49.480263
 11
-84.963692
 21
-46.934685
  0
LINE
  8
0
  6
CONTINUOUS
 62
     7
 10
-75.75293
 20
-55.438339
 11
-68.39901
 21
-48.084423
  0
LINE
  8
0
  6
CONTINUOUS
 62
     7
 10
-74.008919
 20
-57.18235
 11
-75.75293
 21
-55.438339
  0
LINE
  8
0
  6
CONTINUOUS
 62
     7
 10
-85.178772
 20
-46.012497
 11
-77.824852
 21
-38.658581
  0
LINE
  8
0
  6
CONTINUOUS
 62
     7
 10
-84.456375
 20
-46.73489
 11
-77.102463
 21
-39.380974
  0
LINE
  8
0
  6
CONTINUOUS
 62
     7
 10
-60.500736
 20
-55.982697
 11
-77.824852
 21
-38.658581
  0
LINE
  8
0
  6
CONTINUOUS
 62
     7
 10
-90.577225
 20
-49.996738
 11
-72.545998
 21
-68.027962
  0
LINE
  8
0
  6
CONTINUOUS
 62
     7
 10
-89.138557
 20
-48.558075
 11
-88.43145
 21
-48.558075
  0
LINE
  8
0
  6
CONTINUOUS
 62
     7
 10
-85.178772
 20
-46.719608
 11
-85.178772
 21
-46.012501
  0
LINE
  8
0
  6
CONTINUOUS
 62
     7
 10
-84.456375
 20
-46.73489
 11
-85.178772
 21
-46.012497
  0
LINE
  8
0
  6
CONTINUOUS
 62
     7
 10
-108.62816
 20
-94.14312
 11
-108.62816
 21
-95.610107
  0
LINE
  8
0
  6
CONTINUOUS
 62
     7
 10
-108.62815
 20
-95.610107
 11
-108.12815
 21
-96.110107
  0
LINE
  8
0
  6
CONTINUOUS
 62
     7
 10
-108.12816
 20
-96.110107
 11
-83.128159
 21
-96.110107
  0
LINE
  8
0
  6
CONTINUOUS
 62
     7
 10
-108.62816
 20
-93.610107
 11
-108.62816
 21
-95.610107
  0
LINE
  8
0
  6
CONTINUOUS
 62
     7
 10
-106.60655
 20
-100.21011
 11
-106.60655
 21
-110.61011
  0
LINE
  8
0
  6
CONTINUOUS
 62
     7
 10
-107.62816
 20
-100.21011
 11
-107.62816
 21
-110.61011
  0
LINE
  8
0
  6
CONTINUOUS
 62
     7
 10
-91.831619
 20
-100.21011
 11
-91.831619
 21
-110.61011
  0
LINE
  8
0
  6
CONTINUOUS
 62
     7
 10
-107.12816
 20
-99.710114
 11
-107.62816
 21
-100.21011
  0
LINE
  8
0
  6
CONTINUOUS
 62
     7
 10
-91.831619
 20
-100.21011
 11
-94.298019
 21
-100.21011
  0
LINE
  8
0
  6
CONTINUOUS
 62
     7
 10
-106.60655
 20
-100.21011
 11
-107.62816
 21
-100.21011
  0
LINE
  8
0
  6
CONTINUOUS
 62
     7
 10
-94.298019
 20
-100.21011
 11
-94.298019
 21
-110.61011
  0
LINE
  8
0
  6
CONTINUOUS
 62
     7
 10
-83.128159
 20
-110.61011
 11
-107.62816
 21
-110.61011
  0
LINE
  8
0
  6
CONTINUOUS
 62
     7
 10
-83.128159
 20
-99.710106
 11
-107.12816
 21
-99.710106
  0
LINE
  8
0
  6
CONTINUOUS
 62
     7
 10
-106.74095
 20
-96.110107
 11
-106.74095
 21
-99.710106
  0
LINE
  8
0
  6
CONTINUOUS
 62
     7
 10
-83.128159
 20
-93.575539
 11
-108.62816
 21
-93.575539
  0
LINE
  8
0
  6
CONTINUOUS
 62
     7
 10
121.22633
 20
-104.96834
 11
121.22633
 21
-108.56834
  0
LINE
  8
0
  6
CONTINUOUS
 62
     7
 10
92.61866
 20
-102.42626
 11
123.11866
 21
-102.42626
  0
LINE
  8
0
  6
CONTINUOUS
 62
     7
 10
62.118656
 20
-104.46835
 11
62.618656
 21
-104.96835
  0
LINE
  8
0
  6
CONTINUOUS
 62
     7
 10
62.618652
 20
-104.96834
 11
92.61866
 21
-104.96834
  0
LINE
  8
0
  6
CONTINUOUS
 62
     7
 10
62.118652
 20
-102.48663
 11
62.118652
 21
-104.46834
  0
LINE
  8
0
  6
CONTINUOUS
 62
     7
 10
92.61866
 20
-120.46834
 11
63.118652
 21
-120.46834
  0
LINE
  8
0
  6
CONTINUOUS
 62
     7
 10
92.61866
 20
-102.42626
 11
62.118652
 21
-102.42626
  0
LINE
  8
0
  6
CONTINUOUS
 62
     7
 10
63.61866
 20
-108.56834
 11
63.11866
 21
-109.06835
  0
LINE
  8
0
  6
CONTINUOUS
 62
     7
 10
63.118652
 20
-109.06834
 11
63.118652
 21
-120.46834
  0
LINE
  8
0
  6
CONTINUOUS
 62
     7
 10
78.495102
 20
-109.06834
 11
78.495102
 21
-120.46834
  0
LINE
  8
0
  6
CONTINUOUS
 62
     7
 10
65.022919
 20
-109.06834
 11
65.022919
 21
-120.46834
  0
LINE
  8
0
  6
CONTINUOUS
 62
     7
 10
83.092377
 20
-109.06834
 11
83.092377
 21
-120.46834
  0
LINE
  8
0
  6
CONTINUOUS
 62
     7
 10
83.092377
 20
-109.06834
 11
78.495102
 21
-109.06834
  0
LINE
  8
0
  6
CONTINUOUS
 62
     7
 10
65.022919
 20
-109.06834
 11
63.118652
 21
-109.06834
  0
LINE
  8
0
  6
CONTINUOUS
 62
     7
 10
92.61866
 20
-108.56834
 11
63.618652
 21
-108.56834
  0
LINE
  8
0
  6
CONTINUOUS
 62
     7
 10
64.010986
 20
-104.96834
 11
64.010986
 21
-108.56834
  0
LINE
  8
0
  6
CONTINUOUS
 62
     7
 10
127.20677
 20
-90.065079
 11
129.75235
 21
-87.519493
  0
LINE
  8
0
  6
CONTINUOUS
 62
     7
 10
126.88358
 20
-93.336937
 11
105.31683
 21
-71.77018
  0
LINE
  8
0
  6
CONTINUOUS
 62
     7
 10
83.792755
 20
-50.160728
 11
85.194038
 21
-48.759445
  0
LINE
  8
0
  6
CONTINUOUS
 62
     7
 10
118.07451
 20
-59.012497
 11
97.214859
 21
-38.152847
  0
LINE
  8
0
  6
CONTINUOUS
 62
     7
 10
89.153831
 20
-46.920971
 11
89.153831
 21
-46.213863
  0
LINE
  8
0
  6
CONTINUOUS
 62
     7
 10
89.153839
 20
-46.213867
 11
97.214859
 21
-38.152847
  0
LINE
  8
0
  6
CONTINUOUS
 62
     7
 10
100.02662
 20
-57.086658
 11
108.08764
 21
-49.025635
  0
LINE
  8
0
  6
CONTINUOUS
 62
     7
 10
90.500343
 20
-47.560383
 11
98.561363
 21
-39.499359
  0
LINE
  8
0
  6
CONTINUOUS
 62
     7
 10
103.27738
 20
-60.337421
 11
111.33841
 21
-52.276398
  0
LINE
  8
0
  6
CONTINUOUS
 62
     7
 10
109.65993
 20
-67.427071
 11
89.153831
 21
-46.920967
  0
LINE
  8
0
  6
CONTINUOUS
 62
     7
 10
103.27738
 20
-60.337421
 11
100.02662
 21
-57.086658
  0
LINE
  8
0
  6
CONTINUOUS
 62
     7
 10
90.500343
 20
-47.560383
 11
89.153831
 21
-46.213871
  0
LINE
  8
0
  6
CONTINUOUS
 62
     7
 10
87.021919
 20
-49.880226
 11
89.567505
 21
-47.334641
  0
LINE
  8
0
  6
CONTINUOUS
 62
     7
 10
83.750061
 20
-50.203415
 11
105.31683
 21
-71.77018
  0
LINE
  8
0
  6
CONTINUOUS
 62
     7
 10
85.901138
 20
-48.759445
 11
107.11435
 21
-69.972656
  0
LINE
  8
0
  6
CONTINUOUS
 62
     7
 10
85.194031
 20
-48.759453
 11
85.901138
 21
-48.759453
  0
LINE
  8
0
  6
CONTINUOUS
 62
     7
 10
-34.84605
 20
-276.94675
 11
-32.01762
 21
-274.11832
  0
LINE
  8
0
  6
CONTINUOUS
 62
     7
 10
-41.220997
 20
-292.97888
 11
-41.220997
 21
-296.97888
  0
LINE
  8
0
  6
CONTINUOUS
 62
     7
 10
-100.34082
 20
-316.97888
 11
-48.34082
 21
-316.97888
  0
LINE
  8
0
  6
CONTINUOUS
 62
     7
 10
-108.84082
 20
-289.47888
 11
-108.84082
 21
-292.47888
  0
LINE
  8
0
  6
CONTINUOUS
 62
     7
 10
-108.34082
 20
-292.97888
 11
-74.34082
 21
-292.97888
  0
LINE
  8
0
  6
CONTINUOUS
 62
     7
 10
-108.34084
 20
-292.97888
 11
-108.84084
 21
-292.47888
  0
LINE
  8
0
  6
CONTINUOUS
 62
     7
 10
-108.34082
 20
-297.47888
 11
-107.84081
 21
-296.97885
  0
LINE
  8
0
  6
CONTINUOUS
 62
     7
 10
-105.60221
 20
-297.47888
 11
-108.34082
 21
-297.47888
  0
LINE
  8
0
  6
CONTINUOUS
 62
     7
 10
-108.34082
 20
-297.47888
 11
-108.34082
 21
-308.97888
  0
LINE
  8
0
  6
CONTINUOUS
 62
     7
 10
-105.60221
 20
-297.47888
 11
-105.60221
 21
-308.97888
  0
LINE
  8
0
  6
CONTINUOUS
 62
     7
 10
-84.551109
 20
-297.47888
 11
-91.162682
 21
-297.47888
  0
LINE
  8
0
  6
CONTINUOUS
 62
     7
 10
-91.162682
 20
-297.47888
 11
-91.162682
 21
-308.97888
  0
LINE
  8
0
  6
CONTINUOUS
 62
     7
 10
-74.34082
 20
-308.97888
 11
-108.34082
 21
-308.97888
  0
LINE
  8
0
  6
CONTINUOUS
 62
     7
 10
-84.551109
 20
-297.47888
 11
-84.551109
 21
-308.97888
  0
LINE
  8
0
  6
CONTINUOUS
 62
     7
 10
-74.34082
 20
-296.97888
 11
-107.84082
 21
-296.97888
  0
LINE
  8
0
  6
CONTINUOUS
 62
     7
 10
-107.46064
 20
-292.97888
 11
-107.46064
 21
-296.97888
  0
LINE
  8
0
  6
CONTINUOUS
 62
     7
 10
-108.84082
 20
-289.47888
 11
-74.34082
 21
-289.47888
  0
LINE
  8
0
  6
CONTINUOUS
 62
     7
 10
-82.118996
 20
-229.6738
 11
-58.07737
 21
-253.71542
  0
LINE
  8
0
  6
CONTINUOUS
 62
     7
 10
-84.947426
 20
-231.79512
 11
-60.552242
 21
-256.19028
  0
LINE
  8
0
  6
CONTINUOUS
 62
     7
 10
-55.248943
 20
-250.88699
 11
-78.937012
 21
-227.19891
  0
LINE
  8
0
  6
CONTINUOUS
 62
     7
 10
-78.937019
 20
-226.49181
 11
-78.937019
 21
-227.19891
  0
LINE
  8
0
  6
CONTINUOUS
 62
     7
 10
-77.000534
 20
-228.4283
 11
-78.937012
 21
-226.49181
  0
LINE
  8
0
  6
CONTINUOUS
 62
     7
 10
-78.937012
 20
-226.49181
 11
-70.80529
 21
-218.36008
  0
LINE
  8
0
  6
CONTINUOUS
 62
     7
 10
-77.000534
 20
-228.4283
 11
-68.868805
 21
-220.29657
  0
LINE
  8
0
  6
CONTINUOUS
 62
     7
 10
-62.11515
 20
-243.31367
 11
-66.790245
 21
-238.63858
  0
LINE
  8
0
  6
CONTINUOUS
 62
     7
 10
-66.790245
 20
-238.63858
 11
-58.658512
 21
-230.50685
  0
LINE
  8
0
  6
CONTINUOUS
 62
     7
 10
-46.76366
 20
-242.4017
 11
-70.80529
 21
-218.36008
  0
LINE
  8
0
  6
CONTINUOUS
 62
     7
 10
-62.11515
 20
-243.31367
 11
-53.983421
 21
-235.18195
  0
LINE
  8
0
  6
CONTINUOUS
 62
     7
 10
-81.308685
 20
-230.4841
 11
-78.480255
 21
-227.65567
  0
LINE
  8
0
  6
CONTINUOUS
 62
     7
 10
-84.947426
 20
-231.79512
 11
-82.826103
 21
-229.6738
  0
LINE
  8
0
  6
CONTINUOUS
 62
     7
 10
-82.118996
 20
-229.67378
 11
-82.826103
 21
-229.67378
  0
LINE
  8
0
  6
CONTINUOUS
 62
     7
 10
117.88673
 20
-313.74258
 11
117.88673
 21
-317.24258
  0
LINE
  8
0
  6
CONTINUOUS
 62
     7
 10
130.36081
 20
-284.04706
 11
132.83569
 21
-281.57217
  0
LINE
  8
0
  6
CONTINUOUS
 62
     7
 10
35.973091
 20
-309.17511
 11
35.973091
 21
-313.24258
  0
LINE
  8
0
  6
CONTINUOUS
 62
     7
 10
36.473091
 20
-313.74258
 11
77.973091
 21
-313.74258
  0
LINE
  8
0
  6
CONTINUOUS
 62
     7
 10
35.973099
 20
-313.24258
 11
36.473099
 21
-313.74258
  0
LINE
  8
0
  6
CONTINUOUS
 62
     7
 10
36.973091
 20
-317.74258
 11
36.973091
 21
-332.74258
  0
LINE
  8
0
  6
CONTINUOUS
 62
     7
 10
36.973095
 20
-317.74258
 11
37.473095
 21
-317.24258
  0
LINE
  8
0
  6
CONTINUOUS
 62
     7
 10
39.816566
 20
-317.74258
 11
36.973091
 21
-317.74258
  0
LINE
  8
0
  6
CONTINUOUS
 62
     7
 10
39.816566
 20
-317.74258
 11
39.816566
 21
-332.74258
  0
LINE
  8
0
  6
CONTINUOUS
 62
     7
 10
65.011612
 20
-317.74258
 11
65.011612
 21
-332.74258
  0
LINE
  8
0
  6
CONTINUOUS
 62
     7
 10
77.973091
 20
-332.74258
 11
36.973091
 21
-332.74258
  0
LINE
  8
0
  6
CONTINUOUS
 62
     7
 10
58.146858
 20
-317.74258
 11
58.146858
 21
-332.74258
  0
LINE
  8
0
  6
CONTINUOUS
 62
     7
 10
65.011612
 20
-317.74258
 11
58.146858
 21
-317.74258
  0
LINE
  8
0
  6
CONTINUOUS
 62
     7
 10
77.973091
 20
-317.24258
 11
37.473091
 21
-317.24258
  0
LINE
  8
0
  6
CONTINUOUS
 62
     7
 10
38.059448
 20
-313.74258
 11
38.059448
 21
-317.24258
  0
LINE
  8
0
  6
CONTINUOUS
 62
     7
 10
77.973091
 20
-309.24258
 11
35.973091
 21
-309.24258
  0
LINE
  8
0
  6
CENTER
 62
     7
 10
125.08878
 20
-232.62689
 11
77.973091
 21
-279.74258
  0
LINE
  8
0
  6
CONTINUOUS
 62
     7
 10
102.01472
 20
-255.70096
 11
131.35965
 21
-285.04587
  0
LINE
  8
0
  6
CONTINUOUS
 62
     7
 10
104.48959
 20
-253.22607
 11
133.12741
 21
-281.86389
  0
LINE
  8
0
  6
CONTINUOUS
 62
     7
 10
98.832741
 20
-258.88293
 11
69.134262
 21
-229.18446
  0
LINE
  8
0
  6
CONTINUOUS
 62
     7
 10
75.851776
 20
-223.88115
 11
86.458382
 21
-213.27455
  0
LINE
  8
0
  6
CONTINUOUS
 62
     7
 10
75.851768
 20
-223.88115
 11
75.851768
 21
-224.58826
  0
LINE
  8
0
  6
CONTINUOUS
 62
     7
 10
77.862411
 20
-225.89178
 11
75.851776
 21
-223.88115
  0
LINE
  8
0
  6
CONTINUOUS
 62
     7
 10
71.962692
 20
-226.35602
 11
72.6698
 21
-226.35602
  0
LINE
  8
0
  6
CONTINUOUS
 62
     7
 10
77.862411
 20
-225.89178
 11
88.469009
 21
-215.28519
  0
LINE
  8
0
  6
CONTINUOUS
 62
     7
 10
95.678001
 20
-243.70738
 11
106.28461
 21
-233.10078
  0
LINE
  8
0
  6
CONTINUOUS
 62
     7
 10
115.44975
 20
-242.26591
 11
86.458382
 21
-213.27455
  0
LINE
  8
0
  6
CONTINUOUS
 62
     7
 10
90.823891
 20
-238.85327
 11
101.4305
 21
-228.24667
  0
LINE
  8
0
  6
CONTINUOUS
 62
     7
 10
95.678001
 20
-243.70738
 11
90.823891
 21
-238.85327
  0
LINE
  8
0
  6
CONTINUOUS
 62
     7
 10
73.668625
 20
-227.35486
 11
76.143494
 21
-224.87997
  0
LINE
  8
0
  6
CONTINUOUS
 62
     7
 10
102.01472
 20
-255.70096
 11
72.6698
 21
-226.35603
  0
LINE
  8
0
  6
CONTINUOUS
 62
     7
 10
104.48959
 20
-253.22607
 11
75.851768
 21
-224.58826
  0
LINE
  8
0
  6
CONTINUOUS
 62
     7
 10
69.086555
 20
-229.23216
 11
71.962692
 21
-226.35603
  0
LINE
  8
0
  6
CENTER
 62
     7
 10
-305.14255
 20
131.26225
 11
-305.14255
 21
92.016762
  0
LINE
  8
0
  6
CENTER
 62
     7
 10
-323.62445
 20
112.83893
 11
-287.37643
 21
112.83893
  0
LINE
  8
0
  6
CONTINUOUS
 62
     7
 10
-289.44788
 20
112.83892
 11
-294.04474
 21
123.93674
  0
LINE
  8
0
  6
CONTINUOUS
 62
     7
 10
-294.04474
 20
123.93675
 11
-305.14258
 21
128.53363
  0
LINE
  8
0
  6
CONTINUOUS
 62
     7
 10
-316.24036
 20
123.93674
 11
-305.14255
 21
128.5336
  0
LINE
  8
0
  6
CONTINUOUS
 62
     7
 10
-320.83725
 20
112.83894
 11
-316.24039
 21
123.93675
  0
LINE
  8
0
  6
CONTINUOUS
 62
     7
 10
-316.24039
 20
101.7411
 11
-320.83725
 21
112.83892
  0
LINE
  8
0
  6
CONTINUOUS
 62
     7
 10
-305.14255
 20
97.144249
 11
-316.24039
 21
101.74112
  0
LINE
  8
0
  6
CONTINUOUS
 62
     7
 10
-294.04474
 20
101.7411
 11
-305.14255
 21
97.144234
  0
LINE
  8
0
  6
CONTINUOUS
 62
     7
 10
-289.44788
 20
112.83894
 11
-294.04474
 21
101.74112
  0
LINE
  8
0
  6
CENTER
 62
     7
 10
-329.19293
 20
67.762352
 11
-281.44513
 21
67.762352
  0
LINE
  8
0
  6
CONTINUOUS
 62
     7
 10
-286.74191
 20
67.762344
 11
-292.13132
 21
80.773575
  0
LINE
  8
0
  6
CONTINUOUS
 62
     7
 10
-292.13132
 20
80.77359
 11
-305.14255
 21
86.163017
  0
LINE
  8
0
  6
CONTINUOUS
 62
     7
 10
-318.15381
 20
80.773575
 11
-305.14258
 21
86.163002
  0
LINE
  8
0
  6
CONTINUOUS
 62
     7
 10
-323.54324
 20
67.762352
 11
-318.15381
 21
80.773582
  0
LINE
  8
0
  6
CONTINUOUS
 62
     7
 10
-318.15381
 20
54.751099
 11
-323.54324
 21
67.762329
  0
LINE
  8
0
  6
CONTINUOUS
 62
     7
 10
-305.14258
 20
49.361687
 11
-318.15381
 21
54.751114
  0
LINE
  8
0
  6
CONTINUOUS
 62
     7
 10
-292.13132
 20
54.751099
 11
-305.14258
 21
49.361668
  0
LINE
  8
0
  6
CONTINUOUS
 62
     7
 10
-286.74188
 20
67.762344
 11
-292.13132
 21
54.751114
  0
LINE
  8
0
  6
CENTER
 62
     7
 10
-305.14255
 20
90.085632
 11
-305.14255
 21
46.635254
  0
LINE
  8
0
  6
CENTER
 62
     7
 10
-334.44955
 20
16.948168
 11
-276.18848
 21
16.948168
  0
LINE
  8
0
  6
CONTINUOUS
 62
     7
 10
-281.87112
 20
16.948164
 11
-288.68716
 21
33.403549
  0
LINE
  8
0
  6
CONTINUOUS
 62
     7
 10
-288.68716
 20
33.403553
 11
-305.14255
 21
40.219601
  0
LINE
  8
0
  6
CONTINUOUS
 62
     7
 10
-321.59796
 20
33.403545
 11
-305.14255
 21
40.219593
  0
LINE
  8
0
  6
CONTINUOUS
 62
     7
 10
-328.414
 20
16.94817
 11
-321.59796
 21
33.403561
  0
LINE
  8
0
  6
CONTINUOUS
 62
     7
 10
-321.59796
 20
0.49277091
 11
-328.414
 21
16.948156
  0
LINE
  8
0
  6
CONTINUOUS
 62
     7
 10
-305.14255
 20
-6.3232665
 11
-321.59793
 21
0.49278003
  0
LINE
  8
0
  6
CONTINUOUS
 62
     7
 10
-288.68716
 20
0.49277991
 11
-305.14258
 21
-6.3232665
  0
LINE
  8
0
  6
CONTINUOUS
 62
     7
 10
-281.87112
 20
16.948175
 11
-288.68719
 21
0.49278271
  0
LINE
  8
0
  6
CENTER
 62
     7
 10
-305.14255
 20
42.772995
 11
-305.14255
 21
-8.8846827
  0
LINE
  8
0
  6
CENTER
 62
     7
 10
-338.50998
 20
-39.122654
 11
-273.38651
 21
-39.122654
  0
LINE
  8
0
  6
CONTINUOUS
 62
     7
 10
-278.62396
 20
-39.122662
 11
-286.39108
 21
-20.371168
  0
LINE
  8
0
  6
CONTINUOUS
 62
     7
 10
-286.39105
 20
-20.371164
 11
-305.14258
 21
-12.604037
  0
LINE
  8
0
  6
CONTINUOUS
 62
     7
 10
-323.89404
 20
-20.37117
 11
-305.14258
 21
-12.604056
  0
LINE
  8
0
  6
CONTINUOUS
 62
     7
 10
-331.66119
 20
-39.122635
 11
-323.89407
 21
-20.371149
  0
LINE
  8
0
  6
CONTINUOUS
 62
     7
 10
-323.89404
 20
-57.874149
 11
-331.66116
 21
-39.122654
  0
LINE
  8
0
  6
CONTINUOUS
 62
     7
 10
-305.14255
 20
-65.641258
 11
-323.89404
 21
-57.874134
  0
LINE
  8
0
  6
CONTINUOUS
 62
     7
 10
-286.39108
 20
-57.874153
 11
-305.14255
 21
-65.641266
  0
LINE
  8
0
  6
CONTINUOUS
 62
     7
 10
-278.62396
 20
-39.122639
 11
-286.39108
 21
-57.874123
  0
LINE
  8
0
  6
CENTER
 62
     7
 10
-305.14255
 20
-10.091638
 11
-305.14255
 21
-69.715225
  0
LINE
  8
0
  6
CENTER
 62
     7
 10
-341.56992
 20
-126.10135
 11
-268.65002
 21
-126.10135
  0
LINE
  8
0
  6
CONTINUOUS
 62
     7
 10
-273.21201
 20
-126.10136
 11
-282.56424
 21
-103.52303
  0
LINE
  8
0
  6
CONTINUOUS
 62
     7
 10
-282.56424
 20
-103.52302
 11
-305.14258
 21
-94.170769
  0
LINE
  8
0
  6
CONTINUOUS
 62
     7
 10
-327.72089
 20
-103.52303
 11
-305.14258
 21
-94.170784
  0
LINE
  8
0
  6
CONTINUOUS
 62
     7
 10
-337.07315
 20
-126.10133
 11
-327.72089
 21
-103.52302
  0
LINE
  8
0
  6
CONTINUOUS
 62
     7
 10
-327.72089
 20
-148.67967
 11
-337.07315
 21
-126.10136
  0
LINE
  8
0
  6
CONTINUOUS
 62
     7
 10
-305.14258
 20
-158.03191
 11
-327.72089
 21
-148.67966
  0
LINE
  8
0
  6
CONTINUOUS
 62
     7
 10
-282.56424
 20
-148.67967
 11
-305.14258
 21
-158.03192
  0
LINE
  8
0
  6
CONTINUOUS
 62
     7
 10
-273.21201
 20
-126.10134
 11
-282.56424
 21
-148.67966
  0
LINE
  8
0
  6
CENTER
 62
     7
 10
-305.14255
 20
-90.474854
 11
-305.14255
 21
-160.96103
  0
LINE
  8
0
  6
CENTER
 62
     7
 10
-351.95825
 20
-229.99887
 11
-262.16077
 21
-229.99887
  0
LINE
  8
0
  6
CONTINUOUS
 62
     7
 10
-268.34125
 20
-229.99887
 11
-279.12009
 21
-203.97639
  0
LINE
  8
0
  6
CONTINUOUS
 62
     7
 10
-279.12009
 20
-203.97639
 11
-305.14258
 21
-193.19753
  0
LINE
  8
0
  6
CONTINUOUS
 62
     7
 10
-331.16504
 20
-203.97639
 11
-305.14258
 21
-193.19754
  0
LINE
  8
0
  6
CONTINUOUS
 62
     7
 10
-341.94391
 20
-229.99886
 11
-331.16504
 21
-203.97636
  0
LINE
  8
0
  6
CONTINUOUS
 62
     7
 10
-331.16504
 20
-256.02133
 11
-341.94391
 21
-229.99887
  0
LINE
  8
0
  6
CONTINUOUS
 62
     7
 10
-305.14255
 20
-266.8002
 11
-331.16504
 21
-256.02133
  0
LINE
  8
0
  6
CONTINUOUS
 62
     7
 10
-279.12012
 20
-256.02136
 11
-305.14255
 21
-266.8002
  0
LINE
  8
0
  6
CONTINUOUS
 62
     7
 10
-268.34122
 20
-229.99886
 11
-279.12009
 21
-256.02133
  0
LINE
  8
0
  6
CENTER
 62
     7
 10
-305.14255
 20
-186.54848
 11
-305.14255
 21
-271.51813
  0
LINE
  8
0
  6
CENTER
 62
     7
 10
-354.13077
 20
-335.72815
 11
-255.16045
 21
-335.72815
  0
LINE
  8
0
  6
CONTINUOUS
 62
     7
 10
-260.7645
 20
-335.72815
 11
-273.76254
 21
-304.34811
  0
LINE
  8
0
  6
CONTINUOUS
 62
     7
 10
-273.76251
 20
-304.34808
 11
-305.14258
 21
-291.35004
  0
LINE
  8
0
  6
CONTINUOUS
 62
     7
 10
-336.52261
 20
-304.34811
 11
-305.14258
 21
-291.35007
  0
LINE
  8
0
  6
CONTINUOUS
 62
     7
 10
-349.52063
 20
-335.72812
 11
-336.52261
 21
-304.34808
  0
LINE
  8
0
  6
CONTINUOUS
 62
     7
 10
-336.52258
 20
-367.10818
 11
-349.52063
 21
-335.72812
  0
LINE
  8
0
  6
CONTINUOUS
 62
     7
 10
-305.14258
 20
-380.10623
 11
-336.52261
 21
-367.10818
  0
LINE
  8
0
  6
CONTINUOUS
 62
     7
 10
-273.76254
 20
-367.10818
 11
-305.14258
 21
-380.10623
  0
LINE
  8
0
  6
CONTINUOUS
 62
     7
 10
-260.76447
 20
-335.72812
 11
-273.76251
 21
-367.10815
  0
LINE
  8
0
  6
CENTER
 62
     7
 10
-305.14255
 20
-285.5188
 11
-305.14255
 21
-385.45468
  0
ARC
  8
0
  6
CONTINUOUS
 62
     7
 10
-99.056
 20
39.205452
 40
31.5
 50
134.98751
 51
180.74456
  0
ARC
  8
0
  6
CONTINUOUS
 62
     7
 10
-104.74104
 20
35.914604
 40
3
 50
157.49802
 51
244.00329
  0
ARC
  8
0
  6
CENTER
 62
     7
 10
-99.056
 20
39.205452
 40
22
 50
135
 51
180.00001
  0
ARC
  8
0
  6
CONTINUOUS
 62
     7
 10
-99.056
 20
39.205452
 40
12.5
 50
135
 51
180.00001
  0
ARC
  8
0
  6
CONTINUOUS
 62
     7
 10
-103.64642
 20
43.807419
 40
6
 50
49.780218
 51
134.92797
  0
ARC
  8
0
  6
CONTINUOUS
 62
     7
 10
-105.55599
 20
39.197273
 40
6
 50
180.07207
 51
265.21977
  0
ARC
  8
0
  6
CONTINUOUS
 62
     7
 10
-100.74861
 20
45.552238
 40
3
 50
71.003655
 51
157.49802
  0
ARC
  8
0
  6
CONTINUOUS
 62
     7
 10
-136.556
 20
39.197273
 40
6
 50
274.7802
 51
0.012489565
  0
ARC
  8
0
  6
CONTINUOUS
 62
     7
 10
-125.56673
 20
65.72773
 40
6
 50
314.98752
 51
40.219791
  0
ARC
  8
0
  6
CONTINUOUS
 62
     7
 10
-93.83239
 20
60.692513
 40
4
 50
315
 51
45.000001
  0
ARC
  8
0
  6
CONTINUOUS
 62
     7
 10
-91.112358
 20
63.761383
 40
11.59337
 50
208.11151
 51
241.88848
  0
ARC
  8
0
  6
CONTINUOUS
 62
     7
 10
-90.33889
 20
79.035255
 40
22.940548
 50
224.99999
 51
236.98429
  0
ARC
  8
0
  6
CONTINUOUS
 62
     7
 10
-110.556
 20
20.31814
 40
4
 50
270
 51
2.5044781E-006
  0
ARC
  8
0
  6
CONTINUOUS
 62
     7
 10
-110.80267
 20
16.224768
 40
11.59337
 50
73.11152
 51
106.88849
  0
ARC
  8
0
  6
CONTINUOUS
 62
     7
 10
-121.056
 20
4.8775921
 40
22.940548
 50
78.015705
 51
90.000009
  0
ARC
  8
0
  6
CONTINUOUS
 62
     7
 10
12.583273
 20
37.134369
 40
39.5
 50
157.5
 51
178.10575
  0
ARC
  8
0
  6
CENTER
 62
     7
 10
12.583273
 20
37.134369
 40
27
 50
135
 51
180.00001
  0
ARC
  8
0
  6
CONTINUOUS
 62
     7
 10
4.3115559
 20
39.091072
 40
6
 50
166.69118
 51
258.18727
  0
ARC
  8
0
  6
CONTINUOUS
 62
     7
 10
12.583275
 20
37.134377
 40
14.5
 50
157.49998
 51
166.69118
  0
ARC
  8
0
  6
CONTINUOUS
 62
     7
 10
4.4057636
 20
35.910912
 40
3
 50
157.5
 51
243.84316
  0
ARC
  8
0
  6
CONTINUOUS
 62
     7
 10
-32.872433
 20
39.141533
 40
6
 50
279.16537
 51
357.47167
  0
ARC
  8
0
  6
CONTINUOUS
 62
     7
 10
-2.4167271
 20
19.31814
 40
5
 50
270
 51
2.5044781E-006
  0
ARC
  8
0
  6
CONTINUOUS
 62
     7
 10
-14.416727
 20
-6.0603294
 40
33.878471
 50
80.144121
 51
89.999989
  0
ARC
  8
0
  6
CONTINUOUS
 62
     7
 10
-2.3959103
 20
10.753904
 40
17.064236
 50
76.095862
 51
103.90414
  0
ARC
  8
0
  6
CONTINUOUS
 62
     7
 10
12.583277
 20
37.134384
 40
39.5
 50
136.89426
 51
157.50001
  0
ARC
  8
0
  6
CONTINUOUS
 62
     7
 10
5.3506947
 20
41.599777
 40
6
 50
56.812728
 51
148.30882
  0
ARC
  8
0
  6
CONTINUOUS
 62
     7
 10
12.583277
 20
37.134384
 40
14.5
 50
148.30882
 51
157.50001
  0
ARC
  8
0
  6
CONTINUOUS
 62
     7
 10
7.6660213
 20
43.781876
 40
3
 50
71.156836
 51
157.50001
  0
ARC
  8
0
  6
CONTINUOUS
 62
     7
 10
-20.978041
 20
67.857147
 40
6
 50
317.52833
 51
35.834622
  0
ARC
  8
0
  6
CONTINUOUS
 62
     7
 10
24.03466
 20
86.769531
 40
33.878471
 50
225.00001
 51
234.85588
  0
ARC
  8
0
  6
CONTINUOUS
 62
     7
 10
20.645201
 20
66.380074
 40
17.064236
 50
211.09585
 51
238.90413
  0
ARC
  8
0
  6
CONTINUOUS
 62
     7
 10
14.574656
 20
60.338966
 40
5
 50
315
 51
45.000001
  0
ARC
  8
0
  6
CONTINUOUS
 62
     7
 10
135.33511
 20
35.477524
 40
46.5
 50
157.5
 51
175.3463
  0
ARC
  8
0
  6
CENTER
 62
     7
 10
135.33511
 20
35.477524
 40
31
 50
135
 51
180.00001
  0
ARC
  8
0
  6
CONTINUOUS
 62
     7
 10
82.054031
 20
40.3125
 40
7
 50
272.30125
 51
354.81491
  0
ARC
  8
0
  6
CONTINUOUS
 62
     7
 10
128.19185
 20
40.084442
 40
7
 50
207.08003
 51
254.61838
  0
ARC
  8
0
  6
CONTINUOUS
 62
     7
 10
126.41109
 20
39.173973
 40
5
 50
157.49995
 51
207.08002
  0
ARC
  8
0
  6
CONTINUOUS
 62
     7
 10
127.54622
 20
36.089783
 40
3
 50
157.5
 51
246.19021
  0
ARC
  8
0
  6
CONTINUOUS
 62
     7
 10
120.83511
 20
18.318144
 40
5
 50
270
 51
2.5044781E-006
  0
ARC
  8
0
  6
CONTINUOUS
 62
     7
 10
104.33511
 20
-16.431847
 40
44.249989
 50
81.378644
 51
89.999996
  0
ARC
  8
0
  6
CONTINUOUS
 62
     7
 10
119.53791
 20
5.5681438
 40
22.249998
 50
77.830456
 51
102.16955
  0
ARC
  8
0
  6
CONTINUOUS
 62
     7
 10
135.33511
 20
35.477524
 40
46.5
 50
139.65371
 51
157.5
  0
ARC
  8
0
  6
CONTINUOUS
 62
     7
 10
94.24086
 20
69.7341
 40
7
 50
320.18509
 51
42.698743
  0
ARC
  8
0
  6
CONTINUOUS
 62
     7
 10
127.02648
 20
37.271004
 40
7
 50
60.381618
 51
107.91997
  0
ARC
  8
0
  6
CONTINUOUS
 62
     7
 10
126.4111
 20
39.173981
 40
5
 50
107.91997
 51
157.50005
  0
ARC
  8
0
  6
CONTINUOUS
 62
     7
 10
129.39461
 20
40.552177
 40
3
 50
68.809798
 51
157.50001
  0
ARC
  8
0
  6
CONTINUOUS
 62
     7
 10
137.21558
 20
57.86409
 40
5
 50
315
 51
45.000001
  0
ARC
  8
0
  6
CONTINUOUS
 62
     7
 10
150.12027
 20
94.103302
 40
44.249989
 50
225
 51
233.62135
  0
ARC
  8
0
  6
CONTINUOUS
 62
     7
 10
145.31393
 20
67.796959
 40
22.249998
 50
212.83045
 51
237.16954
  0
ARC
  8
0
  6
CONTINUOUS
 62
     7
 10
-43.628159
 20
-94.97155
 40
58.5
 50
157.5
 51
172.66586
  0
ARC
  8
0
  6
CONTINUOUS
 62
     7
 10
-57.882126
 20
-91.610107
 40
2
 50
157.50002
 51
270
  0
ARC
  8
0
  6
DASHED
 62
     7
 10
-45.628143
 20
-94.143112
 40
18.027828
 50
156.84208
 51
158.15802
  0
ARC
  8
0
  6
CONTINUOUS
 62
     7
 10
-58.18486
 20
-89.110107
 40
4.5
 50
155.5217
 51
270
  0
ARC
  8
0
  6
CENTER
 62
     7
 10
-44.127853
 20
-94.764557
 40
39.000298
 50
135
 51
180.00001
  0
ARC
  8
0
  6
CONTINUOUS
 62
     7
 10
-108.59227
 20
-86.610107
 40
7
 50
270
 51
352.66586
  0
ARC
  8
0
  6
CONTINUOUS
 62
     7
 10
-65.804031
 20
-137.83513
 40
38.125019
 50
80.710474
 51
99.289517
  0
ARC
  8
0
  6
CONTINUOUS
 62
     7
 10
-83.128159
 20
-175.71013
 40
76.000023
 50
83.424122
 51
89.999996
  0
ARC
  8
0
  6
CONTINUOUS
 62
     7
 10
-63.628159
 20
-110.61011
 40
5
 50
270
 51
2.504478E-006
  0
ARC
  8
0
  6
CONTINUOUS
 62
     7
 10
-43.628159
 20
-94.97155
 40
58.5
 50
142.33413
 51
157.5
  0
ARC
  8
0
  6
CONTINUOUS
 62
     7
 10
-56.084122
 20
-87.269371
 40
2
 50
45.000001
 51
157.49998
  0
ARC
  8
0
  6
DASHED
 62
     7
 10
-45.628159
 20
-94.143135
 40
18.027828
 50
156.84199
 51
158.15792
  0
ARC
  8
0
  6
CONTINUOUS
 62
     7
 10
-58.065964
 20
-88.823074
 40
4.5
 50
45.000001
 51
159.47829
  0
ARC
  8
0
  6
CONTINUOUS
 62
     7
 10
-95.47715
 20
-54.947418
 40
7
 50
322.33414
 51
45.000001
  0
ARC
  8
0
  6
CONTINUOUS
 62
     7
 10
-14.46808
 20
-9.9500418
 40
76.000023
 50
225
 51
231.57587
  0
ARC
  8
0
  6
CONTINUOUS
 62
     7
 10
-46.712158
 20
-69.771286
 40
5
 50
315
 51
45.000001
  0
ARC
  8
0
  6
CONTINUOUS
 62
     7
 10
-28.999741
 20
-48.981705
 40
38.125019
 50
215.71048
 51
234.28952
  0
ARC
  8
0
  6
CENTER
 62
     7
 10
137.61865
 20
-103.10795
 40
44.999996
 50
135
 51
180.00001
  0
ARC
  8
0
  6
CONTINUOUS
 62
     7
 10
130.61865
 20
-100.20846
 40
61
 50
157.5
 51
176.00281
  0
ARC
  8
0
  6
CONTINUOUS
 62
     7
 10
62.784073
 20
-95.468346
 40
7
 50
270
 51
356.00281
  0
ARC
  8
0
  6
CONTINUOUS
 62
     7
 10
135.61865
 20
-102.27953
 40
19
 50
157.5
 51
159.90022
  0
ARC
  8
0
  6
CONTINUOUS
 62
     7
 10
122.47132
 20
-97.468346
 40
5
 50
159.90022
 51
270
  0
ARC
  8
0
  6
CONTINUOUS
 62
     7
 10
122.53658
 20
-99.968346
 40
2.5
 50
157.54038
 51
270
  0
ARC
  8
0
  6
CONTINUOUS
 62
     7
 10
116.11866
 20
-120.46834
 40
6
 50
270
 51
2.5044781E-006
  0
ARC
  8
0
  6
CONTINUOUS
 62
     7
 10
92.61866
 20
-199.56874
 40
91.000397
 50
83.991041
 51
89.999996
  0
ARC
  8
0
  6
CONTINUOUS
 62
     7
 10
113.47831
 20
-154.19354
 40
45.625206
 50
81.509825
 51
98.49018
  0
ARC
  8
0
  6
CONTINUOUS
 62
     7
 10
130.61865
 20
-100.20846
 40
61
 50
138.99719
 51
157.5
  0
ARC
  8
0
  6
CONTINUOUS
 62
     7
 10
79.300598
 20
-55.593929
 40
7
 50
318.99719
 51
45.000001
  0
ARC
  8
0
  6
CONTINUOUS
 62
     7
 10
135.61865
 20
-102.27953
 40
19
 50
155.09977
 51
157.5
  0
ARC
  8
0
  6
CONTINUOUS
 62
     7
 10
122.92007
 20
-96.384972
 40
5
 50
45.000001
 51
155.09977
  0
ARC
  8
0
  6
CONTINUOUS
 62
     7
 10
124.73398
 20
-94.663345
 40
2.5
 50
45.000001
 51
157.45962
  0
ARC
  8
0
  6
CONTINUOUS
 62
     7
 10
134.69151
 20
-75.629509
 40
6
 50
315
 51
45.000001
  0
ARC
  8
0
  6
CONTINUOUS
 62
     7
 10
174.00693
 20
-3.0800734
 40
91.000397
 50
225
 51
231.00895
  0
ARC
  8
0
  6
CONTINUOUS
 62
     7
 10
156.67183
 20
-49.91518
 40
45.625206
 50
216.50981
 51
233.49017
  0
ARC
  8
0
  6
CONTINUOUS
 62
     7
 10
-27.840818
 20
-289.23981
 40
73
 50
157.5
 51
175.15206
  0
ARC
  8
0
  6
CONTINUOUS
 62
     7
 10
-40.578465
 20
-287.10507
 40
2.5
 50
157.5
 51
270
  0
ARC
  8
0
  6
CENTER
 62
     7
 10
-39.668186
 20
-284.34076
 40
34.67263
 50
135
 51
180.00001
  0
ARC
  8
0
  6
CONTINUOUS
 62
     7
 10
-26.840818
 20
-289.65402
 40
20
 50
157.5
 51
164.87376
  0
ARC
  8
0
  6
CONTINUOUS
 62
     7
 10
-42.286469
 20
-285.47888
 40
4
 50
164.87376
 51
270
  0
ARC
  8
0
  6
CONTINUOUS
 62
     7
 10
-107.55462
 20
-282.47888
 40
7
 50
270
 51
355.15205
  0
ARC
  8
0
  6
CONTINUOUS
 62
     7
 10
-48.34082
 20
-308.97888
 40
8
 50
270
 51
2.5044781E-006
  0
ARC
  8
0
  6
CONTINUOUS
 62
     7
 10
-50.299187
 20
-349.35388
 40
52.375008
 50
82.076689
 51
97.923316
  0
ARC
  8
0
  6
CONTINUOUS
 62
     7
 10
-74.34082
 20
-401.47888
 40
104.50002
 50
84.392902
 51
89.999996
  0
ARC
  8
0
  6
CONTINUOUS
 62
     7
 10
-27.840818
 20
-289.23981
 40
73
 50
139.84795
 51
157.5
  0
ARC
  8
0
  6
CONTINUOUS
 62
     7
 10
-38.357182
 20
-281.7424
 40
2.5
 50
63.282481
 51
157.5
  0
ARC
  8
0
  6
CONTINUOUS
 62
     7
 10
-26.840818
 20
-289.65402
 40
20
 50
150.12625
 51
157.5
  0
ARC
  8
0
  6
CONTINUOUS
 62
     7
 10
-40.714817
 20
-281.68457
 40
4
 50
45.000001
 51
150.12625
  0
ARC
  8
0
  6
CONTINUOUS
 62
     7
 10
-88.987686
 20
-237.65434
 40
7
 50
319.84794
 51
45.000001
  0
ARC
  8
0
  6
CONTINUOUS
 62
     7
 10
-28.378881
 20
-260.7865
 40
8
 50
315
 51
45.000001
  0
ARC
  8
0
  6
CONTINUOUS
 62
     7
 10
-1.2142169
 20
-230.85226
 40
52.375008
 50
217.07668
 51
232.92331
  0
ARC
  8
0
  6
CONTINUOUS
 62
     7
 10
18.643732
 20
-176.99432
 40
104.50002
 50
225
 51
230.60709
  0
ARC
  8
0
  6
CENTER
 62
     7
 10
133.86856
 20
-303.04651
 40
56.00243
 50
135
 51
176.4585
  0
ARC
  8
0
  6
CONTINUOUS
 62
     7
 10
133.47308
 20
-302.73145
 40
88
 50
157.5
 51
178.52972
  0
ARC
  8
0
  6
CONTINUOUS
 62
     7
 10
132.88087
 20
-302.48611
 40
22
 50
157.50004
 51
174.90404
  0
ARC
  8
0
  6
CONTINUOUS
 62
     7
 10
118.93621
 20
-301.24258
 40
8
 50
174.90404
 51
270
  0
ARC
  8
0
  6
CONTINUOUS
 62
     7
 10
121.89185
 20
-304.55792
 40
5
 50
157.43367
 51
247.43368
  0
ARC
  8
0
  6
CONTINUOUS
 62
     7
 10
36.505028
 20
-300.24258
 40
9
 50
270
 51
358.52973
  0
ARC
  8
0
  6
CONTINUOUS
 62
     7
 10
110.97309
 20
-332.74258
 40
8
 50
270
 51
2.5044781E-006
  0
ARC
  8
0
  6
CONTINUOUS
 62
     7
 10
77.973091
 20
-485.49219
 40
168.24962
 50
85.581717
 51
90.000003
  0
ARC
  8
0
  6
CONTINUOUS
 62
     7
 10
106.96447
 20
-401.4924
 40
84.249809
 50
83.754689
 51
96.245302
  0
ARC
  8
0
  6
CONTINUOUS
 62
     7
 10
133.47308
 20
-302.73145
 40
88
 50
136.47027
 51
157.5
  0
ARC
  8
0
  6
CONTINUOUS
 62
     7
 10
132.88086
 20
-302.48615
 40
22
 50
140.09596
 51
157.49997
  0
ARC
  8
0
  6
CONTINUOUS
 62
     7
 10
122.14118
 20
-293.5051
 40
8
 50
45.000001
 51
140.09596
  0
ARC
  8
0
  6
CONTINUOUS
 62
     7
 10
126.57545
 20
-293.25073
 40
5
 50
67.566328
 51
157.56633
  0
ARC
  8
0
  6
CONTINUOUS
 62
     7
 10
63.146431
 20
-235.92455
 40
9
 50
316.47027
 51
45.000001
  0
ARC
  8
0
  6
CONTINUOUS
 62
     7
 10
138.78427
 20
-265.60043
 40
8
 50
315
 51
45.000001
  0
ARC
  8
0
  6
CONTINUOUS
 62
     7
 10
184.5632
 20
-214.15247
 40
84.249809
 50
218.75469
 51
231.24531
  0
ARC
  8
0
  6
CONTINUOUS
 62
     7
 10
-108.68163
 20
75.541748
 40
4
 50
44.999998
 51
135
  0
ARC
  8
0
  6
CONTINUOUS
 62
     7
 10
-105.61275
 20
78.26178
 40
11.59337
 50
208.11152
 51
241.88849
  0
ARC
  8
0
  6
CONTINUOUS
 62
     7
 10
-90.338882
 20
79.035248
 40
22.940548
 50
213.01571
 51
225.00001
  0
ARC
  8
0
  6
CONTINUOUS
 62
     7
 10
-121.056
 20
4.8775921
 40
22.940548
 50
89.999989
 51
101.98429
  0
ARC
  8
0
  6
CONTINUOUS
 62
     7
 10
-131.556
 20
20.31814
 40
4
 50
179.99999
 51
270
  0
ARC
  8
0
  6
CONTINUOUS
 62
     7
 10
-131.30933
 20
16.224768
 40
11.59337
 50
73.111513
 51
106.88848
  0
ARC
  8
0
  6
CONTINUOUS
 62
     7
 10
-26.437544
 20
10.753904
 40
17.064236
 50
76.095855
 51
103.90414
  0
ARC
  8
0
  6
CONTINUOUS
 62
     7
 10
-26.416731
 20
19.31814
 40
5
 50
179.99999
 51
270
  0
ARC
  8
0
  6
CONTINUOUS
 62
     7
 10
-14.416727
 20
-6.0603294
 40
33.878471
 50
90.000009
 51
99.855877
  0
ARC
  8
0
  6
CONTINUOUS
 62
     7
 10
24.034664
 20
86.769531
 40
33.878471
 50
215.14412
 51
224.99999
  0
ARC
  8
0
  6
CONTINUOUS
 62
     7
 10
3.6452045
 20
83.380066
 40
17.064236
 50
211.09587
 51
238.90415
  0
ARC
  8
0
  6
CONTINUOUS
 62
     7
 10
-2.3959026
 20
77.309525
 40
5
 50
44.999998
 51
135
  0
ARC
  8
0
  6
CONTINUOUS
 62
     7
 10
113.88106
 20
81.198608
 40
5
 50
44.999998
 51
135
  0
ARC
  8
0
  6
CONTINUOUS
 62
     7
 10
123.81393
 20
89.296959
 40
22.249998
 50
212.83046
 51
237.16955
  0
ARC
  8
0
  6
CONTINUOUS
 62
     7
 10
150.12027
 20
94.103302
 40
44.249989
 50
216.37865
 51
225
  0
ARC
  8
0
  6
CONTINUOUS
 62
     7
 10
89.132317
 20
5.5681438
 40
22.249998
 50
77.83045
 51
102.16954
  0
ARC
  8
0
  6
CONTINUOUS
 62
     7
 10
87.835114
 20
18.318144
 40
5
 50
179.99999
 51
270
  0
ARC
  8
0
  6
CONTINUOUS
 62
     7
 10
104.33511
 20
-16.431847
 40
44.249989
 50
90.000003
 51
98.621354
  0
ARC
  8
0
  6
CONTINUOUS
 62
     7
 10
-14.46808
 20
-9.9500418
 40
76.000023
 50
218.42413
 51
225
  0
ARC
  8
0
  6
CONTINUOUS
 62
     7
 10
-74.289322
 20
-42.194122
 40
5
 50
44.999998
 51
135
  0
ARC
  8
0
  6
CONTINUOUS
 62
     7
 10
-53.499741
 20
-24.481703
 40
38.125019
 50
215.71048
 51
234.28952
  0
ARC
  8
0
  6
CONTINUOUS
 62
     7
 10
-102.62816
 20
-110.61011
 40
5
 50
179.99999
 51
270
  0
ARC
  8
0
  6
CONTINUOUS
 62
     7
 10
-100.45229
 20
-137.83513
 40
38.125019
 50
80.710481
 51
99.289524
  0
ARC
  8
0
  6
CONTINUOUS
 62
     7
 10
-83.128159
 20
-175.71013
 40
76.000023
 50
90.000003
 51
96.575876
  0
ARC
  8
0
  6
CONTINUOUS
 62
     7
 10
69.118652
 20
-120.46834
 40
6
 50
179.99999
 51
270
  0
ARC
  8
0
  6
CONTINUOUS
 62
     7
 10
92.61866
 20
-199.56874
 40
91.000397
 50
90.000003
 51
96.008957
  0
ARC
  8
0
  6
CONTINUOUS
 62
     7
 10
71.759003
 20
-154.19354
 40
45.625206
 50
81.509818
 51
98.490174
  0
ARC
  8
0
  6
CONTINUOUS
 62
     7
 10
174.00693
 20
-3.0800734
 40
91.000397
 50
218.99105
 51
225
  0
ARC
  8
0
  6
CONTINUOUS
 62
     7
 10
101.4575
 20
-42.395489
 40
6
 50
44.999998
 51
135
  0
ARC
  8
0
  6
CONTINUOUS
 62
     7
 10
127.17182
 20
-20.415178
 40
45.625206
 50
216.50983
 51
233.49018
  0
ARC
  8
0
  6
CONTINUOUS
 62
     7
 10
-74.34082
 20
-401.47888
 40
104.50002
 50
90.000003
 51
95.607096
  0
ARC
  8
0
  6
CONTINUOUS
 62
     7
 10
-100.34082
 20
-308.97888
 40
8
 50
179.99999
 51
270
  0
ARC
  8
0
  6
CONTINUOUS
 62
     7
 10
-98.382446
 20
-349.35388
 40
52.375008
 50
82.076683
 51
97.923309
  0
ARC
  8
0
  6
CONTINUOUS
 62
     7
 10
18.64374
 20
-176.99432
 40
104.50002
 50
219.39291
 51
225
  0
ARC
  8
0
  6
CONTINUOUS
 62
     7
 10
-65.14843
 20
-224.01694
 40
8
 50
44.999998
 51
135
  0
ARC
  8
0
  6
CONTINUOUS
 62
     7
 10
-35.214214
 20
-196.85226
 40
52.375008
 50
217.07669
 51
232.92332
  0
ARC
  8
0
  6
CONTINUOUS
 62
     7
 10
48.981712
 20
-401.4924
 40
84.249809
 50
83.754696
 51
96.245309
  0
ARC
  8
0
  6
CONTINUOUS
 62
     7
 10
44.973091
 20
-332.74258
 40
8
 50
179.99999
 51
270
  0
ARC
  8
0
  6
CONTINUOUS
 62
     7
 10
77.973091
 20
-485.49219
 40
168.24962
 50
89.999996
 51
94.418281
  0
ARC
  8
0
  6
CONTINUOUS
 62
     7
 10
92.115227
 20
-218.9314
 40
8
 50
44.999998
 51
135
  0
ARC
  8
0
  6
CONTINUOUS
 62
     7
 10
143.5632
 20
-173.15247
 40
84.249809
 50
218.75469
 51
231.24531
  0
CIRCLE
  8
0
  6
CONTINUOUS
 62
     7
 10
-305.14255
 20
112.83893
 40
14.5
  0
CIRCLE
  8
0
  6
CONTINUOUS
 62
     7
 10
-305.14255
 20
112.83893
 40
8.0500002
  0
CIRCLE
  8
0
  6
CONTINUOUS
 62
     7
 10
-305.14255
 20
67.762352
 40
17
  0
CIRCLE
  8
0
  6
CONTINUOUS
 62
     7
 10
-305.14255
 20
67.762352
 40
11.25
  0
CIRCLE
  8
0
  6
CONTINUOUS
 62
     7
 10
-305.14255
 20
16.948168
 40
21.5
  0
CIRCLE
  8
0
  6
CONTINUOUS
 62
     7
 10
-305.14255
 20
16.948168
 40
14.4
  0
CIRCLE
  8
0
  6
CONTINUOUS
 62
     7
 10
-305.14255
 20
-39.122654
 40
24.5
  0
CIRCLE
  8
0
  6
CONTINUOUS
 62
     7
 10
-305.14255
 20
-39.122654
 40
17.25
  0
CIRCLE
  8
0
  6
CONTINUOUS
 62
     7
 10
-305.14255
 20
-126.10135
 40
29.5
  0
CIRCLE
  8
0
  6
CONTINUOUS
 62
     7
 10
-305.14255
 20
-126.10135
 40
21.65
  0
CIRCLE
  8
0
  6
CONTINUOUS
 62
     7
 10
-305.14255
 20
-229.99887
 40
34
  0
CIRCLE
  8
0
  6
CONTINUOUS
 62
     7
 10
-305.14255
 20
-229.99887
 40
24.65
  0
CIRCLE
  8
0
  6
CONTINUOUS
 62
     7
 10
-305.14255
 20
-335.72815
 40
41
  0
CIRCLE
  8
0
  6
CONTINUOUS
 62
     7
 10
-305.14255
 20
-335.72815
 40
30.65
  0
TEXT
  8
0
  6
CONTINUOUS
 62
     7
 10
-116.25317
 20
90.207588
 40
8
 41
0.86439077
  1
１３
  0
TEXT
  8
0
  6
CONTINUOUS
 62
     7
 10
-8.8523335
 20
92.160332
 40
8
 41
0.86439077
  1
２０
  0
TEXT
  8
0
  6
CONTINUOUS
 62
     7
 10
108.31222
 20
96.065819
 40
8
 41
0.86439077
  1
２５
  0
TEXT
  8
0
  6
CONTINUOUS
 62
     7
 10
-80.127436
 20
-26.956955
 40
8
 41
0.86439077
  1
３０
  0
TEXT
  8
0
  6
CONTINUOUS
 62
     7
 10
91.713903
 20
-25.004211
 40
8
 41
0.86439077
  1
４０
  0
TEXT
  8
0
  6
CONTINUOUS
 62
     7
 10
-71.34009
 20
-201.7274
 40
8
 41
0.86439077
  1
５０
  0
TEXT
  8
0
  6
CONTINUOUS
 62
     7
 10
84.879301
 20
-194.89281
 40
8
 41
0.86439077
  1
６０
  0
TEXT
  8
0
  6
CONTINUOUS
 62
     7
 10
-175.91256
 20
127.72774
 40
8
 41
0.85088848
  1
コマサスフィット継手　４５%%Dエルボ
  0
TEXT
  8
0
  6
CONTINUOUS
 62
     7
 10
-351.82761
 20
112.53522
 40
3.2
 41
1.0285716
  1
13
  0
TEXT
  8
0
  6
CONTINUOUS
 62
     7
 10
-353.38651
 20
70.445158
 40
3.2
 41
1.0285716
  1
20
  0
TEXT
  8
0
  6
CONTINUOUS
 62
     7
 10
-356.50428
 20
19.001761
 40
3.2
 41
1.0285716
  1
25
  0
TEXT
  8
0
  6
CONTINUOUS
 62
     7
 10
-354.16596
 20
-44.912767
 40
3.2
 41
1.0285716
  1
30
  0
TEXT
  8
0
  6
CONTINUOUS
 62
     7
 10
-353.82526
 20
-121.04177
 40
3.2
 41
1.0285716
  1
40
  0
TEXT
  8
0
  6
CONTINUOUS
 62
     7
 10
-347.06632
 20
-198.76969
 40
3.2
 41
1.0285716
  1
50
  0
TEXT
  8
0
  6
CONTINUOUS
 62
     7
 10
-354.18207
 20
-299.24975
 40
3.2
 41
1.0285716
  1
60
  0
POINT
  8
1
  6
CONTINUOUS
 62
     7
 10
-208.5
 20
-465.5
  0
POINT
  8
1
  6
CONTINUOUS
 62
     7
 10
208.5
 20
148.5
  0
POINT
  8
1
  6
CONTINUOUS
 62
     7
 10
208.5
 20
-148.5
  0
POINT
  8
1
  6
CONTINUOUS
 62
     7
 10
-208.5
 20
-762.5
  0
POINT
  8
1
  6
CONTINUOUS
 62
     7
 10
-208.5
 20
-772.5
  0
POINT
  8
1
  6
CONTINUOUS
 62
     7
 10
-208.5
 20
148.5
  0
POINT
  8
1
  6
CONTINUOUS
 62
     7
 10
-208.5
 20
-148.5
  0
POINT
  8
1
  6
CONTINUOUS
 62
     7
 10
-208.5
 20
-158.5
  0
POINT
  8
1
  6
CONTINUOUS
 62
     7
 10
-208.5
 20
-158.5
  0
POINT
  8
1
  6
CONTINUOUS
 62
     7
 10
-208.5
 20
-455.5
  0
POINT
  8
1
  6
CONTINUOUS
 62
     7
 10
-208.5
 20
-465.5
  0
LINE
  8
1
  6
CONTINUOUS
 62
     7
 10
-208.5
 20
-762.5
 11
208.5
 21
-762.5
  0
LINE
  8
1
  6
CONTINUOUS
 62
     7
 10
-208.5
 20
-465.5
 11
208.5
 21
-465.5
  0
LINE
  8
1
  6
CONTINUOUS
 62
     7
 10
-208.5
 20
-465.5
 11
-208.5
 21
-762.5
  0
LINE
  8
1
  6
CONTINUOUS
 62
     7
 10
208.5
 20
-465.5
 11
208.5
 21
-762.5
  0
LINE
  8
1
  6
CONTINUOUS
 62
     7
 10
-208.5
 20
-148.5
 11
208.5
 21
-148.5
  0
LINE
  8
1
  6
CONTINUOUS
 62
     7
 10
-208.5
 20
148.5
 11
-208.5
 21
-148.5
  0
LINE
  8
1
  6
CONTINUOUS
 62
     7
 10
208.5
 20
148.5
 11
208.5
 21
-148.5
  0
LINE
  8
1
  6
CONTINUOUS
 62
     7
 10
-208.5
 20
148.5
 11
208.5
 21
148.5
  0
LINE
  8
1
  6
CONTINUOUS
 62
     7
 10
-208.5
 20
-455.5
 11
208.5
 21
-455.5
  0
LINE
  8
1
  6
CONTINUOUS
 62
     7
 10
-208.5
 20
-158.5
 11
-208.5
 21
-455.5
  0
LINE
  8
1
  6
CONTINUOUS
 62
     7
 10
208.5
 20
-158.5
 11
208.5
 21
-455.5
  0
LINE
  8
1
  6
CONTINUOUS
 62
     7
 10
-208.5
 20
-158.5
 11
208.5
 21
-158.5
  0
ENDSEC
  0
EOF
