  0
SECTION
  2
HEADER
  9
$EXTMAX
 10
108.92817
 20
144.14287
  9
$EXTMIN
 10
-311.07183
 20
-153.71428
  0
ENDSEC
  0
SECTION
  2
TABLES
  0
TABLE
  2
LTYPE
 70
    22
  0
LTYPE
  2
CONTINUOUS
 70
    64
  3
Solid line
 72
    65
 73
     0
 40
0.000000
  0
LTYPE
  2
DASHED
 70
    64
  3
__ __ __ __ __ __ __ __ __ __ __ __ __ __ __
 72
    65
 73
     2
 40
3.500000
 49
2.000000
 49
-1.500000
  0
LTYPE
  2
CENTER
 70
    64
  3
____ _ ____ _ ____ _ ____ _ ____ _ ____ _ ____
 72
    65
 73
     4
 40
17.500000
 49
13.000000
 49
-1.500000
 49
1.500000
 49
-1.500000
  0
LTYPE
  2
PHANTOM
 70
    64
  3
_____ _ _ _____ _ _ _____ _ _ _____ _ _ ____  
 72
    65
 73
     6
 40
15.500000
 49
8.000000
 49
-1.500000
 49
1.500000
 49
-1.500000
 49
1.500000
 49
-1.500000
  0
LTYPE
  2
DOT
 70
    64
  3
. . . . . . . . . . . . . . . . . . . . . . . .
 72
    65
 73
     2
 40
0.25
 49
0.0
 49
-0.25
  0
ENDTAB
  0
TABLE
  2
LAYER
 70
     2
  0
LAYER
  2
0
 70
     0
 62
     7
  6
CONTINUOUS
  0
LAYER
  2
1
 70
     0
 62
     7
  6
CONTINUOUS
  0
ENDTAB
  0
TABLE
  2
STYLE
 70
     1
  0
STYLE
  2
STANDARD
 70
     0
 40
0.000000
 41
1.000000
 50
0.000000
 71
     0
 42
0.200000
  3
txt
  4
BIGFONT
  0
ENDTAB
  0
TABLE
  2
VIEW
 70
     0
  0
ENDTAB
  0
ENDSEC
  0
SECTION
  2
BLOCKS
  0
ENDSEC
  0
SECTION
  2
ENTITIES
  0
POINT
  8
0
  6
CONTINUOUS
 62
     7
 10
-228.17751
 20
-10.362597
  0
POINT
  8
0
  6
CONTINUOUS
 62
     7
 10
-162.17751
 20
-10.362597
  0
POINT
  8
0
  6
CONTINUOUS
 62
     7
 10
-32.177509
 20
-10.362597
  0
POINT
  8
0
  6
CONTINUOUS
 62
     7
 10
32.822491
 20
-10.362597
  0
POINT
  8
0
  6
CONTINUOUS
 62
     7
 10
-152.51402
 20
-302.81674
  0
POINT
  8
0
  6
CONTINUOUS
 62
     7
 10
-77.51403
 20
-302.81674
  0
POINT
  8
0
  6
CONTINUOUS
 62
     7
 10
-165.16245
 20
-615.94757
  0
POINT
  8
0
  6
CONTINUOUS
 62
     7
 10
-74.034798
 20
-615.94757
  0
POINT
  8
0
  6
CONTINUOUS
 62
     7
 10
-175.76079
 20
-937.77655
  0
POINT
  8
0
  6
CONTINUOUS
 62
     7
 10
-76.931488
 20
-937.77655
  0
POINT
  8
0
  6
CONTINUOUS
 62
     7
 10
-79.085335
 20
-1233.5112
  0
POINT
  8
0
  6
CONTINUOUS
 62
     7
 10
-188.80791
 20
-1233.5112
  0
POINT
  8
0
  6
CONTINUOUS
 62
     7
 10
-79.085335
 20
-1543.6638
  0
POINT
  8
0
  6
CONTINUOUS
 62
     7
 10
-191.68045
 20
-1543.6638
  0
POINT
  8
0
  6
CONTINUOUS
 62
     7
 10
244.01988
 20
-1234.025
  0
POINT
  8
0
  6
CONTINUOUS
 62
     7
 10
373.84589
 20
-1234.025
  0
POINT
  8
0
  6
CONTINUOUS
 62
     7
 10
241.3734
 20
-934.97223
  0
POINT
  8
0
  6
CONTINUOUS
 62
     7
 10
373.84589
 20
-934.97223
  0
POINT
  8
0
  6
CONTINUOUS
 62
     7
 10
242.01988
 20
-627.97998
  0
POINT
  8
0
  6
CONTINUOUS
 62
     7
 10
373.84589
 20
-627.97998
  0
POINT
  8
0
  6
CONTINUOUS
 62
     7
 10
242.01988
 20
-313.04822
  0
POINT
  8
0
  6
CONTINUOUS
 62
     7
 10
373.84589
 20
-313.04822
  0
POINT
  8
0
  6
CONTINUOUS
 62
     7
 10
254.2523
 20
-11.348905
  0
POINT
  8
0
  6
CONTINUOUS
 62
     7
 10
373.84589
 20
-11.348905
  0
LINE
  8
0
  6
CENTER
 62
     7
 10
-401.50162
 20
119.69923
 11
-401.50162
 21
80.453743
  0
LINE
  8
0
  6
CENTER
 62
     7
 10
-419.98352
 20
101.27591
 11
-383.7355
 21
101.27591
  0
LINE
  8
0
  6
CONTINUOUS
 62
     7
 10
-385.80695
 20
101.27591
 11
-390.40381
 21
112.37373
  0
LINE
  8
0
  6
CONTINUOUS
 62
     7
 10
-390.40378
 20
112.37373
 11
-401.50162
 21
116.9706
  0
LINE
  8
0
  6
CONTINUOUS
 62
     7
 10
-412.59943
 20
112.37373
 11
-401.50162
 21
116.97059
  0
LINE
  8
0
  6
CONTINUOUS
 62
     7
 10
-417.19632
 20
101.27591
 11
-412.59943
 21
112.37373
  0
LINE
  8
0
  6
CONTINUOUS
 62
     7
 10
-412.59946
 20
90.178085
 11
-417.19632
 21
101.2759
  0
LINE
  8
0
  6
CONTINUOUS
 62
     7
 10
-401.50162
 20
85.581215
 11
-412.59946
 21
90.178085
  0
LINE
  8
0
  6
CONTINUOUS
 62
     7
 10
-390.40381
 20
90.178085
 11
-401.50162
 21
85.581223
  0
LINE
  8
0
  6
CONTINUOUS
 62
     7
 10
-385.80692
 20
101.27591
 11
-390.40381
 21
90.178085
  0
LINE
  8
0
  6
CENTER
 62
     7
 10
-18.875105
 20
-10.362597
 11
85.620033
 21
-10.362597
  0
LINE
  8
0
  6
CONTINUOUS
 62
     7
 10
51.223145
 20
-10.3626
 11
45.833717
 21
2.6486261
  0
LINE
  8
0
  6
CONTINUOUS
 62
     7
 10
45.833721
 20
2.6486433
 11
32.822495
 21
8.0380697
  0
LINE
  8
0
  6
CONTINUOUS
 62
     7
 10
19.811247
 20
2.6486332
 11
32.822472
 21
8.0380602
  0
LINE
  8
0
  6
CONTINUOUS
 62
     7
 10
14.421822
 20
-10.362599
 11
19.811253
 21
2.6486349
  0
LINE
  8
0
  6
CONTINUOUS
 62
     7
 10
19.811241
 20
-23.373837
 11
14.421815
 21
-10.36261
  0
LINE
  8
0
  6
CONTINUOUS
 62
     7
 10
32.822483
 20
-28.763262
 11
19.811258
 21
-23.373837
  0
LINE
  8
0
  6
CONTINUOUS
 62
     7
 10
45.83371
 20
-23.37384
 11
32.822483
 21
-28.763268
  0
LINE
  8
0
  6
CONTINUOUS
 62
     7
 10
51.223156
 20
-10.362601
 11
45.833725
 21
-23.373837
  0
LINE
  8
0
  6
CENTER
 62
     7
 10
32.822491
 20
41.090187
 11
32.822491
 21
-61.75502
  0
LINE
  8
0
  6
CENTER
 62
     7
 10
-142.85855
 20
-615.94757
 11
0.10008022
 21
-615.94757
  0
LINE
  8
0
  6
CONTINUOUS
 62
     7
 10
-50.763374
 20
-615.94757
 11
-57.579407
 21
-599.49225
  0
LINE
  8
0
  6
CONTINUOUS
 62
     7
 10
-57.579391
 20
-599.49219
 11
-74.034782
 21
-592.67615
  0
LINE
  8
0
  6
CONTINUOUS
 62
     7
 10
-90.490173
 20
-599.49219
 11
-74.034782
 21
-592.67615
  0
LINE
  8
0
  6
CONTINUOUS
 62
     7
 10
-97.306244
 20
-615.94763
 11
-90.490189
 21
-599.49219
  0
LINE
  8
0
  6
CONTINUOUS
 62
     7
 10
-90.490189
 20
-632.40295
 11
-97.306229
 21
-615.94763
  0
LINE
  8
0
  6
CONTINUOUS
 62
     7
 10
-74.034775
 20
-639.21899
 11
-90.490173
 21
-632.40295
  0
LINE
  8
0
  6
CONTINUOUS
 62
     7
 10
-57.579395
 20
-632.40302
 11
-74.03479
 21
-639.21906
  0
LINE
  8
0
  6
CONTINUOUS
 62
     7
 10
-50.763367
 20
-615.94757
 11
-57.579426
 21
-632.40302
  0
LINE
  8
0
  6
CENTER
 62
     7
 10
-74.034798
 20
-545.90747
 11
-74.034798
 21
-690.78497
  0
LINE
  8
0
  6
CENTER
 62
     7
 10
-154.27824
 20
-1233.5112
 11
-7.3094106
 21
-1233.5112
  0
LINE
  8
0
  6
CONTINUOUS
 62
     7
 10
-52.566696
 20
-1233.5112
 11
-60.333836
 21
-1214.7598
  0
LINE
  8
0
  6
CONTINUOUS
 62
     7
 10
-60.333824
 20
-1214.7596
 11
-79.085327
 21
-1206.9926
  0
LINE
  8
0
  6
CONTINUOUS
 62
     7
 10
-97.836845
 20
-1214.7596
 11
-79.085373
 21
-1206.9926
  0
LINE
  8
0
  6
CONTINUOUS
 62
     7
 10
-105.60397
 20
-1233.5112
 11
-97.836838
 21
-1214.7598
  0
LINE
  8
0
  6
CONTINUOUS
 62
     7
 10
-97.836792
 20
-1252.2627
 11
-105.60393
 21
-1233.5112
  0
LINE
  8
0
  6
CONTINUOUS
 62
     7
 10
-79.085312
 20
-1260.0298
 11
-97.836815
 21
-1252.2627
  0
LINE
  8
0
  6
CONTINUOUS
 62
     7
 10
-60.333885
 20
-1252.2627
 11
-79.085358
 21
-1260.0298
  0
LINE
  8
0
  6
CONTINUOUS
 62
     7
 10
-52.566742
 20
-1233.5112
 11
-60.333878
 21
-1252.2627
  0
LINE
  8
0
  6
CENTER
 62
     7
 10
-79.085335
 20
-1159.0278
 11
-79.085335
 21
-1306.8875
  0
LINE
  8
0
  6
CENTER
 62
     7
 10
-155.68727
 20
-1543.6638
 11
4.6423612
 21
-1543.6638
  0
LINE
  8
0
  6
CONTINUOUS
 62
     7
 10
-47.154808
 20
-1543.6638
 11
-56.507053
 21
-1521.0854
  0
LINE
  8
0
  6
CONTINUOUS
 62
     7
 10
-56.507023
 20
-1521.0856
 11
-79.085342
 21
-1511.7333
  0
LINE
  8
0
  6
CONTINUOUS
 62
     7
 10
-101.66367
 20
-1521.0856
 11
-79.085358
 21
-1511.7333
  0
LINE
  8
0
  6
CONTINUOUS
 62
     7
 10
-111.01589
 20
-1543.6638
 11
-101.66364
 21
-1521.0854
  0
LINE
  8
0
  6
CONTINUOUS
 62
     7
 10
-101.6637
 20
-1566.2421
 11
-111.01595
 21
-1543.6638
  0
LINE
  8
0
  6
CONTINUOUS
 62
     7
 10
-79.08535
 20
-1575.5944
 11
-101.66367
 21
-1566.2422
  0
LINE
  8
0
  6
CONTINUOUS
 62
     7
 10
-56.50703
 20
-1566.2422
 11
-79.08535
 21
-1575.5944
  0
LINE
  8
0
  6
CONTINUOUS
 62
     7
 10
-47.154751
 20
-1543.6638
 11
-56.507
 21
-1566.2421
  0
LINE
  8
0
  6
CENTER
 62
     7
 10
-79.085335
 20
-1467.2014
 11
-79.085335
 21
-1619.5146
  0
LINE
  8
0
  6
CENTER
 62
     7
 10
282.10172
 20
-627.97998
 11
462.02719
 21
-627.97998
  0
LINE
  8
0
  6
CONTINUOUS
 62
     7
 10
410.64722
 20
-627.97992
 11
399.86835
 21
-601.95746
  0
LINE
  8
0
  6
CONTINUOUS
 62
     7
 10
399.86838
 20
-601.95746
 11
373.84586
 21
-591.17859
  0
LINE
  8
0
  6
CONTINUOUS
 62
     7
 10
347.82343
 20
-601.95746
 11
373.84589
 21
-591.17859
  0
LINE
  8
0
  6
CONTINUOUS
 62
     7
 10
337.04453
 20
-627.97992
 11
347.82339
 21
-601.95746
  0
LINE
  8
0
  6
CONTINUOUS
 62
     7
 10
347.82339
 20
-654.00238
 11
337.04456
 21
-627.97992
  0
LINE
  8
0
  6
CONTINUOUS
 62
     7
 10
373.84592
 20
-664.78131
 11
347.82339
 21
-654.00244
  0
LINE
  8
0
  6
CONTINUOUS
 62
     7
 10
399.86835
 20
-654.00238
 11
373.84589
 21
-664.78125
  0
LINE
  8
0
  6
CONTINUOUS
 62
     7
 10
410.64725
 20
-627.97992
 11
399.86838
 21
-654.00244
  0
LINE
  8
0
  6
CENTER
 62
     7
 10
373.84589
 20
-537.38116
 11
373.84589
 21
-723.54169
  0
LINE
  8
0
  6
CENTER
 62
     7
 10
274.53058
 20
-1234.025
 11
472.27048
 21
-1234.025
  0
LINE
  8
0
  6
CONTINUOUS
 62
     7
 10
418.22394
 20
-1234.025
 11
405.22592
 21
-1202.645
  0
LINE
  8
0
  6
CONTINUOUS
 62
     7
 10
405.22592
 20
-1202.645
 11
373.84589
 21
-1189.647
  0
LINE
  8
0
  6
CONTINUOUS
 62
     7
 10
342.46585
 20
-1202.645
 11
373.84592
 21
-1189.647
  0
LINE
  8
0
  6
CONTINUOUS
 62
     7
 10
329.4678
 20
-1234.025
 11
342.46585
 21
-1202.645
  0
LINE
  8
0
  6
CONTINUOUS
 62
     7
 10
342.46585
 20
-1265.405
 11
329.46783
 21
-1234.025
  0
LINE
  8
0
  6
CONTINUOUS
 62
     7
 10
373.84586
 20
-1278.4032
 11
342.46582
 21
-1265.4052
  0
LINE
  8
0
  6
CONTINUOUS
 62
     7
 10
405.22595
 20
-1265.4052
 11
373.84589
 21
-1278.4032
  0
LINE
  8
0
  6
CONTINUOUS
 62
     7
 10
418.22397
 20
-1234.025
 11
405.22592
 21
-1265.405
  0
LINE
  8
0
  6
CENTER
 62
     7
 10
373.84589
 20
-1136.8358
 11
373.84589
 21
-1331.9036
  0
LINE
  8
0
  6
CENTER
 62
     7
 10
-279.62778
 20
-10.362597
 11
-221.29604
 21
-10.362597
  0
LINE
  8
0
  6
CONTINUOUS
 62
     7
 10
-272.17752
 20
15.137408
 11
-272.17752
 21
-35.862598
  0
LINE
  8
0
  6
CONTINUOUS
 62
     7
 10
-271.17752
 20
-57.862598
 11
-262.17752
 21
-57.862598
  0
LINE
  8
0
  6
CONTINUOUS
 62
     7
 10
-271.17752
 20
-10.362597
 11
-271.17752
 21
-57.862598
  0
LINE
  8
0
  6
CONTINUOUS
 62
     7
 10
-243.5775
 20
-25.36261
 11
-243.0775
 21
-24.86261
  0
LINE
  8
0
  6
CONTINUOUS
 62
     7
 10
-243.0775
 20
-10.362597
 11
-243.0775
 21
-24.862602
  0
LINE
  8
0
  6
CONTINUOUS
 62
     7
 10
-257.17752
 20
-25.362602
 11
-243.5775
 21
-25.362602
  0
LINE
  8
0
  6
CONTINUOUS
 62
     7
 10
-260.17752
 20
-10.362597
 11
-260.17752
 21
-55.862598
  0
LINE
  8
0
  6
CONTINUOUS
 62
     7
 10
-243.5775
 20
-10.362597
 11
-243.5775
 21
-25.362602
  0
LINE
  8
0
  6
CENTER
 62
     7
 10
-87.6278
 20
-10.362597
 11
-29.296041
 21
-10.362597
  0
LINE
  8
0
  6
CONTINUOUS
 62
     7
 10
-80.177513
 20
15.13741
 11
-80.177513
 21
-35.862598
  0
LINE
  8
0
  6
CENTER
 62
     7
 10
-85.546776
 20
24.637409
 11
-64.263969
 21
24.637409
  0
LINE
  8
0
  6
CONTINUOUS
 62
     7
 10
-79.177513
 20
-57.862598
 11
-70.177513
 21
-57.862598
  0
LINE
  8
0
  6
CONTINUOUS
 62
     7
 10
-79.177513
 20
-10.362597
 11
-79.177513
 21
-57.862598
  0
LINE
  8
0
  6
CONTINUOUS
 62
     7
 10
-68.177513
 20
-10.362597
 11
-68.177513
 21
-55.862598
  0
LINE
  8
0
  6
CONTINUOUS
 62
     7
 10
-49.077503
 20
-27.362593
 11
-49.077503
 21
-10.362597
  0
LINE
  8
0
  6
CONTINUOUS
 62
     7
 10
-65.177513
 20
-27.862593
 11
-49.577503
 21
-27.862593
  0
LINE
  8
0
  6
CONTINUOUS
 62
     7
 10
-49.577503
 20
-10.362597
 11
-49.577503
 21
-27.862593
  0
LINE
  8
0
  6
CONTINUOUS
 62
     7
 10
-49.577507
 20
-27.862597
 11
-49.077518
 21
-27.362608
  0
LINE
  8
0
  6
CENTER
 62
     7
 10
-207.96431
 20
-302.81674
 11
-149.63255
 21
-302.81674
  0
LINE
  8
0
  6
CONTINUOUS
 62
     7
 10
-200.51402
 20
-302.81674
 11
-200.51402
 21
-330.81674
  0
LINE
  8
0
  6
CONTINUOUS
 62
     7
 10
-199.51402
 20
-302.81674
 11
-199.51402
 21
-352.81674
  0
LINE
  8
0
  6
CENTER
 62
     7
 10
-203.77048
 20
-265.31674
 11
-181.72145
 21
-265.31674
  0
LINE
  8
0
  6
CONTINUOUS
 62
     7
 10
-169.41402
 20
-319.81674
 11
-169.41402
 21
-302.81674
  0
LINE
  8
0
  6
CONTINUOUS
 62
     7
 10
-183.51402
 20
-320.31674
 11
-169.91402
 21
-320.31674
  0
LINE
  8
0
  6
CONTINUOUS
 62
     7
 10
-199.51402
 20
-352.81674
 11
-188.51402
 21
-352.81674
  0
LINE
  8
0
  6
CONTINUOUS
 62
     7
 10
-186.51402
 20
-302.81674
 11
-186.51402
 21
-350.81674
  0
LINE
  8
0
  6
CONTINUOUS
 62
     7
 10
-169.91403
 20
-320.31674
 11
-169.41402
 21
-319.81674
  0
LINE
  8
0
  6
CONTINUOUS
 62
     7
 10
-217.16245
 20
-615.94757
 11
-217.16245
 21
-649.44757
  0
LINE
  8
0
  6
CONTINUOUS
 62
     7
 10
-205.16245
 20
-678.44757
 11
-216.16245
 21
-678.44757
  0
LINE
  8
0
  6
CONTINUOUS
 62
     7
 10
-216.16245
 20
-615.94757
 11
-216.16245
 21
-678.44757
  0
LINE
  8
0
  6
CONTINUOUS
 62
     7
 10
-203.16245
 20
-615.94757
 11
-203.16245
 21
-676.44757
  0
LINE
  8
0
  6
CENTER
 62
     7
 10
-155.48053
 20
-615.94757
 11
-224.95166
 21
-615.94757
  0
LINE
  8
0
  6
CONTINUOUS
 62
     7
 10
-183.16245
 20
-615.94757
 11
-183.16245
 21
-638.44757
  0
LINE
  8
0
  6
CONTINUOUS
 62
     7
 10
-200.16245
 20
-638.94757
 11
-183.66245
 21
-638.94757
  0
LINE
  8
0
  6
CENTER
 62
     7
 10
-221.35104
 20
-570.94757
 11
-200.95508
 21
-570.94757
  0
LINE
  8
0
  6
CONTINUOUS
 62
     7
 10
-183.66243
 20
-638.94763
 11
-183.1624
 21
-638.44757
  0
LINE
  8
0
  6
CONTINUOUS
 62
     7
 10
-231.7608
 20
-937.77655
 11
-231.7608
 21
-971.27655
  0
LINE
  8
0
  6
CONTINUOUS
 62
     7
 10
-219.7608
 20
-1000.2766
 11
-230.7608
 21
-1000.2766
  0
LINE
  8
0
  6
CONTINUOUS
 62
     7
 10
-230.7608
 20
-937.77655
 11
-230.7608
 21
-1000.2766
  0
LINE
  8
0
  6
CONTINUOUS
 62
     7
 10
-217.7608
 20
-937.77655
 11
-217.7608
 21
-998.27655
  0
LINE
  8
0
  6
CENTER
 62
     7
 10
-175.411
 20
-937.77655
 11
-237.34026
 21
-937.77655
  0
LINE
  8
0
  6
CENTER
 62
     7
 10
-235.94939
 20
-892.77655
 11
-215.55344
 21
-892.77655
  0
LINE
  8
0
  6
CONTINUOUS
 62
     7
 10
-195.76079
 20
-963.27655
 11
-214.7608
 21
-963.27655
  0
LINE
  8
0
  6
CONTINUOUS
 62
     7
 10
-195.26079
 20
-937.77655
 11
-195.26079
 21
-962.77655
  0
LINE
  8
0
  6
CONTINUOUS
 62
     7
 10
-195.76077
 20
-963.27655
 11
-195.26079
 21
-962.77655
  0
LINE
  8
0
  6
CONTINUOUS
 62
     7
 10
-244.80791
 20
-1233.5112
 11
-244.80791
 21
-1271.5112
  0
LINE
  8
0
  6
CONTINUOUS
 62
     7
 10
-242.80791
 20
-1301.0112
 11
-231.80791
 21
-1301.0112
  0
LINE
  8
0
  6
CENTER
 62
     7
 10
-190.52296
 20
-1233.5112
 11
-248.70549
 21
-1233.5112
  0
LINE
  8
0
  6
CENTER
 62
     7
 10
-247.97005
 20
-1183.5112
 11
-226.61238
 21
-1183.5112
  0
LINE
  8
0
  6
CONTINUOUS
 62
     7
 10
-242.80791
 20
-1233.5112
 11
-242.80791
 21
-1301.0112
  0
LINE
  8
0
  6
CONTINUOUS
 62
     7
 10
-228.80791
 20
-1233.5112
 11
-228.80791
 21
-1298.0112
  0
LINE
  8
0
  6
CONTINUOUS
 62
     7
 10
-208.80791
 20
-1259.0112
 11
-225.80791
 21
-1259.0112
  0
LINE
  8
0
  6
CONTINUOUS
 62
     7
 10
-208.30791
 20
-1233.5112
 11
-208.30791
 21
-1258.5112
  0
LINE
  8
0
  6
CONTINUOUS
 62
     7
 10
-208.80792
 20
-1259.0112
 11
-208.30789
 21
-1258.5112
  0
LINE
  8
0
  6
CONTINUOUS
 62
     7
 10
-228.17751
 20
0.13740999
 11
-228.17751
 21
-20.862598
  0
LINE
  8
0
  6
CONTINUOUS
 62
     7
 10
-239.17751
 20
-23.983917
 11
-239.17751
 21
-24.862598
  0
LINE
  8
0
  6
CONTINUOUS
 62
     7
 10
-239.17751
 20
-24.862598
 11
-232.17751
 21
-24.862598
  0
LINE
  8
0
  6
CONTINUOUS
 62
     7
 10
-239.67751
 20
-24.362598
 11
-239.17751
 21
-24.862598
  0
LINE
  8
0
  6
CONTINUOUS
 62
     7
 10
-239.17751
 20
-15.126053
 11
-239.17751
 21
-17.24794
  0
LINE
  8
0
  6
CONTINUOUS
 62
     7
 10
-239.17751
 20
-23.983917
 11
-232.17751
 21
-23.983917
  0
LINE
  8
0
  6
CONTINUOUS
 62
     7
 10
-239.17751
 20
-15.126053
 11
-232.17751
 21
-15.126053
  0
LINE
  8
0
  6
CONTINUOUS
 62
     7
 10
-239.17751
 20
-17.24794
 11
-232.17751
 21
-17.24794
  0
LINE
  8
0
  6
CONTINUOUS
 62
     7
 10
-232.17751
 20
-10.362597
 11
-232.17751
 21
-24.862598
  0
LINE
  8
0
  6
CONTINUOUS
 62
     7
 10
-239.67751
 20
-10.362597
 11
-239.67751
 21
-24.362598
  0
LINE
  8
0
  6
CONTINUOUS
 62
     7
 10
-32.177509
 20
1.6374099
 11
-32.177509
 21
-22.362598
  0
LINE
  8
0
  6
CONTINUOUS
 62
     7
 10
-37.177509
 20
-10.362597
 11
-37.177509
 21
-27.362597
  0
LINE
  8
0
  6
CONTINUOUS
 62
     7
 10
-45.177509
 20
-16.161587
 11
-37.177509
 21
-16.161587
  0
LINE
  8
0
  6
CONTINUOUS
 62
     7
 10
-45.177509
 20
-16.161587
 11
-45.177509
 21
-18.282906
  0
LINE
  8
0
  6
CONTINUOUS
 62
     7
 10
-45.177509
 20
-26.483915
 11
-45.177509
 21
-27.362597
  0
LINE
  8
0
  6
CONTINUOUS
 62
     7
 10
-45.177509
 20
-26.483915
 11
-37.177509
 21
-26.483915
  0
LINE
  8
0
  6
CENTER
 62
     7
 10
-48.524036
 20
-10.362597
 11
-29.093069
 21
-10.362597
  0
LINE
  8
0
  6
CONTINUOUS
 62
     7
 10
-45.177509
 20
-27.362597
 11
-37.177509
 21
-27.362597
  0
LINE
  8
0
  6
CONTINUOUS
 62
     7
 10
-45.177509
 20
-27.362587
 11
-45.677509
 21
-26.862587
  0
LINE
  8
0
  6
CONTINUOUS
 62
     7
 10
-45.177509
 20
-18.282906
 11
-37.177509
 21
-18.282906
  0
LINE
  8
0
  6
CONTINUOUS
 62
     7
 10
-152.51402
 20
-302.81674
 11
-152.51402
 21
-314.81674
  0
LINE
  8
0
  6
CONTINUOUS
 62
     7
 10
-157.51402
 20
-302.81674
 11
-157.51402
 21
-319.81674
  0
LINE
  8
0
  6
CONTINUOUS
 62
     7
 10
-165.51402
 20
-308.61572
 11
-157.51402
 21
-308.61572
  0
LINE
  8
0
  6
CONTINUOUS
 62
     7
 10
-165.51402
 20
-308.61572
 11
-165.51402
 21
-310.73706
  0
LINE
  8
0
  6
CONTINUOUS
 62
     7
 10
-165.51402
 20
-318.93805
 11
-165.51402
 21
-319.81674
  0
LINE
  8
0
  6
CONTINUOUS
 62
     7
 10
-165.51402
 20
-318.93805
 11
-157.51402
 21
-318.93805
  0
LINE
  8
0
  6
CONTINUOUS
 62
     7
 10
-165.51402
 20
-319.81674
 11
-157.51402
 21
-319.81674
  0
LINE
  8
0
  6
CONTINUOUS
 62
     7
 10
-165.51405
 20
-319.81674
 11
-166.01405
 21
-319.31674
  0
LINE
  8
0
  6
CONTINUOUS
 62
     7
 10
-165.51402
 20
-310.73706
 11
-157.51402
 21
-310.73706
  0
LINE
  8
0
  6
CONTINUOUS
 62
     7
 10
-45.677509
 20
-10.362597
 11
-45.677509
 21
-26.862597
  0
LINE
  8
0
  6
CONTINUOUS
 62
     7
 10
-166.01402
 20
-302.81674
 11
-166.01402
 21
-319.31674
  0
LINE
  8
0
  6
CONTINUOUS
 62
     7
 10
-179.16245
 20
-635.84082
 11
-170.16245
 21
-635.84082
  0
LINE
  8
0
  6
CONTINUOUS
 62
     7
 10
-179.66241
 20
-636.94757
 11
-179.1624
 21
-637.44757
  0
LINE
  8
0
  6
CONTINUOUS
 62
     7
 10
-179.16245
 20
-635.84082
 11
-179.16245
 21
-637.44757
  0
LINE
  8
0
  6
CONTINUOUS
 62
     7
 10
-179.16245
 20
-622.58087
 11
-179.16245
 21
-626.45996
  0
LINE
  8
0
  6
CONTINUOUS
 62
     7
 10
-179.16245
 20
-637.44757
 11
-170.16245
 21
-637.44757
  0
LINE
  8
0
  6
CONTINUOUS
 62
     7
 10
-165.16245
 20
-615.94757
 11
-165.16245
 21
-632.44757
  0
LINE
  8
0
  6
CONTINUOUS
 62
     7
 10
-170.16245
 20
-615.94757
 11
-170.16245
 21
-637.44757
  0
LINE
  8
0
  6
CONTINUOUS
 62
     7
 10
-179.16245
 20
-626.45996
 11
-170.16245
 21
-626.45996
  0
LINE
  8
0
  6
CONTINUOUS
 62
     7
 10
-179.16245
 20
-622.58087
 11
-170.16245
 21
-622.58087
  0
LINE
  8
0
  6
CONTINUOUS
 62
     7
 10
-179.66245
 20
-615.94757
 11
-179.66245
 21
-636.94757
  0
LINE
  8
0
  6
CONTINUOUS
 62
     7
 10
-191.16078
 20
-961.25488
 11
-191.16078
 21
-962.27655
  0
LINE
  8
0
  6
CONTINUOUS
 62
     7
 10
-191.16078
 20
-961.25488
 11
-180.76079
 21
-961.25488
  0
LINE
  8
0
  6
CONTINUOUS
 62
     7
 10
-191.16078
 20
-946.47998
 11
-180.76079
 21
-946.47998
  0
LINE
  8
0
  6
CONTINUOUS
 62
     7
 10
-191.16078
 20
-946.47998
 11
-191.16078
 21
-948.94635
  0
LINE
  8
0
  6
CONTINUOUS
 62
     7
 10
-175.76079
 20
-937.77655
 11
-175.76079
 21
-957.27655
  0
LINE
  8
0
  6
CONTINUOUS
 62
     7
 10
-191.66081
 20
-961.77655
 11
-191.16083
 21
-962.27655
  0
LINE
  8
0
  6
CONTINUOUS
 62
     7
 10
-191.16078
 20
-962.27655
 11
-180.76079
 21
-962.27655
  0
LINE
  8
0
  6
CONTINUOUS
 62
     7
 10
-180.76079
 20
-937.77655
 11
-180.76079
 21
-962.27655
  0
LINE
  8
0
  6
CONTINUOUS
 62
     7
 10
-191.16078
 20
-948.94635
 11
-180.76079
 21
-948.94635
  0
LINE
  8
0
  6
CONTINUOUS
 62
     7
 10
-204.2079
 20
-1256.9896
 11
-204.2079
 21
-1258.0112
  0
LINE
  8
0
  6
CONTINUOUS
 62
     7
 10
-204.2079
 20
-1256.9896
 11
-193.80791
 21
-1256.9896
  0
LINE
  8
0
  6
CONTINUOUS
 62
     7
 10
-204.2079
 20
-1242.2147
 11
-204.2079
 21
-1244.681
  0
LINE
  8
0
  6
CONTINUOUS
 62
     7
 10
-204.2079
 20
-1242.2147
 11
-193.80791
 21
-1242.2147
  0
LINE
  8
0
  6
CONTINUOUS
 62
     7
 10
-188.80791
 20
-1233.5112
 11
-188.80791
 21
-1253.0112
  0
LINE
  8
0
  6
CONTINUOUS
 62
     7
 10
-204.70787
 20
-1257.5112
 11
-204.20789
 21
-1258.0112
  0
LINE
  8
0
  6
CONTINUOUS
 62
     7
 10
-204.2079
 20
-1258.0112
 11
-193.80791
 21
-1258.0112
  0
LINE
  8
0
  6
CONTINUOUS
 62
     7
 10
-193.80791
 20
-1233.5112
 11
-193.80791
 21
-1258.0112
  0
LINE
  8
0
  6
CONTINUOUS
 62
     7
 10
-204.2079
 20
-1244.681
 11
-193.80791
 21
-1244.681
  0
LINE
  8
0
  6
CONTINUOUS
 62
     7
 10
-191.66078
 20
-937.77655
 11
-191.66078
 21
-961.77655
  0
LINE
  8
0
  6
CONTINUOUS
 62
     7
 10
-204.7079
 20
-1233.5112
 11
-204.7079
 21
-1257.5112
  0
LINE
  8
0
  6
CONTINUOUS
 62
     7
 10
-249.68047
 20
-1543.6638
 11
-249.68047
 21
-1581.6638
  0
LINE
  8
0
  6
CONTINUOUS
 62
     7
 10
-247.68047
 20
-1611.1638
 11
-236.68047
 21
-1611.1638
  0
LINE
  8
0
  6
CENTER
 62
     7
 10
-194.20001
 20
-1543.6638
 11
-257.46967
 21
-1543.6638
  0
LINE
  8
0
  6
CENTER
 62
     7
 10
-252.84261
 20
-1493.6638
 11
-231.48494
 21
-1493.6638
  0
LINE
  8
0
  6
CONTINUOUS
 62
     7
 10
-247.68047
 20
-1543.6638
 11
-247.68047
 21
-1611.1638
  0
LINE
  8
0
  6
CONTINUOUS
 62
     7
 10
-233.68047
 20
-1543.6638
 11
-233.68047
 21
-1608.1638
  0
LINE
  8
0
  6
CONTINUOUS
 62
     7
 10
-213.6805
 20
-1574.1638
 11
-213.18045
 21
-1573.6638
  0
LINE
  8
0
  6
CONTINUOUS
 62
     7
 10
-230.68047
 20
-1574.1638
 11
-213.68048
 21
-1574.1638
  0
LINE
  8
0
  6
CONTINUOUS
 62
     7
 10
-213.18048
 20
-1573.6638
 11
-213.18048
 21
-1543.6638
  0
LINE
  8
0
  6
CONTINUOUS
 62
     7
 10
196.2523
 20
-11.348905
 11
196.2523
 21
-51.848904
  0
LINE
  8
0
  6
CENTER
 62
     7
 10
264.64215
 20
-11.348905
 11
188.46309
 21
-11.348905
  0
LINE
  8
0
  6
CENTER
 62
     7
 10
196.77827
 20
41.151112
 11
214.44783
 21
41.151112
  0
LINE
  8
0
  6
CONTINUOUS
 62
     7
 10
198.2523
 20
-11.348905
 11
198.2523
 21
-81.348907
  0
LINE
  8
0
  6
CONTINUOUS
 62
     7
 10
232.25229
 20
-41.848907
 11
232.75229
 21
-41.348904
  0
LINE
  8
0
  6
CONTINUOUS
 62
     7
 10
215.2523
 20
-41.848904
 11
232.25227
 21
-41.848904
  0
LINE
  8
0
  6
CONTINUOUS
 62
     7
 10
212.2523
 20
-11.348905
 11
212.2523
 21
-78.348907
  0
LINE
  8
0
  6
CONTINUOUS
 62
     7
 10
232.75227
 20
-41.348904
 11
232.75227
 21
-11.348905
  0
LINE
  8
0
  6
CONTINUOUS
 62
     7
 10
198.2523
 20
-81.348907
 11
209.2523
 21
-81.348907
  0
LINE
  8
0
  6
CONTINUOUS
 62
     7
 10
181.01991
 20
-313.04822
 11
181.01991
 21
-353.54822
  0
LINE
  8
0
  6
CENTER
 62
     7
 10
239.46095
 20
-313.04822
 11
173.2307
 21
-313.04822
  0
LINE
  8
0
  6
CENTER
 62
     7
 10
181.54588
 20
-260.54819
 11
199.21544
 21
-260.54819
  0
LINE
  8
0
  6
CONTINUOUS
 62
     7
 10
183.01991
 20
-313.04822
 11
183.01991
 21
-383.04822
  0
LINE
  8
0
  6
CONTINUOUS
 62
     7
 10
197.01991
 20
-313.04822
 11
197.01991
 21
-380.04822
  0
LINE
  8
0
  6
CONTINUOUS
 62
     7
 10
183.01991
 20
-383.04822
 11
194.01991
 21
-383.04822
  0
LINE
  8
0
  6
CONTINUOUS
 62
     7
 10
218.01991
 20
-346.54822
 11
218.01991
 21
-313.04822
  0
LINE
  8
0
  6
CONTINUOUS
 62
     7
 10
200.01991
 20
-347.04822
 11
217.51991
 21
-347.04822
  0
LINE
  8
0
  6
CONTINUOUS
 62
     7
 10
217.51988
 20
-347.04819
 11
218.01987
 21
-346.54819
  0
LINE
  8
0
  6
CONTINUOUS
 62
     7
 10
-209.08047
 20
-1553.1901
 11
-197.68045
 21
-1553.1901
  0
LINE
  8
0
  6
CONTINUOUS
 62
     7
 10
-197.68045
 20
-1543.6638
 11
-197.68045
 21
-1573.1638
  0
LINE
  8
0
  6
CONTINUOUS
 62
     7
 10
-209.58044
 20
-1572.6638
 11
-209.08046
 21
-1573.1638
  0
LINE
  8
0
  6
CONTINUOUS
 62
     7
 10
-209.08047
 20
-1571.2595
 11
-197.68045
 21
-1571.2595
  0
LINE
  8
0
  6
CONTINUOUS
 62
     7
 10
-209.08047
 20
-1557.7874
 11
-197.68045
 21
-1557.7874
  0
LINE
  8
0
  6
CONTINUOUS
 62
     7
 10
-209.08047
 20
-1573.1638
 11
-197.68045
 21
-1573.1638
  0
LINE
  8
0
  6
CONTINUOUS
 62
     7
 10
-191.68045
 20
-1543.6638
 11
-191.68045
 21
-1567.1638
  0
LINE
  8
0
  6
CONTINUOUS
 62
     7
 10
-209.08047
 20
-1553.1901
 11
-209.08047
 21
-1557.7874
  0
LINE
  8
0
  6
CONTINUOUS
 62
     7
 10
-209.08047
 20
-1571.2595
 11
-209.08047
 21
-1573.1638
  0
LINE
  8
0
  6
CONTINUOUS
 62
     7
 10
236.85228
 20
-20.875181
 11
248.2523
 21
-20.875181
  0
LINE
  8
0
  6
CONTINUOUS
 62
     7
 10
248.2523
 20
-11.348905
 11
248.2523
 21
-40.848904
  0
LINE
  8
0
  6
CONTINUOUS
 62
     7
 10
236.35229
 20
-40.348892
 11
236.85229
 21
-40.848904
  0
LINE
  8
0
  6
CONTINUOUS
 62
     7
 10
236.85228
 20
-38.944637
 11
248.2523
 21
-38.944637
  0
LINE
  8
0
  6
CONTINUOUS
 62
     7
 10
236.85228
 20
-25.472441
 11
248.2523
 21
-25.472441
  0
LINE
  8
0
  6
CONTINUOUS
 62
     7
 10
236.85228
 20
-40.848904
 11
248.2523
 21
-40.848904
  0
LINE
  8
0
  6
CONTINUOUS
 62
     7
 10
254.2523
 20
-11.348905
 11
254.2523
 21
-34.848904
  0
LINE
  8
0
  6
CONTINUOUS
 62
     7
 10
236.85228
 20
-20.875181
 11
236.85228
 21
-25.472441
  0
LINE
  8
0
  6
CONTINUOUS
 62
     7
 10
236.85228
 20
-38.944637
 11
236.85228
 21
-40.848904
  0
LINE
  8
0
  6
CONTINUOUS
 62
     7
 10
236.35228
 20
-11.348905
 11
236.35228
 21
-40.348904
  0
LINE
  8
0
  6
CONTINUOUS
 62
     7
 10
-209.58047
 20
-1543.6638
 11
-209.58047
 21
-1572.6638
  0
LINE
  8
0
  6
CONTINUOUS
 62
     7
 10
222.51988
 20
-347.04819
 11
222.01988
 21
-346.54822
  0
LINE
  8
0
  6
CONTINUOUS
 62
     7
 10
222.51991
 20
-344.3096
 11
222.51991
 21
-347.04822
  0
LINE
  8
0
  6
CONTINUOUS
 62
     7
 10
222.51991
 20
-347.04822
 11
234.01988
 21
-347.04822
  0
LINE
  8
0
  6
CONTINUOUS
 62
     7
 10
222.51991
 20
-344.3096
 11
234.01988
 21
-344.3096
  0
LINE
  8
0
  6
CONTINUOUS
 62
     7
 10
242.01988
 20
-313.04822
 11
242.01988
 21
-339.04822
  0
LINE
  8
0
  6
CONTINUOUS
 62
     7
 10
222.51991
 20
-323.25851
 11
222.51991
 21
-329.87009
  0
LINE
  8
0
  6
CONTINUOUS
 62
     7
 10
222.51991
 20
-329.87009
 11
234.01988
 21
-329.87009
  0
LINE
  8
0
  6
CONTINUOUS
 62
     7
 10
234.01988
 20
-313.04822
 11
234.01988
 21
-347.04822
  0
LINE
  8
0
  6
CONTINUOUS
 62
     7
 10
222.51991
 20
-323.25851
 11
234.01988
 21
-323.25851
  0
LINE
  8
0
  6
CONTINUOUS
 62
     7
 10
222.01991
 20
-313.04822
 11
222.01991
 21
-346.54822
  0
LINE
  8
0
  6
CONTINUOUS
 62
     7
 10
181.01988
 20
-627.97998
 11
181.01988
 21
-675.97998
  0
LINE
  8
0
  6
CENTER
 62
     7
 10
252.10921
 20
-627.97998
 11
173.23067
 21
-627.97998
  0
LINE
  8
0
  6
CENTER
 62
     7
 10
181.54587
 20
-567.97998
 11
199.21541
 21
-567.97998
  0
LINE
  8
0
  6
CONTINUOUS
 62
     7
 10
183.01988
 20
-627.97998
 11
183.01988
 21
-705.47998
  0
LINE
  8
0
  6
CONTINUOUS
 62
     7
 10
197.01988
 20
-627.97998
 11
197.01988
 21
-702.47998
  0
LINE
  8
0
  6
CONTINUOUS
 62
     7
 10
183.01988
 20
-705.47998
 11
194.01988
 21
-705.47998
  0
LINE
  8
0
  6
CONTINUOUS
 62
     7
 10
218.01988
 20
-661.47998
 11
218.01988
 21
-627.97998
  0
LINE
  8
0
  6
CONTINUOUS
 62
     7
 10
200.01988
 20
-661.97998
 11
217.51988
 21
-661.97998
  0
LINE
  8
0
  6
CONTINUOUS
 62
     7
 10
217.51987
 20
-661.97992
 11
218.01988
 21
-661.47992
  0
LINE
  8
0
  6
CONTINUOUS
 62
     7
 10
175.3734
 20
-934.97223
 11
175.3734
 21
-982.97223
  0
LINE
  8
0
  6
CENTER
 62
     7
 10
233.81447
 20
-934.97223
 11
167.58418
 21
-934.97223
  0
LINE
  8
0
  6
CENTER
 62
     7
 10
175.89937
 20
-874.97223
 11
193.56892
 21
-874.97223
  0
LINE
  8
0
  6
CONTINUOUS
 62
     7
 10
177.3734
 20
-934.97223
 11
177.3734
 21
-1012.4722
  0
LINE
  8
0
  6
CONTINUOUS
 62
     7
 10
191.3734
 20
-934.97223
 11
191.3734
 21
-1009.4722
  0
LINE
  8
0
  6
CONTINUOUS
 62
     7
 10
177.3734
 20
-1012.4722
 11
188.3734
 21
-1012.4722
  0
LINE
  8
0
  6
CONTINUOUS
 62
     7
 10
214.3734
 20
-975.47223
 11
214.3734
 21
-934.97223
  0
LINE
  8
0
  6
CONTINUOUS
 62
     7
 10
194.3734
 20
-975.97223
 11
213.8734
 21
-975.97223
  0
LINE
  8
0
  6
CONTINUOUS
 62
     7
 10
213.87338
 20
-975.97223
 11
214.37341
 21
-975.47223
  0
LINE
  8
0
  6
CONTINUOUS
 62
     7
 10
178.01988
 20
-1234.025
 11
178.01988
 21
-1292.025
  0
LINE
  8
0
  6
CENTER
 62
     7
 10
236.46095
 20
-1234.025
 11
170.23067
 21
-1234.025
  0
LINE
  8
0
  6
CENTER
 62
     7
 10
178.54588
 20
-1164.025
 11
197.26799
 21
-1164.025
  0
LINE
  8
0
  6
CONTINUOUS
 62
     7
 10
180.01988
 20
-1234.025
 11
180.01988
 21
-1321.525
  0
LINE
  8
0
  6
CONTINUOUS
 62
     7
 10
196.01988
 20
-1234.025
 11
196.01988
 21
-1318.525
  0
LINE
  8
0
  6
CONTINUOUS
 62
     7
 10
180.01988
 20
-1321.525
 11
193.01988
 21
-1321.525
  0
LINE
  8
0
  6
CONTINUOUS
 62
     7
 10
217.01988
 20
-1274.525
 11
217.01988
 21
-1234.025
  0
LINE
  8
0
  6
CONTINUOUS
 62
     7
 10
199.01988
 20
-1275.025
 11
216.51988
 21
-1275.025
  0
LINE
  8
0
  6
CONTINUOUS
 62
     7
 10
216.51987
 20
-1275.025
 11
217.0199
 21
-1274.525
  0
LINE
  8
0
  6
CONTINUOUS
 62
     7
 10
222.51988
 20
-661.97998
 11
222.0199
 21
-661.47998
  0
LINE
  8
0
  6
CONTINUOUS
 62
     7
 10
222.51988
 20
-659.24139
 11
222.51988
 21
-661.97998
  0
LINE
  8
0
  6
CONTINUOUS
 62
     7
 10
222.51988
 20
-661.97998
 11
234.01988
 21
-661.97998
  0
LINE
  8
0
  6
CONTINUOUS
 62
     7
 10
222.51988
 20
-659.24139
 11
234.01988
 21
-659.24139
  0
LINE
  8
0
  6
CONTINUOUS
 62
     7
 10
242.01988
 20
-627.97998
 11
242.01988
 21
-653.97998
  0
LINE
  8
0
  6
CONTINUOUS
 62
     7
 10
222.51988
 20
-638.19025
 11
222.51988
 21
-644.80182
  0
LINE
  8
0
  6
CONTINUOUS
 62
     7
 10
222.51988
 20
-644.80182
 11
234.01988
 21
-644.80182
  0
LINE
  8
0
  6
CONTINUOUS
 62
     7
 10
234.01988
 20
-627.97998
 11
234.01988
 21
-661.97998
  0
LINE
  8
0
  6
CONTINUOUS
 62
     7
 10
222.51988
 20
-638.19025
 11
234.01988
 21
-638.19025
  0
LINE
  8
0
  6
CONTINUOUS
 62
     7
 10
222.01988
 20
-627.97998
 11
222.01988
 21
-661.47998
  0
LINE
  8
0
  6
CONTINUOUS
 62
     7
 10
218.3734
 20
-975.97223
 11
233.3734
 21
-975.97223
  0
LINE
  8
0
  6
CONTINUOUS
 62
     7
 10
218.37338
 20
-975.97223
 11
217.87335
 21
-975.47223
  0
LINE
  8
0
  6
CONTINUOUS
 62
     7
 10
218.3734
 20
-973.12878
 11
218.3734
 21
-975.97223
  0
LINE
  8
0
  6
CONTINUOUS
 62
     7
 10
241.3734
 20
-934.97223
 11
241.3734
 21
-967.97223
  0
LINE
  8
0
  6
CONTINUOUS
 62
     7
 10
218.3734
 20
-973.12878
 11
233.3734
 21
-973.12878
  0
LINE
  8
0
  6
CONTINUOUS
 62
     7
 10
218.3734
 20
-947.93372
 11
233.3734
 21
-947.93372
  0
LINE
  8
0
  6
CONTINUOUS
 62
     7
 10
233.3734
 20
-934.97223
 11
233.3734
 21
-975.97223
  0
LINE
  8
0
  6
CONTINUOUS
 62
     7
 10
218.3734
 20
-954.79846
 11
233.3734
 21
-954.79846
  0
LINE
  8
0
  6
CONTINUOUS
 62
     7
 10
218.3734
 20
-947.93372
 11
218.3734
 21
-954.79846
  0
LINE
  8
0
  6
CONTINUOUS
 62
     7
 10
217.8734
 20
-934.97223
 11
217.8734
 21
-975.47223
  0
LINE
  8
0
  6
CONTINUOUS
 62
     7
 10
221.01988
 20
-1275.025
 11
236.01988
 21
-1275.025
  0
LINE
  8
0
  6
CONTINUOUS
 62
     7
 10
221.01988
 20
-1275.025
 11
220.51985
 21
-1274.525
  0
LINE
  8
0
  6
CONTINUOUS
 62
     7
 10
221.01988
 20
-1272.1816
 11
221.01988
 21
-1275.025
  0
LINE
  8
0
  6
CONTINUOUS
 62
     7
 10
244.01988
 20
-1234.025
 11
244.01988
 21
-1267.025
  0
LINE
  8
0
  6
CONTINUOUS
 62
     7
 10
221.01988
 20
-1272.1816
 11
236.01988
 21
-1272.1816
  0
LINE
  8
0
  6
CONTINUOUS
 62
     7
 10
221.01988
 20
-1246.9866
 11
236.01988
 21
-1246.9866
  0
LINE
  8
0
  6
CONTINUOUS
 62
     7
 10
236.01988
 20
-1234.025
 11
236.01988
 21
-1275.025
  0
LINE
  8
0
  6
CONTINUOUS
 62
     7
 10
221.01988
 20
-1253.8513
 11
236.01988
 21
-1253.8513
  0
LINE
  8
0
  6
CONTINUOUS
 62
     7
 10
221.01988
 20
-1246.9866
 11
221.01988
 21
-1253.8513
  0
LINE
  8
0
  6
CONTINUOUS
 62
     7
 10
220.51988
 20
-1234.025
 11
220.51988
 21
-1274.525
  0
LINE
  8
0
  6
CENTER
 62
     7
 10
-162.17751
 20
42.137409
 11
-162.17751
 21
-62.862606
  0
LINE
  8
0
  6
CENTER
 62
     7
 10
-214.67752
 20
-10.362597
 11
-109.67751
 21
-10.362597
  0
LINE
  8
0
  6
CONTINUOUS
 62
     7
 10
-243.0775
 20
-24.178715
 11
-239.67751
 21
-24.178715
  0
LINE
  8
0
  6
CONTINUOUS
 62
     7
 10
-271.17752
 20
37.137402
 11
-262.17752
 21
37.137402
  0
LINE
  8
0
  6
CONTINUOUS
 62
     7
 10
-271.17752
 20
-10.362597
 11
-271.17752
 21
37.137402
  0
LINE
  8
0
  6
CONTINUOUS
 62
     7
 10
-243.57751
 20
4.6374097
 11
-243.07751
 21
4.1374092
  0
LINE
  8
0
  6
CONTINUOUS
 62
     7
 10
-243.0775
 20
-10.362597
 11
-243.0775
 21
4.1374044
  0
LINE
  8
0
  6
CONTINUOUS
 62
     7
 10
-257.17752
 20
4.6374044
 11
-243.5775
 21
4.6374044
  0
LINE
  8
0
  6
CONTINUOUS
 62
     7
 10
-260.17752
 20
-10.362597
 11
-260.17752
 21
35.137402
  0
LINE
  8
0
  6
CONTINUOUS
 62
     7
 10
-243.5775
 20
-10.362597
 11
-243.5775
 21
4.6374044
  0
LINE
  8
0
  6
CONTINUOUS
 62
     7
 10
-239.17751
 20
3.2587192
 11
-239.17751
 21
4.1374006
  0
LINE
  8
0
  6
CONTINUOUS
 62
     7
 10
-239.17751
 20
4.1374006
 11
-232.17751
 21
4.1374006
  0
LINE
  8
0
  6
CONTINUOUS
 62
     7
 10
-239.67751
 20
3.6374085
 11
-239.17751
 21
4.1374092
  0
LINE
  8
0
  6
CONTINUOUS
 62
     7
 10
-239.17751
 20
-5.599143
 11
-239.17751
 21
-3.4772561
  0
LINE
  8
0
  6
CONTINUOUS
 62
     7
 10
-239.17751
 20
3.2587192
 11
-232.17751
 21
3.2587192
  0
LINE
  8
0
  6
CONTINUOUS
 62
     7
 10
-239.17751
 20
-5.599143
 11
-232.17751
 21
-5.599143
  0
LINE
  8
0
  6
CONTINUOUS
 62
     7
 10
-239.17751
 20
-3.4772561
 11
-232.17751
 21
-3.4772561
  0
LINE
  8
0
  6
CONTINUOUS
 62
     7
 10
-232.17751
 20
-10.362597
 11
-232.17751
 21
4.1374006
  0
LINE
  8
0
  6
CONTINUOUS
 62
     7
 10
-239.67751
 20
-10.362597
 11
-239.67751
 21
3.6374004
  0
LINE
  8
0
  6
CONTINUOUS
 62
     7
 10
-243.0775
 20
3.4535167
 11
-239.67751
 21
3.4535167
  0
LINE
  8
0
  6
CENTER
 62
     7
 10
-275.09482
 20
-45.362606
 11
-256.01193
 21
-45.362606
  0
LINE
  8
0
  6
CENTER
 62
     7
 10
-276.51892
 20
24.637407
 11
-256.01193
 21
24.637407
  0
LINE
  8
0
  6
CENTER
 62
     7
 10
-132.25822
 20
-302.81674
 11
-23.388847
 21
-302.81674
  0
LINE
  8
0
  6
CONTINUOUS
 62
     7
 10
-59.113388
 20
-302.81674
 11
-64.502808
 21
-289.80551
  0
LINE
  8
0
  6
CONTINUOUS
 62
     7
 10
-64.5028
 20
-289.80551
 11
-77.51403
 21
-284.41608
  0
LINE
  8
0
  6
CONTINUOUS
 62
     7
 10
-90.525276
 20
-289.80551
 11
-77.514053
 21
-284.41608
  0
LINE
  8
0
  6
CONTINUOUS
 62
     7
 10
-95.914703
 20
-302.81674
 11
-90.525276
 21
-289.80551
  0
LINE
  8
0
  6
CONTINUOUS
 62
     7
 10
-90.525291
 20
-315.82797
 11
-95.914711
 21
-302.81677
  0
LINE
  8
0
  6
CONTINUOUS
 62
     7
 10
-77.514038
 20
-321.21741
 11
-90.525269
 21
-315.828
  0
LINE
  8
0
  6
CONTINUOUS
 62
     7
 10
-64.502823
 20
-315.82797
 11
-77.514046
 21
-321.21741
  0
LINE
  8
0
  6
CONTINUOUS
 62
     7
 10
-59.113369
 20
-302.81674
 11
-64.502792
 21
-315.82797
  0
LINE
  8
0
  6
CENTER
 62
     7
 10
-77.51403
 20
-247.81619
 11
-77.51403
 21
-358.13074
  0
LINE
  8
0
  6
CONTINUOUS
 62
     7
 10
-49.077503
 20
-26.554365
 11
-45.677509
 21
-26.554365
  0
LINE
  8
0
  6
CONTINUOUS
 62
     7
 10
-79.177513
 20
37.137402
 11
-70.177513
 21
37.137402
  0
LINE
  8
0
  6
CONTINUOUS
 62
     7
 10
-79.177513
 20
-10.362597
 11
-79.177513
 21
37.137402
  0
LINE
  8
0
  6
CONTINUOUS
 62
     7
 10
-68.177513
 20
-10.362597
 11
-68.177513
 21
35.137402
  0
LINE
  8
0
  6
CONTINUOUS
 62
     7
 10
-49.077503
 20
6.6373987
 11
-49.077503
 21
-10.362597
  0
LINE
  8
0
  6
CONTINUOUS
 62
     7
 10
-65.177513
 20
7.1373987
 11
-49.577503
 21
7.1373987
  0
LINE
  8
0
  6
CONTINUOUS
 62
     7
 10
-49.577503
 20
-10.362597
 11
-49.577503
 21
7.1373987
  0
LINE
  8
0
  6
CONTINUOUS
 62
     7
 10
-49.577503
 20
7.1374002
 11
-49.077515
 21
6.6374106
  0
LINE
  8
0
  6
CONTINUOUS
 62
     7
 10
-37.177509
 20
-10.362597
 11
-37.177509
 21
6.6374025
  0
LINE
  8
0
  6
CONTINUOUS
 62
     7
 10
-45.177509
 20
-4.5636091
 11
-37.177509
 21
-4.5636091
  0
LINE
  8
0
  6
CONTINUOUS
 62
     7
 10
-45.177509
 20
-4.5636091
 11
-45.177509
 21
-2.4422905
  0
LINE
  8
0
  6
CONTINUOUS
 62
     7
 10
-45.177509
 20
5.7587214
 11
-45.177509
 21
6.6374025
  0
LINE
  8
0
  6
CONTINUOUS
 62
     7
 10
-45.177509
 20
5.7587214
 11
-37.177509
 21
5.7587214
  0
LINE
  8
0
  6
CONTINUOUS
 62
     7
 10
-45.177509
 20
6.6374025
 11
-37.177509
 21
6.6374025
  0
LINE
  8
0
  6
CONTINUOUS
 62
     7
 10
-45.177509
 20
6.6373916
 11
-45.677509
 21
6.1373911
  0
LINE
  8
0
  6
CONTINUOUS
 62
     7
 10
-45.177509
 20
-2.4422905
 11
-37.177509
 21
-2.4422905
  0
LINE
  8
0
  6
CONTINUOUS
 62
     7
 10
-45.677509
 20
-10.362597
 11
-45.677509
 21
6.1374025
  0
LINE
  8
0
  6
CONTINUOUS
 62
     7
 10
-49.077503
 20
5.8291712
 11
-45.677509
 21
5.8291712
  0
LINE
  8
0
  6
CENTER
 62
     7
 10
-85.122452
 20
-45.362606
 11
-62.864666
 21
-45.362606
  0
LINE
  8
0
  6
CENTER
 62
     7
 10
-425.552
 20
56.199329
 11
-377.8042
 21
56.199329
  0
LINE
  8
0
  6
CONTINUOUS
 62
     7
 10
-383.10095
 20
56.199326
 11
-388.49039
 21
69.210556
  0
LINE
  8
0
  6
CONTINUOUS
 62
     7
 10
-388.49039
 20
69.210571
 11
-401.50162
 21
74.599998
  0
LINE
  8
0
  6
CONTINUOUS
 62
     7
 10
-414.51285
 20
69.210564
 11
-401.50165
 21
74.599991
  0
LINE
  8
0
  6
CONTINUOUS
 62
     7
 10
-419.90228
 20
56.199326
 11
-414.51285
 21
69.210564
  0
LINE
  8
0
  6
CONTINUOUS
 62
     7
 10
-414.51288
 20
43.188091
 11
-419.90228
 21
56.199318
  0
LINE
  8
0
  6
CONTINUOUS
 62
     7
 10
-401.50162
 20
37.798664
 11
-414.51285
 21
43.188091
  0
LINE
  8
0
  6
CONTINUOUS
 62
     7
 10
-388.49039
 20
43.188084
 11
-401.50162
 21
37.798656
  0
LINE
  8
0
  6
CONTINUOUS
 62
     7
 10
-383.10095
 20
56.199326
 11
-388.49039
 21
43.188091
  0
LINE
  8
0
  6
CENTER
 62
     7
 10
-401.50162
 20
78.522614
 11
-401.50162
 21
35.072231
  0
LINE
  8
0
  6
CONTINUOUS
 62
     7
 10
-169.41402
 20
-319.10352
 11
-166.01402
 21
-319.10352
  0
LINE
  8
0
  6
CONTINUOUS
 62
     7
 10
-200.51402
 20
-302.81674
 11
-200.51402
 21
-274.81674
  0
LINE
  8
0
  6
CONTINUOUS
 62
     7
 10
-199.51402
 20
-302.81674
 11
-199.51402
 21
-252.81674
  0
LINE
  8
0
  6
CONTINUOUS
 62
     7
 10
-169.41402
 20
-285.81674
 11
-169.41402
 21
-302.81674
  0
LINE
  8
0
  6
CONTINUOUS
 62
     7
 10
-183.51402
 20
-285.31674
 11
-169.91402
 21
-285.31674
  0
LINE
  8
0
  6
CONTINUOUS
 62
     7
 10
-199.51402
 20
-252.81674
 11
-188.51402
 21
-252.81674
  0
LINE
  8
0
  6
CONTINUOUS
 62
     7
 10
-186.51402
 20
-302.81674
 11
-186.51402
 21
-254.81674
  0
LINE
  8
0
  6
CONTINUOUS
 62
     7
 10
-169.91403
 20
-285.31674
 11
-169.41402
 21
-285.81674
  0
LINE
  8
0
  6
CONTINUOUS
 62
     7
 10
-152.51402
 20
-302.81674
 11
-152.51402
 21
-290.81674
  0
LINE
  8
0
  6
CONTINUOUS
 62
     7
 10
-157.51402
 20
-302.81674
 11
-157.51402
 21
-285.81674
  0
LINE
  8
0
  6
CONTINUOUS
 62
     7
 10
-165.51402
 20
-297.01776
 11
-157.51402
 21
-297.01776
  0
LINE
  8
0
  6
CONTINUOUS
 62
     7
 10
-165.51402
 20
-297.01776
 11
-165.51402
 21
-294.89642
  0
LINE
  8
0
  6
CONTINUOUS
 62
     7
 10
-165.51402
 20
-286.69543
 11
-165.51402
 21
-285.81674
  0
LINE
  8
0
  6
CONTINUOUS
 62
     7
 10
-165.51402
 20
-286.69543
 11
-157.51402
 21
-286.69543
  0
LINE
  8
0
  6
CONTINUOUS
 62
     7
 10
-165.51402
 20
-285.81674
 11
-157.51402
 21
-285.81674
  0
LINE
  8
0
  6
CONTINUOUS
 62
     7
 10
-165.51402
 20
-285.81671
 11
-166.01404
 21
-286.31674
  0
LINE
  8
0
  6
CONTINUOUS
 62
     7
 10
-165.51402
 20
-294.89642
 11
-157.51402
 21
-294.89642
  0
LINE
  8
0
  6
CONTINUOUS
 62
     7
 10
-166.01402
 20
-302.81674
 11
-166.01402
 21
-286.31674
  0
LINE
  8
0
  6
CONTINUOUS
 62
     7
 10
-169.41402
 20
-286.52994
 11
-166.01402
 21
-286.52994
  0
LINE
  8
0
  6
CENTER
 62
     7
 10
-203.77048
 20
-340.31674
 11
-182.52846
 21
-340.31674
  0
LINE
  8
0
  6
CONTINUOUS
 62
     7
 10
-183.16245
 20
-636.62518
 11
-179.66245
 21
-636.62518
  0
LINE
  8
0
  6
CONTINUOUS
 62
     7
 10
-217.16245
 20
-615.94757
 11
-217.16245
 21
-582.44757
  0
LINE
  8
0
  6
CONTINUOUS
 62
     7
 10
-205.16245
 20
-553.44757
 11
-216.16245
 21
-553.44757
  0
LINE
  8
0
  6
CONTINUOUS
 62
     7
 10
-216.16245
 20
-615.94757
 11
-216.16245
 21
-553.44757
  0
LINE
  8
0
  6
CONTINUOUS
 62
     7
 10
-203.16245
 20
-615.94757
 11
-203.16245
 21
-555.44757
  0
LINE
  8
0
  6
CONTINUOUS
 62
     7
 10
-183.16245
 20
-615.94757
 11
-183.16245
 21
-593.44757
  0
LINE
  8
0
  6
CONTINUOUS
 62
     7
 10
-200.16245
 20
-592.94757
 11
-183.66245
 21
-592.94757
  0
LINE
  8
0
  6
CONTINUOUS
 62
     7
 10
-183.66243
 20
-592.94757
 11
-183.16241
 21
-593.44757
  0
LINE
  8
0
  6
CONTINUOUS
 62
     7
 10
-179.16245
 20
-596.05438
 11
-170.16245
 21
-596.05438
  0
LINE
  8
0
  6
CONTINUOUS
 62
     7
 10
-179.66245
 20
-594.94757
 11
-179.16241
 21
-594.44757
  0
LINE
  8
0
  6
CONTINUOUS
 62
     7
 10
-179.16245
 20
-596.05438
 11
-179.16245
 21
-594.44757
  0
LINE
  8
0
  6
CONTINUOUS
 62
     7
 10
-179.16245
 20
-609.31433
 11
-179.16245
 21
-605.43524
  0
LINE
  8
0
  6
CONTINUOUS
 62
     7
 10
-179.16245
 20
-594.44757
 11
-170.16245
 21
-594.44757
  0
LINE
  8
0
  6
CONTINUOUS
 62
     7
 10
-165.16245
 20
-615.94757
 11
-165.16245
 21
-599.44757
  0
LINE
  8
0
  6
CONTINUOUS
 62
     7
 10
-170.16245
 20
-615.94757
 11
-170.16245
 21
-594.44757
  0
LINE
  8
0
  6
CONTINUOUS
 62
     7
 10
-179.16245
 20
-605.43524
 11
-170.16245
 21
-605.43524
  0
LINE
  8
0
  6
CONTINUOUS
 62
     7
 10
-179.16245
 20
-609.31433
 11
-170.16245
 21
-609.31433
  0
LINE
  8
0
  6
CONTINUOUS
 62
     7
 10
-179.66245
 20
-615.94757
 11
-179.66245
 21
-594.94757
  0
LINE
  8
0
  6
CONTINUOUS
 62
     7
 10
-183.16245
 20
-595.27002
 11
-179.66245
 21
-595.27002
  0
LINE
  8
0
  6
CENTER
 62
     7
 10
-221.35104
 20
-660.94763
 11
-200.95508
 21
-660.94763
  0
LINE
  8
0
  6
CONTINUOUS
 62
     7
 10
-195.26079
 20
-961.55127
 11
-191.66078
 21
-961.55127
  0
LINE
  8
0
  6
CONTINUOUS
 62
     7
 10
-231.7608
 20
-937.77655
 11
-231.7608
 21
-904.27655
  0
LINE
  8
0
  6
CONTINUOUS
 62
     7
 10
-219.7608
 20
-875.27655
 11
-230.7608
 21
-875.27655
  0
LINE
  8
0
  6
CONTINUOUS
 62
     7
 10
-230.7608
 20
-937.77655
 11
-230.7608
 21
-875.27655
  0
LINE
  8
0
  6
CONTINUOUS
 62
     7
 10
-217.7608
 20
-937.77655
 11
-217.7608
 21
-877.27655
  0
LINE
  8
0
  6
CONTINUOUS
 62
     7
 10
-195.76079
 20
-912.27655
 11
-214.7608
 21
-912.27655
  0
LINE
  8
0
  6
CONTINUOUS
 62
     7
 10
-195.26079
 20
-937.77655
 11
-195.26079
 21
-912.77655
  0
LINE
  8
0
  6
CONTINUOUS
 62
     7
 10
-195.76079
 20
-912.27655
 11
-195.2608
 21
-912.77649
  0
LINE
  8
0
  6
CONTINUOUS
 62
     7
 10
-191.16078
 20
-914.29816
 11
-191.16078
 21
-913.27655
  0
LINE
  8
0
  6
CONTINUOUS
 62
     7
 10
-191.16078
 20
-914.29816
 11
-180.76079
 21
-914.29816
  0
LINE
  8
0
  6
CONTINUOUS
 62
     7
 10
-191.16078
 20
-929.07306
 11
-180.76079
 21
-929.07306
  0
LINE
  8
0
  6
CONTINUOUS
 62
     7
 10
-191.16078
 20
-929.07306
 11
-191.16078
 21
-926.60669
  0
LINE
  8
0
  6
CONTINUOUS
 62
     7
 10
-175.76079
 20
-937.77655
 11
-175.76079
 21
-918.27655
  0
LINE
  8
0
  6
CONTINUOUS
 62
     7
 10
-191.66083
 20
-913.77655
 11
-191.16084
 21
-913.27655
  0
LINE
  8
0
  6
CONTINUOUS
 62
     7
 10
-191.16078
 20
-913.27655
 11
-180.76079
 21
-913.27655
  0
LINE
  8
0
  6
CONTINUOUS
 62
     7
 10
-180.76079
 20
-937.77655
 11
-180.76079
 21
-913.27655
  0
LINE
  8
0
  6
CONTINUOUS
 62
     7
 10
-191.16078
 20
-926.60669
 11
-180.76079
 21
-926.60669
  0
LINE
  8
0
  6
CONTINUOUS
 62
     7
 10
-191.66078
 20
-937.77655
 11
-191.66078
 21
-913.77655
  0
LINE
  8
0
  6
CONTINUOUS
 62
     7
 10
-195.26079
 20
-914.00177
 11
-191.66078
 21
-914.00177
  0
LINE
  8
0
  6
CONTINUOUS
 62
     7
 10
-208.30791
 20
-1257.0699
 11
-204.7079
 21
-1257.0699
  0
LINE
  8
0
  6
CONTINUOUS
 62
     7
 10
-244.80791
 20
-1233.5112
 11
-244.80791
 21
-1195.5112
  0
LINE
  8
0
  6
CONTINUOUS
 62
     7
 10
-242.80791
 20
-1166.0112
 11
-231.80791
 21
-1166.0112
  0
LINE
  8
0
  6
CONTINUOUS
 62
     7
 10
-242.80791
 20
-1233.5112
 11
-242.80791
 21
-1166.0112
  0
LINE
  8
0
  6
CONTINUOUS
 62
     7
 10
-228.80791
 20
-1233.5112
 11
-228.80791
 21
-1169.0112
  0
LINE
  8
0
  6
CONTINUOUS
 62
     7
 10
-208.80791
 20
-1208.0112
 11
-225.80791
 21
-1208.0112
  0
LINE
  8
0
  6
CONTINUOUS
 62
     7
 10
-208.30791
 20
-1233.5112
 11
-208.30791
 21
-1208.5112
  0
LINE
  8
0
  6
CONTINUOUS
 62
     7
 10
-208.80789
 20
-1208.0112
 11
-208.30791
 21
-1208.5112
  0
LINE
  8
0
  6
CONTINUOUS
 62
     7
 10
-204.2079
 20
-1210.0328
 11
-204.2079
 21
-1209.0112
  0
LINE
  8
0
  6
CONTINUOUS
 62
     7
 10
-204.2079
 20
-1210.0328
 11
-193.80791
 21
-1210.0328
  0
LINE
  8
0
  6
CONTINUOUS
 62
     7
 10
-204.2079
 20
-1224.8077
 11
-204.2079
 21
-1222.3414
  0
LINE
  8
0
  6
CONTINUOUS
 62
     7
 10
-204.2079
 20
-1224.8077
 11
-193.80791
 21
-1224.8077
  0
LINE
  8
0
  6
CONTINUOUS
 62
     7
 10
-188.80791
 20
-1233.5112
 11
-188.80791
 21
-1214.0112
  0
LINE
  8
0
  6
CONTINUOUS
 62
     7
 10
-204.7079
 20
-1209.5112
 11
-204.2079
 21
-1209.0112
  0
LINE
  8
0
  6
CONTINUOUS
 62
     7
 10
-204.2079
 20
-1209.0112
 11
-193.80791
 21
-1209.0112
  0
LINE
  8
0
  6
CONTINUOUS
 62
     7
 10
-193.80791
 20
-1233.5112
 11
-193.80791
 21
-1209.0112
  0
LINE
  8
0
  6
CONTINUOUS
 62
     7
 10
-204.2079
 20
-1222.3414
 11
-193.80791
 21
-1222.3414
  0
LINE
  8
0
  6
CONTINUOUS
 62
     7
 10
-204.7079
 20
-1233.5112
 11
-204.7079
 21
-1209.5112
  0
LINE
  8
0
  6
CONTINUOUS
 62
     7
 10
-208.30791
 20
-1209.9525
 11
-204.7079
 21
-1209.9525
  0
LINE
  8
0
  6
CENTER
 62
     7
 10
-247.97005
 20
-1283.5112
 11
-226.61238
 21
-1283.5112
  0
LINE
  8
0
  6
CENTER
 62
     7
 10
-235.94939
 20
-982.77655
 11
-215.55344
 21
-982.77655
  0
LINE
  8
0
  6
CONTINUOUS
 62
     7
 10
-213.18048
 20
-1572.1804
 11
-209.58047
 21
-1572.1804
  0
LINE
  8
0
  6
CONTINUOUS
 62
     7
 10
232.75227
 20
-39.865505
 11
236.35228
 21
-39.865505
  0
LINE
  8
0
  6
CONTINUOUS
 62
     7
 10
218.01991
 20
-346.2457
 11
222.01991
 21
-346.2457
  0
LINE
  8
0
  6
CONTINUOUS
 62
     7
 10
181.01991
 20
-313.04822
 11
181.01991
 21
-272.54822
  0
LINE
  8
0
  6
CONTINUOUS
 62
     7
 10
183.01991
 20
-313.04822
 11
183.01991
 21
-243.04822
  0
LINE
  8
0
  6
CONTINUOUS
 62
     7
 10
197.01991
 20
-313.04822
 11
197.01991
 21
-246.04822
  0
LINE
  8
0
  6
CONTINUOUS
 62
     7
 10
183.01991
 20
-243.04822
 11
194.01991
 21
-243.04822
  0
LINE
  8
0
  6
CONTINUOUS
 62
     7
 10
218.01991
 20
-279.54822
 11
218.01991
 21
-313.04822
  0
LINE
  8
0
  6
CONTINUOUS
 62
     7
 10
200.01991
 20
-279.04822
 11
217.51991
 21
-279.04822
  0
LINE
  8
0
  6
CONTINUOUS
 62
     7
 10
217.51988
 20
-279.04822
 11
218.01987
 21
-279.54822
  0
LINE
  8
0
  6
CONTINUOUS
 62
     7
 10
222.51987
 20
-279.04822
 11
222.01988
 21
-279.54822
  0
LINE
  8
0
  6
CONTINUOUS
 62
     7
 10
222.51991
 20
-281.78683
 11
222.51991
 21
-279.04822
  0
LINE
  8
0
  6
CONTINUOUS
 62
     7
 10
222.51991
 20
-279.04822
 11
234.01988
 21
-279.04822
  0
LINE
  8
0
  6
CONTINUOUS
 62
     7
 10
222.51991
 20
-281.78683
 11
234.01988
 21
-281.78683
  0
LINE
  8
0
  6
CONTINUOUS
 62
     7
 10
242.01988
 20
-313.04822
 11
242.01988
 21
-287.04822
  0
LINE
  8
0
  6
CONTINUOUS
 62
     7
 10
222.51991
 20
-302.83792
 11
222.51991
 21
-296.22635
  0
LINE
  8
0
  6
CONTINUOUS
 62
     7
 10
222.51991
 20
-296.22635
 11
234.01988
 21
-296.22635
  0
LINE
  8
0
  6
CONTINUOUS
 62
     7
 10
234.01988
 20
-313.04822
 11
234.01988
 21
-279.04822
  0
LINE
  8
0
  6
CONTINUOUS
 62
     7
 10
222.51991
 20
-302.83792
 11
234.01988
 21
-302.83792
  0
LINE
  8
0
  6
CONTINUOUS
 62
     7
 10
222.01991
 20
-313.04822
 11
222.01991
 21
-279.54822
  0
LINE
  8
0
  6
CONTINUOUS
 62
     7
 10
218.01991
 20
-279.85074
 11
222.01991
 21
-279.85074
  0
LINE
  8
0
  6
CONTINUOUS
 62
     7
 10
196.2523
 20
-11.348905
 11
196.2523
 21
29.151094
  0
LINE
  8
0
  6
CONTINUOUS
 62
     7
 10
198.2523
 20
-11.348905
 11
198.2523
 21
58.651096
  0
LINE
  8
0
  6
CONTINUOUS
 62
     7
 10
232.25229
 20
19.151098
 11
232.75229
 21
18.651096
  0
LINE
  8
0
  6
CONTINUOUS
 62
     7
 10
215.2523
 20
19.151094
 11
232.25227
 21
19.151094
  0
LINE
  8
0
  6
CONTINUOUS
 62
     7
 10
212.2523
 20
-11.348905
 11
212.2523
 21
55.651096
  0
LINE
  8
0
  6
CONTINUOUS
 62
     7
 10
232.75227
 20
18.651094
 11
232.75227
 21
-11.348905
  0
LINE
  8
0
  6
CONTINUOUS
 62
     7
 10
198.2523
 20
58.651096
 11
209.2523
 21
58.651096
  0
LINE
  8
0
  6
CONTINUOUS
 62
     7
 10
236.85228
 20
-1.8226295
 11
248.2523
 21
-1.8226295
  0
LINE
  8
0
  6
CONTINUOUS
 62
     7
 10
248.2523
 20
-11.348905
 11
248.2523
 21
18.151094
  0
LINE
  8
0
  6
CONTINUOUS
 62
     7
 10
236.35229
 20
17.651085
 11
236.85229
 21
18.151096
  0
LINE
  8
0
  6
CONTINUOUS
 62
     7
 10
236.85228
 20
16.246828
 11
248.2523
 21
16.246828
  0
LINE
  8
0
  6
CONTINUOUS
 62
     7
 10
236.85228
 20
2.7746301
 11
248.2523
 21
2.7746301
  0
LINE
  8
0
  6
CONTINUOUS
 62
     7
 10
236.85228
 20
18.151094
 11
248.2523
 21
18.151094
  0
LINE
  8
0
  6
CONTINUOUS
 62
     7
 10
254.2523
 20
-11.348905
 11
254.2523
 21
12.151095
  0
LINE
  8
0
  6
CONTINUOUS
 62
     7
 10
236.85228
 20
-1.8226295
 11
236.85228
 21
2.7746301
  0
LINE
  8
0
  6
CONTINUOUS
 62
     7
 10
236.85228
 20
16.246828
 11
236.85228
 21
18.151094
  0
LINE
  8
0
  6
CONTINUOUS
 62
     7
 10
236.35228
 20
-11.348905
 11
236.35228
 21
17.651094
  0
LINE
  8
0
  6
CONTINUOUS
 62
     7
 10
232.75227
 20
17.167696
 11
236.35228
 21
17.167696
  0
LINE
  8
0
  6
CONTINUOUS
 62
     7
 10
-249.68047
 20
-1543.6638
 11
-249.68047
 21
-1505.6638
  0
LINE
  8
0
  6
CONTINUOUS
 62
     7
 10
-247.68047
 20
-1476.1638
 11
-236.68047
 21
-1476.1638
  0
LINE
  8
0
  6
CONTINUOUS
 62
     7
 10
-247.68047
 20
-1543.6638
 11
-247.68047
 21
-1476.1638
  0
LINE
  8
0
  6
CONTINUOUS
 62
     7
 10
-233.68047
 20
-1543.6638
 11
-233.68047
 21
-1479.1638
  0
LINE
  8
0
  6
CONTINUOUS
 62
     7
 10
-213.68045
 20
-1513.1638
 11
-213.18047
 21
-1513.6638
  0
LINE
  8
0
  6
CONTINUOUS
 62
     7
 10
-230.68047
 20
-1513.1638
 11
-213.68048
 21
-1513.1638
  0
LINE
  8
0
  6
CONTINUOUS
 62
     7
 10
-213.18048
 20
-1513.6638
 11
-213.18048
 21
-1543.6638
  0
LINE
  8
0
  6
CONTINUOUS
 62
     7
 10
-209.08047
 20
-1534.1376
 11
-197.68045
 21
-1534.1376
  0
LINE
  8
0
  6
CONTINUOUS
 62
     7
 10
-197.68045
 20
-1543.6638
 11
-197.68045
 21
-1514.1638
  0
LINE
  8
0
  6
CONTINUOUS
 62
     7
 10
-209.5804
 20
-1514.6638
 11
-209.08046
 21
-1514.1638
  0
LINE
  8
0
  6
CONTINUOUS
 62
     7
 10
-209.08047
 20
-1516.0681
 11
-197.68045
 21
-1516.0681
  0
LINE
  8
0
  6
CONTINUOUS
 62
     7
 10
-209.08047
 20
-1529.5403
 11
-197.68045
 21
-1529.5403
  0
LINE
  8
0
  6
CONTINUOUS
 62
     7
 10
-209.08047
 20
-1514.1638
 11
-197.68045
 21
-1514.1638
  0
LINE
  8
0
  6
CONTINUOUS
 62
     7
 10
-191.68045
 20
-1543.6638
 11
-191.68045
 21
-1520.1638
  0
LINE
  8
0
  6
CONTINUOUS
 62
     7
 10
-209.08047
 20
-1534.1376
 11
-209.08047
 21
-1529.5403
  0
LINE
  8
0
  6
CONTINUOUS
 62
     7
 10
-209.08047
 20
-1516.0681
 11
-209.08047
 21
-1514.1638
  0
LINE
  8
0
  6
CONTINUOUS
 62
     7
 10
-209.58047
 20
-1543.6638
 11
-209.58047
 21
-1514.6638
  0
LINE
  8
0
  6
CONTINUOUS
 62
     7
 10
-213.18048
 20
-1515.1472
 11
-209.58047
 21
-1515.1472
  0
LINE
  8
0
  6
CONTINUOUS
 62
     7
 10
218.01988
 20
-660.79474
 11
222.01988
 21
-660.79474
  0
LINE
  8
0
  6
CONTINUOUS
 62
     7
 10
214.3734
 20
-974.94196
 11
217.8734
 21
-974.94196
  0
LINE
  8
0
  6
CONTINUOUS
 62
     7
 10
217.01988
 20
-1274.147
 11
220.51988
 21
-1274.147
  0
LINE
  8
0
  6
CONTINUOUS
 62
     7
 10
181.01988
 20
-627.97998
 11
181.01988
 21
-579.97998
  0
LINE
  8
0
  6
CONTINUOUS
 62
     7
 10
183.01988
 20
-627.97998
 11
183.01988
 21
-550.47998
  0
LINE
  8
0
  6
CONTINUOUS
 62
     7
 10
197.01988
 20
-627.97998
 11
197.01988
 21
-553.47998
  0
LINE
  8
0
  6
CONTINUOUS
 62
     7
 10
183.01988
 20
-550.47998
 11
194.01988
 21
-550.47998
  0
LINE
  8
0
  6
CONTINUOUS
 62
     7
 10
218.01988
 20
-594.47998
 11
218.01988
 21
-627.97998
  0
LINE
  8
0
  6
CONTINUOUS
 62
     7
 10
200.01988
 20
-593.97998
 11
217.51988
 21
-593.97998
  0
LINE
  8
0
  6
CONTINUOUS
 62
     7
 10
217.51984
 20
-593.97998
 11
218.01987
 21
-594.47998
  0
LINE
  8
0
  6
CONTINUOUS
 62
     7
 10
222.51987
 20
-593.97992
 11
222.01988
 21
-594.47992
  0
LINE
  8
0
  6
CONTINUOUS
 62
     7
 10
222.51988
 20
-596.71857
 11
222.51988
 21
-593.97998
  0
LINE
  8
0
  6
CONTINUOUS
 62
     7
 10
222.51988
 20
-593.97998
 11
234.01988
 21
-593.97998
  0
LINE
  8
0
  6
CONTINUOUS
 62
     7
 10
222.51988
 20
-596.71857
 11
234.01988
 21
-596.71857
  0
LINE
  8
0
  6
CONTINUOUS
 62
     7
 10
242.01988
 20
-627.97998
 11
242.01988
 21
-601.97998
  0
LINE
  8
0
  6
CONTINUOUS
 62
     7
 10
222.51988
 20
-617.76965
 11
222.51988
 21
-611.15808
  0
LINE
  8
0
  6
CONTINUOUS
 62
     7
 10
222.51988
 20
-611.15808
 11
234.01988
 21
-611.15808
  0
LINE
  8
0
  6
CONTINUOUS
 62
     7
 10
234.01988
 20
-627.97998
 11
234.01988
 21
-593.97998
  0
LINE
  8
0
  6
CONTINUOUS
 62
     7
 10
222.51988
 20
-617.76965
 11
234.01988
 21
-617.76965
  0
LINE
  8
0
  6
CONTINUOUS
 62
     7
 10
222.01988
 20
-627.97998
 11
222.01988
 21
-594.47998
  0
LINE
  8
0
  6
CONTINUOUS
 62
     7
 10
218.01988
 20
-595.16516
 11
222.01988
 21
-595.16516
  0
LINE
  8
0
  6
CONTINUOUS
 62
     7
 10
175.3734
 20
-934.97223
 11
175.3734
 21
-886.97223
  0
LINE
  8
0
  6
CONTINUOUS
 62
     7
 10
177.3734
 20
-934.97223
 11
177.3734
 21
-857.47223
  0
LINE
  8
0
  6
CONTINUOUS
 62
     7
 10
191.3734
 20
-934.97223
 11
191.3734
 21
-860.47223
  0
LINE
  8
0
  6
CONTINUOUS
 62
     7
 10
177.3734
 20
-857.47223
 11
188.3734
 21
-857.47223
  0
LINE
  8
0
  6
CONTINUOUS
 62
     7
 10
214.3734
 20
-894.47223
 11
214.3734
 21
-934.97223
  0
LINE
  8
0
  6
CONTINUOUS
 62
     7
 10
194.3734
 20
-893.97223
 11
213.8734
 21
-893.97223
  0
LINE
  8
0
  6
CONTINUOUS
 62
     7
 10
213.8734
 20
-893.97223
 11
214.37338
 21
-894.47223
  0
LINE
  8
0
  6
CONTINUOUS
 62
     7
 10
218.3734
 20
-893.97223
 11
233.3734
 21
-893.97223
  0
LINE
  8
0
  6
CONTINUOUS
 62
     7
 10
218.3734
 20
-893.97223
 11
217.87337
 21
-894.47229
  0
LINE
  8
0
  6
CONTINUOUS
 62
     7
 10
218.3734
 20
-896.81567
 11
218.3734
 21
-893.97223
  0
LINE
  8
0
  6
CONTINUOUS
 62
     7
 10
241.3734
 20
-934.97223
 11
241.3734
 21
-901.97223
  0
LINE
  8
0
  6
CONTINUOUS
 62
     7
 10
218.3734
 20
-896.81567
 11
233.3734
 21
-896.81567
  0
LINE
  8
0
  6
CONTINUOUS
 62
     7
 10
218.3734
 20
-922.01074
 11
233.3734
 21
-922.01074
  0
LINE
  8
0
  6
CONTINUOUS
 62
     7
 10
233.3734
 20
-934.97223
 11
233.3734
 21
-893.97223
  0
LINE
  8
0
  6
CONTINUOUS
 62
     7
 10
218.3734
 20
-915.146
 11
233.3734
 21
-915.146
  0
LINE
  8
0
  6
CONTINUOUS
 62
     7
 10
218.3734
 20
-922.01074
 11
218.3734
 21
-915.146
  0
LINE
  8
0
  6
CONTINUOUS
 62
     7
 10
217.8734
 20
-934.97223
 11
217.8734
 21
-894.47223
  0
LINE
  8
0
  6
CONTINUOUS
 62
     7
 10
214.3734
 20
-895.00256
 11
217.8734
 21
-895.00256
  0
LINE
  8
0
  6
CONTINUOUS
 62
     7
 10
178.01988
 20
-1234.025
 11
178.01988
 21
-1176.025
  0
LINE
  8
0
  6
CONTINUOUS
 62
     7
 10
180.01988
 20
-1234.025
 11
180.01988
 21
-1146.525
  0
LINE
  8
0
  6
CONTINUOUS
 62
     7
 10
196.01988
 20
-1234.025
 11
196.01988
 21
-1149.525
  0
LINE
  8
0
  6
CONTINUOUS
 62
     7
 10
180.01988
 20
-1146.525
 11
193.01988
 21
-1146.525
  0
LINE
  8
0
  6
CONTINUOUS
 62
     7
 10
217.01988
 20
-1193.525
 11
217.01988
 21
-1234.025
  0
LINE
  8
0
  6
CONTINUOUS
 62
     7
 10
199.01988
 20
-1193.025
 11
216.51988
 21
-1193.025
  0
LINE
  8
0
  6
CONTINUOUS
 62
     7
 10
216.51985
 20
-1193.025
 11
217.01988
 21
-1193.5251
  0
LINE
  8
0
  6
CONTINUOUS
 62
     7
 10
221.01988
 20
-1193.025
 11
236.01988
 21
-1193.025
  0
LINE
  8
0
  6
CONTINUOUS
 62
     7
 10
221.0199
 20
-1193.025
 11
220.51987
 21
-1193.525
  0
LINE
  8
0
  6
CONTINUOUS
 62
     7
 10
221.01988
 20
-1195.8685
 11
221.01988
 21
-1193.025
  0
LINE
  8
0
  6
CONTINUOUS
 62
     7
 10
244.01988
 20
-1234.025
 11
244.01988
 21
-1201.025
  0
LINE
  8
0
  6
CONTINUOUS
 62
     7
 10
221.01988
 20
-1195.8685
 11
236.01988
 21
-1195.8685
  0
LINE
  8
0
  6
CONTINUOUS
 62
     7
 10
221.01988
 20
-1221.0636
 11
236.01988
 21
-1221.0636
  0
LINE
  8
0
  6
CONTINUOUS
 62
     7
 10
236.01988
 20
-1234.025
 11
236.01988
 21
-1193.025
  0
LINE
  8
0
  6
CONTINUOUS
 62
     7
 10
221.01988
 20
-1214.1989
 11
236.01988
 21
-1214.1989
  0
LINE
  8
0
  6
CONTINUOUS
 62
     7
 10
221.01988
 20
-1221.0636
 11
221.01988
 21
-1214.1989
  0
LINE
  8
0
  6
CONTINUOUS
 62
     7
 10
220.51988
 20
-1234.025
 11
220.51988
 21
-1193.525
  0
LINE
  8
0
  6
CONTINUOUS
 62
     7
 10
217.01988
 20
-1193.9031
 11
220.51988
 21
-1193.9031
  0
LINE
  8
0
  6
CENTER
 62
     7
 10
178.54588
 20
-1304.025
 11
197.26799
 21
-1304.025
  0
LINE
  8
0
  6
CENTER
 62
     7
 10
175.89937
 20
-994.97223
 11
193.56892
 21
-994.97223
  0
LINE
  8
0
  6
CENTER
 62
     7
 10
181.54587
 20
-687.97998
 11
199.21541
 21
-687.97998
  0
LINE
  8
0
  6
CENTER
 62
     7
 10
-252.84261
 20
-1593.6638
 11
-231.48494
 21
-1593.6638
  0
LINE
  8
0
  6
CENTER
 62
     7
 10
196.77827
 20
-63.848919
 11
214.44783
 21
-63.848919
  0
LINE
  8
0
  6
CENTER
 62
     7
 10
181.54588
 20
-365.54822
 11
199.21544
 21
-365.54822
  0
LINE
  8
0
  6
CENTER
 62
     7
 10
-430.80862
 20
5.3851457
 11
-372.54755
 21
5.3851457
  0
LINE
  8
0
  6
CONTINUOUS
 62
     7
 10
-378.23019
 20
5.3851414
 11
-385.04623
 21
21.840534
  0
LINE
  8
0
  6
CONTINUOUS
 62
     7
 10
-385.04623
 20
21.840532
 11
-401.50162
 21
28.656578
  0
LINE
  8
0
  6
CONTINUOUS
 62
     7
 10
-417.957
 20
21.840536
 11
-401.50162
 21
28.656582
  0
LINE
  8
0
  6
CONTINUOUS
 62
     7
 10
-424.77307
 20
5.3851485
 11
-417.957
 21
21.84054
  0
LINE
  8
0
  6
CONTINUOUS
 62
     7
 10
-417.957
 20
-11.070247
 11
-424.77307
 21
5.3851457
  0
LINE
  8
0
  6
CONTINUOUS
 62
     7
 10
-401.50162
 20
-17.886288
 11
-417.957
 21
-11.070242
  0
LINE
  8
0
  6
CONTINUOUS
 62
     7
 10
-385.04623
 20
-11.070237
 11
-401.50162
 21
-17.886284
  0
LINE
  8
0
  6
CONTINUOUS
 62
     7
 10
-378.23019
 20
5.3851528
 11
-385.04623
 21
-11.070239
  0
LINE
  8
0
  6
CENTER
 62
     7
 10
-401.50162
 20
31.209974
 11
-401.50162
 21
-20.447704
  0
LINE
  8
0
  6
CENTER
 62
     7
 10
-434.86905
 20
-50.685677
 11
-369.74557
 21
-50.685677
  0
LINE
  8
0
  6
CONTINUOUS
 62
     7
 10
-374.983
 20
-50.685677
 11
-382.75012
 21
-31.934185
  0
LINE
  8
0
  6
CONTINUOUS
 62
     7
 10
-382.75012
 20
-31.934193
 11
-401.50162
 21
-24.167067
  0
LINE
  8
0
  6
CONTINUOUS
 62
     7
 10
-420.25308
 20
-31.934187
 11
-401.50162
 21
-24.167074
  0
LINE
  8
0
  6
CONTINUOUS
 62
     7
 10
-428.02023
 20
-50.685665
 11
-420.25311
 21
-31.934177
  0
LINE
  8
0
  6
CONTINUOUS
 62
     7
 10
-420.25311
 20
-69.437164
 11
-428.02023
 21
-50.685673
  0
LINE
  8
0
  6
CONTINUOUS
 62
     7
 10
-401.50162
 20
-77.204292
 11
-420.25311
 21
-69.437164
  0
LINE
  8
0
  6
CONTINUOUS
 62
     7
 10
-382.75012
 20
-69.437172
 11
-401.50162
 21
-77.204285
  0
LINE
  8
0
  6
CONTINUOUS
 62
     7
 10
-374.98303
 20
-50.685665
 11
-382.75015
 21
-69.437149
  0
LINE
  8
0
  6
CENTER
 62
     7
 10
-401.50162
 20
-21.654659
 11
-401.50162
 21
-81.278244
  0
LINE
  8
0
  6
CENTER
 62
     7
 10
-152.12439
 20
-937.77655
 11
-5.155561
 21
-937.77655
  0
LINE
  8
0
  6
CONTINUOUS
 62
     7
 10
-50.412876
 20
-937.77649
 11
-58.179993
 21
-919.02502
  0
LINE
  8
0
  6
CONTINUOUS
 62
     7
 10
-58.179985
 20
-919.02502
 11
-76.931488
 21
-911.25793
  0
LINE
  8
0
  6
CONTINUOUS
 62
     7
 10
-95.682953
 20
-919.02502
 11
-76.93148
 21
-911.25793
  0
LINE
  8
0
  6
CONTINUOUS
 62
     7
 10
-103.45011
 20
-937.77655
 11
-95.682976
 21
-919.02502
  0
LINE
  8
0
  6
CONTINUOUS
 62
     7
 10
-95.682976
 20
-956.52802
 11
-103.45009
 21
-937.77649
  0
LINE
  8
0
  6
CONTINUOUS
 62
     7
 10
-76.931473
 20
-964.29517
 11
-95.682976
 21
-956.52802
  0
LINE
  8
0
  6
CONTINUOUS
 62
     7
 10
-58.179989
 20
-956.52802
 11
-76.931465
 21
-964.29517
  0
LINE
  8
0
  6
CONTINUOUS
 62
     7
 10
-50.412876
 20
-937.77649
 11
-58.180016
 21
-956.52802
  0
LINE
  8
0
  6
CENTER
 62
     7
 10
-76.931488
 20
-863.29315
 11
-76.931488
 21
-1011.1527
  0
LINE
  8
0
  6
CENTER
 62
     7
 10
293.23572
 20
-11.348905
 11
456.23752
 21
-11.348905
  0
LINE
  8
0
  6
CONTINUOUS
 62
     7
 10
405.77646
 20
-11.348903
 11
396.42422
 21
11.229418
  0
LINE
  8
0
  6
CONTINUOUS
 62
     7
 10
396.42419
 20
11.229416
 11
373.84589
 21
20.581663
  0
LINE
  8
0
  6
CONTINUOUS
 62
     7
 10
351.26758
 20
11.229419
 11
373.84589
 21
20.581665
  0
LINE
  8
0
  6
CONTINUOUS
 62
     7
 10
341.91531
 20
-11.348906
 11
351.26755
 21
11.229415
  0
LINE
  8
0
  6
CONTINUOUS
 62
     7
 10
351.26758
 20
-33.927227
 11
341.91531
 21
-11.348905
  0
LINE
  8
0
  6
CONTINUOUS
 62
     7
 10
373.84589
 20
-43.279476
 11
351.26755
 21
-33.927231
  0
LINE
  8
0
  6
CONTINUOUS
 62
     7
 10
396.42422
 20
-33.927227
 11
373.84589
 21
-43.279472
  0
LINE
  8
0
  6
CONTINUOUS
 62
     7
 10
405.77646
 20
-11.348907
 11
396.42419
 21
-33.927227
  0
LINE
  8
0
  6
CENTER
 62
     7
 10
373.84589
 20
68.308601
 11
373.84589
 21
-92.911758
  0
LINE
  8
0
  6
CENTER
 62
     7
 10
-437.92899
 20
-137.66437
 11
-365.00909
 21
-137.66437
  0
LINE
  8
0
  6
CONTINUOUS
 62
     7
 10
-369.57104
 20
-137.66437
 11
-378.92331
 21
-115.08604
  0
LINE
  8
0
  6
CONTINUOUS
 62
     7
 10
-378.92331
 20
-115.08604
 11
-401.50162
 21
-105.7338
  0
LINE
  8
0
  6
CONTINUOUS
 62
     7
 10
-424.07996
 20
-115.08604
 11
-401.50162
 21
-105.7338
  0
LINE
  8
0
  6
CONTINUOUS
 62
     7
 10
-433.43219
 20
-137.66437
 11
-424.07996
 21
-115.08604
  0
LINE
  8
0
  6
CONTINUOUS
 62
     7
 10
-424.07996
 20
-160.24269
 11
-433.43219
 21
-137.66437
  0
LINE
  8
0
  6
CONTINUOUS
 62
     7
 10
-401.50162
 20
-169.59494
 11
-424.07996
 21
-160.24269
  0
LINE
  8
0
  6
CONTINUOUS
 62
     7
 10
-378.92331
 20
-160.24269
 11
-401.50162
 21
-169.59494
  0
LINE
  8
0
  6
CONTINUOUS
 62
     7
 10
-369.57104
 20
-137.66437
 11
-378.92331
 21
-160.24269
  0
LINE
  8
0
  6
CENTER
 62
     7
 10
-401.50162
 20
-102.03787
 11
-401.50162
 21
-172.52405
  0
LINE
  8
0
  6
CENTER
 62
     7
 10
-448.31732
 20
-241.56189
 11
-358.51984
 21
-241.56189
  0
LINE
  8
0
  6
CONTINUOUS
 62
     7
 10
-364.70029
 20
-241.56189
 11
-375.47916
 21
-215.53941
  0
LINE
  8
0
  6
CONTINUOUS
 62
     7
 10
-375.47913
 20
-215.53943
 11
-401.50162
 21
-204.76056
  0
LINE
  8
0
  6
CONTINUOUS
 62
     7
 10
-427.52408
 20
-215.53941
 11
-401.50162
 21
-204.76056
  0
LINE
  8
0
  6
CONTINUOUS
 62
     7
 10
-438.30298
 20
-241.56189
 11
-427.52411
 21
-215.5394
  0
LINE
  8
0
  6
CONTINUOUS
 62
     7
 10
-427.52408
 20
-267.58435
 11
-438.30295
 21
-241.56189
  0
LINE
  8
0
  6
CONTINUOUS
 62
     7
 10
-401.50162
 20
-278.36322
 11
-427.52411
 21
-267.58438
  0
LINE
  8
0
  6
CONTINUOUS
 62
     7
 10
-375.47916
 20
-267.58435
 11
-401.50162
 21
-278.36322
  0
LINE
  8
0
  6
CONTINUOUS
 62
     7
 10
-364.70029
 20
-241.56187
 11
-375.47916
 21
-267.58435
  0
LINE
  8
0
  6
CENTER
 62
     7
 10
-401.50162
 20
-198.1115
 11
-401.50162
 21
-283.08115
  0
LINE
  8
0
  6
CENTER
 62
     7
 10
292.79034
 20
-313.04822
 11
455.79214
 21
-313.04822
  0
LINE
  8
0
  6
CONTINUOUS
 62
     7
 10
410.64725
 20
-313.04822
 11
399.86838
 21
-287.02573
  0
LINE
  8
0
  6
CONTINUOUS
 62
     7
 10
399.86838
 20
-287.02576
 11
373.84589
 21
-276.24689
  0
LINE
  8
0
  6
CONTINUOUS
 62
     7
 10
347.82343
 20
-287.02576
 11
373.84589
 21
-276.24689
  0
LINE
  8
0
  6
CONTINUOUS
 62
     7
 10
337.04456
 20
-313.04822
 11
347.82339
 21
-287.02573
  0
LINE
  8
0
  6
CONTINUOUS
 62
     7
 10
347.82343
 20
-339.07068
 11
337.04456
 21
-313.04822
  0
LINE
  8
0
  6
CONTINUOUS
 62
     7
 10
373.84589
 20
-349.84958
 11
347.82339
 21
-339.07071
  0
LINE
  8
0
  6
CONTINUOUS
 62
     7
 10
399.86835
 20
-339.07071
 11
373.84589
 21
-349.84955
  0
LINE
  8
0
  6
CONTINUOUS
 62
     7
 10
410.64722
 20
-313.04822
 11
399.86835
 21
-339.07068
  0
LINE
  8
0
  6
CENTER
 62
     7
 10
373.84589
 20
-232.75482
 11
373.84589
 21
-393.97519
  0
LINE
  8
0
  6
CENTER
 62
     7
 10
-450.48984
 20
-347.29117
 11
-351.5195
 21
-347.29117
  0
LINE
  8
0
  6
CONTINUOUS
 62
     7
 10
-357.12354
 20
-347.29117
 11
-370.12158
 21
-315.9111
  0
LINE
  8
0
  6
CONTINUOUS
 62
     7
 10
-370.12158
 20
-315.9111
 11
-401.50162
 21
-302.91306
  0
LINE
  8
0
  6
CONTINUOUS
 62
     7
 10
-432.88165
 20
-315.9111
 11
-401.50162
 21
-302.91309
  0
LINE
  8
0
  6
CONTINUOUS
 62
     7
 10
-445.8797
 20
-347.29114
 11
-432.88165
 21
-315.9111
  0
LINE
  8
0
  6
CONTINUOUS
 62
     7
 10
-432.88162
 20
-378.67117
 11
-445.87967
 21
-347.29114
  0
LINE
  8
0
  6
CONTINUOUS
 62
     7
 10
-401.50165
 20
-391.66925
 11
-432.88168
 21
-378.6712
  0
LINE
  8
0
  6
CONTINUOUS
 62
     7
 10
-370.12158
 20
-378.6712
 11
-401.50162
 21
-391.66925
  0
LINE
  8
0
  6
CONTINUOUS
 62
     7
 10
-357.12354
 20
-347.29114
 11
-370.12158
 21
-378.6712
  0
LINE
  8
0
  6
CENTER
 62
     7
 10
-401.50162
 20
-297.08182
 11
-401.50162
 21
-397.0177
  0
LINE
  8
0
  6
CENTER
 62
     7
 10
283.88315
 20
-934.97223
 11
462.02719
 21
-934.97223
  0
LINE
  8
0
  6
CONTINUOUS
 62
     7
 10
418.22397
 20
-934.97223
 11
405.22592
 21
-903.59216
  0
LINE
  8
0
  6
CONTINUOUS
 62
     7
 10
405.22592
 20
-903.59216
 11
373.84586
 21
-890.59412
  0
LINE
  8
0
  6
CONTINUOUS
 62
     7
 10
342.46585
 20
-903.59216
 11
373.84589
 21
-890.59418
  0
LINE
  8
0
  6
CONTINUOUS
 62
     7
 10
329.4678
 20
-934.97223
 11
342.46585
 21
-903.59222
  0
LINE
  8
0
  6
CONTINUOUS
 62
     7
 10
342.46585
 20
-966.35223
 11
329.4678
 21
-934.97217
  0
LINE
  8
0
  6
CONTINUOUS
 62
     7
 10
373.84586
 20
-979.35034
 11
342.46579
 21
-966.35229
  0
LINE
  8
0
  6
CONTINUOUS
 62
     7
 10
405.22592
 20
-966.35229
 11
373.84589
 21
-979.35028
  0
LINE
  8
0
  6
CONTINUOUS
 62
     7
 10
418.22397
 20
-934.97223
 11
405.22592
 21
-966.35229
  0
LINE
  8
0
  6
CENTER
 62
     7
 10
373.84589
 20
-841.11676
 11
373.84589
 21
-1025.4958
  0
LINE
  8
0
  6
CONTINUOUS
 62
     7
 10
-146.48285
 20
-10.362602
 11
-151.07971
 21
0.73521584
  0
LINE
  8
0
  6
CONTINUOUS
 62
     7
 10
-151.0797
 20
0.73522526
 11
-162.17752
 21
5.332098
  0
LINE
  8
0
  6
CONTINUOUS
 62
     7
 10
-173.27533
 20
0.73522192
 11
-162.17752
 21
5.3320827
  0
LINE
  8
0
  6
CONTINUOUS
 62
     7
 10
-177.87221
 20
-10.362597
 11
-173.27534
 21
0.73522729
  0
LINE
  8
0
  6
CONTINUOUS
 62
     7
 10
-173.27534
 20
-21.460423
 11
-177.87222
 21
-10.362604
  0
LINE
  8
0
  6
CONTINUOUS
 62
     7
 10
-162.17752
 20
-26.057287
 11
-173.27534
 21
-21.460415
  0
LINE
  8
0
  6
CONTINUOUS
 62
     7
 10
-151.0797
 20
-21.460426
 11
-162.17751
 21
-26.057287
  0
LINE
  8
0
  6
CONTINUOUS
 62
     7
 10
-146.48283
 20
-10.362593
 11
-151.0797
 21
-21.460417
  0
CIRCLE
  8
0
  6
CONTINUOUS
 62
     7
 10
-401.50162
 20
101.27591
 40
14.5
  0
CIRCLE
  8
0
  6
CONTINUOUS
 62
     7
 10
-401.50162
 20
101.27591
 40
8.0500002
  0
CIRCLE
  8
0
  6
CONTINUOUS
 62
     7
 10
32.822491
 20
-10.362597
 40
17
  0
CIRCLE
  8
0
  6
CONTINUOUS
 62
     7
 10
32.822491
 20
-10.362597
 40
11.25
  0
CIRCLE
  8
0
  6
CONTINUOUS
 62
     7
 10
-74.034798
 20
-615.94757
 40
21.5
  0
CIRCLE
  8
0
  6
CONTINUOUS
 62
     7
 10
-74.034798
 20
-615.94757
 40
14.4
  0
CIRCLE
  8
0
  6
CONTINUOUS
 62
     7
 10
-79.085335
 20
-1233.5112
 40
24.5
  0
CIRCLE
  8
0
  6
CONTINUOUS
 62
     7
 10
-79.085335
 20
-1233.5112
 40
17.25
  0
CIRCLE
  8
0
  6
CONTINUOUS
 62
     7
 10
-79.085335
 20
-1543.6638
 40
29.5
  0
CIRCLE
  8
0
  6
CONTINUOUS
 62
     7
 10
-79.085335
 20
-1543.6638
 40
21.65
  0
CIRCLE
  8
0
  6
CONTINUOUS
 62
     7
 10
373.84589
 20
-627.97998
 40
34
  0
CIRCLE
  8
0
  6
CONTINUOUS
 62
     7
 10
373.84589
 20
-627.97998
 40
24.65
  0
CIRCLE
  8
0
  6
CONTINUOUS
 62
     7
 10
373.84589
 20
-1234.025
 40
41
  0
CIRCLE
  8
0
  6
CONTINUOUS
 62
     7
 10
373.84589
 20
-1234.025
 40
30.65
  0
ARC
  8
0
  6
CONTINUOUS
 62
     7
 10
-257.17752
 20
-28.362602
 40
3
 50
90.000003
 51
180.00001
  0
ARC
  8
0
  6
CONTINUOUS
 62
     7
 10
-262.17752
 20
-55.862598
 40
2
 50
270
 51
0
  0
ARC
  8
0
  6
CONTINUOUS
 62
     7
 10
-272.17752
 20
-36.862598
 40
1
 50
0
 51
90.000003
  0
ARC
  8
0
  6
CONTINUOUS
 62
     7
 10
-70.177513
 20
-55.862598
 40
2
 50
270
 51
0
  0
ARC
  8
0
  6
CONTINUOUS
 62
     7
 10
-80.177513
 20
-36.862598
 40
1
 50
0
 51
90.000003
  0
ARC
  8
0
  6
CONTINUOUS
 62
     7
 10
-65.177513
 20
-30.862595
 40
3
 50
90.000003
 51
180.00001
  0
ARC
  8
0
  6
CONTINUOUS
 62
     7
 10
-183.51402
 20
-323.31674
 40
3
 50
90.000003
 51
180.00001
  0
ARC
  8
0
  6
CONTINUOUS
 62
     7
 10
-200.51402
 20
-331.81674
 40
1
 50
0
 51
90.000003
  0
ARC
  8
0
  6
CONTINUOUS
 62
     7
 10
-188.51402
 20
-350.81674
 40
2
 50
270
 51
0
  0
ARC
  8
0
  6
CONTINUOUS
 62
     7
 10
-217.16245
 20
-650.44757
 40
1
 50
0
 51
90.000003
  0
ARC
  8
0
  6
CONTINUOUS
 62
     7
 10
-205.16245
 20
-676.44757
 40
2
 50
270
 51
0
  0
ARC
  8
0
  6
CONTINUOUS
 62
     7
 10
-200.16245
 20
-641.94757
 40
3
 50
90.000003
 51
180.00001
  0
ARC
  8
0
  6
CONTINUOUS
 62
     7
 10
-231.7608
 20
-972.27655
 40
1
 50
0
 51
90.000003
  0
ARC
  8
0
  6
CONTINUOUS
 62
     7
 10
-219.7608
 20
-998.27655
 40
2
 50
270
 51
0
  0
ARC
  8
0
  6
CONTINUOUS
 62
     7
 10
-214.7608
 20
-966.27655
 40
3
 50
90.000003
 51
180.00001
  0
ARC
  8
0
  6
CONTINUOUS
 62
     7
 10
-244.80791
 20
-1273.5112
 40
2
 50
0
 51
90.000003
  0
ARC
  8
0
  6
CONTINUOUS
 62
     7
 10
-231.80791
 20
-1298.0112
 40
3
 50
270
 51
0
  0
ARC
  8
0
  6
CONTINUOUS
 62
     7
 10
-225.80791
 20
-1262.0112
 40
3
 50
90.000003
 51
180.00001
  0
ARC
  8
0
  6
CONTINUOUS
 62
     7
 10
-232.17751
 20
-20.862598
 40
4
 50
270
 51
0
  0
ARC
  8
0
  6
CONTINUOUS
 62
     7
 10
-228.08414
 20
-20.615929
 40
11.59337
 50
163.11152
 51
196.88848
  0
ARC
  8
0
  6
CONTINUOUS
 62
     7
 10
-216.73695
 20
-10.362597
 40
22.940548
 50
179.99999
 51
191.9843
  0
ARC
  8
0
  6
CONTINUOUS
 62
     7
 10
-28.613272
 20
-22.383411
 40
17.064236
 50
166.09586
 51
193.90414
  0
ARC
  8
0
  6
CONTINUOUS
 62
     7
 10
-11.799032
 20
-10.362597
 40
33.878471
 50
180.00001
 51
189.85588
  0
ARC
  8
0
  6
CONTINUOUS
 62
     7
 10
-37.177509
 20
-22.362598
 40
5
 50
270
 51
0
  0
ARC
  8
0
  6
CONTINUOUS
 62
     7
 10
-148.94978
 20
-314.83755
 40
17.064236
 50
166.09586
 51
193.90414
  0
ARC
  8
0
  6
CONTINUOUS
 62
     7
 10
-132.13554
 20
-302.81674
 40
33.878471
 50
180.00001
 51
189.85588
  0
ARC
  8
0
  6
CONTINUOUS
 62
     7
 10
-157.51402
 20
-314.81674
 40
5
 50
270
 51
0
  0
ARC
  8
0
  6
CONTINUOUS
 62
     7
 10
-157.41241
 20
-631.15039
 40
22.249998
 50
167.83045
 51
192.16954
  0
ARC
  8
0
  6
CONTINUOUS
 62
     7
 10
-135.41248
 20
-615.94757
 40
44.249989
 50
180.00001
 51
188.62136
  0
ARC
  8
0
  6
CONTINUOUS
 62
     7
 10
-170.16245
 20
-632.44757
 40
5
 50
270
 51
0
  0
ARC
  8
0
  6
CONTINUOUS
 62
     7
 10
-153.53578
 20
-955.10065
 40
38.125019
 50
170.71048
 51
189.28953
  0
ARC
  8
0
  6
CONTINUOUS
 62
     7
 10
-180.76079
 20
-957.27655
 40
5
 50
270
 51
0
  0
ARC
  8
0
  6
CONTINUOUS
 62
     7
 10
-115.66078
 20
-937.77655
 40
76.000023
 50
180.00001
 51
186.57588
  0
ARC
  8
0
  6
CONTINUOUS
 62
     7
 10
-166.5829
 20
-1250.8353
 40
38.125019
 50
170.71048
 51
189.28953
  0
ARC
  8
0
  6
CONTINUOUS
 62
     7
 10
-193.80791
 20
-1253.0112
 40
5
 50
270
 51
0
  0
ARC
  8
0
  6
CONTINUOUS
 62
     7
 10
-128.7079
 20
-1233.5112
 40
76.000023
 50
180.00001
 51
186.57588
  0
ARC
  8
0
  6
CONTINUOUS
 62
     7
 10
-249.68047
 20
-1583.6638
 40
2
 50
0
 51
90.000003
  0
ARC
  8
0
  6
CONTINUOUS
 62
     7
 10
-236.68047
 20
-1608.1638
 40
3
 50
270
 51
0
  0
ARC
  8
0
  6
CONTINUOUS
 62
     7
 10
-230.68047
 20
-1577.1638
 40
3
 50
90.000003
 51
180.00001
  0
ARC
  8
0
  6
CONTINUOUS
 62
     7
 10
196.2523
 20
-53.848904
 40
2
 50
0
 51
90.000003
  0
ARC
  8
0
  6
CONTINUOUS
 62
     7
 10
209.2523
 20
-78.348907
 40
3
 50
270
 51
0
  0
ARC
  8
0
  6
CONTINUOUS
 62
     7
 10
215.2523
 20
-44.848904
 40
3
 50
90.000003
 51
180.00001
  0
ARC
  8
0
  6
CONTINUOUS
 62
     7
 10
181.01991
 20
-355.54822
 40
2
 50
0
 51
90.000003
  0
ARC
  8
0
  6
CONTINUOUS
 62
     7
 10
194.01991
 20
-380.04822
 40
3
 50
270
 51
0
  0
ARC
  8
0
  6
CONTINUOUS
 62
     7
 10
200.01991
 20
-350.04822
 40
3
 50
90.000003
 51
180.00001
  0
ARC
  8
0
  6
CONTINUOUS
 62
     7
 10
-163.95526
 20
-1564.5234
 40
45.625206
 50
171.50982
 51
188.49018
  0
ARC
  8
0
  6
CONTINUOUS
 62
     7
 10
-118.58008
 20
-1543.6638
 40
91.000397
 50
180.00001
 51
186.00896
  0
ARC
  8
0
  6
CONTINUOUS
 62
     7
 10
-197.68045
 20
-1567.1638
 40
6
 50
270
 51
0
  0
ARC
  8
0
  6
CONTINUOUS
 62
     7
 10
281.97751
 20
-32.208553
 40
45.625206
 50
171.50982
 51
188.49018
  0
ARC
  8
0
  6
CONTINUOUS
 62
     7
 10
327.35269
 20
-11.348905
 40
91.000397
 50
180.00001
 51
186.00896
  0
ARC
  8
0
  6
CONTINUOUS
 62
     7
 10
248.2523
 20
-34.848904
 40
6
 50
270
 51
0
  0
ARC
  8
0
  6
CONTINUOUS
 62
     7
 10
234.01988
 20
-339.04822
 40
8
 50
270
 51
0
  0
ARC
  8
0
  6
CONTINUOUS
 62
     7
 10
274.3949
 20
-337.08984
 40
52.375008
 50
172.07669
 51
187.92331
  0
ARC
  8
0
  6
CONTINUOUS
 62
     7
 10
326.5199
 20
-313.04822
 40
104.50002
 50
180.00001
 51
185.6071
  0
ARC
  8
0
  6
CONTINUOUS
 62
     7
 10
181.01988
 20
-677.97998
 40
2
 50
0
 51
90.000003
  0
ARC
  8
0
  6
CONTINUOUS
 62
     7
 10
194.01988
 20
-702.47998
 40
3
 50
270
 51
0
  0
ARC
  8
0
  6
CONTINUOUS
 62
     7
 10
200.01988
 20
-664.97998
 40
3
 50
90.000003
 51
180.00001
  0
ARC
  8
0
  6
CONTINUOUS
 62
     7
 10
175.3734
 20
-984.97223
 40
2
 50
0
 51
90.000003
  0
ARC
  8
0
  6
CONTINUOUS
 62
     7
 10
188.3734
 20
-1009.4722
 40
3
 50
270
 51
0
  0
ARC
  8
0
  6
CONTINUOUS
 62
     7
 10
194.3734
 20
-978.97223
 40
3
 50
90.000003
 51
180.00001
  0
ARC
  8
0
  6
CONTINUOUS
 62
     7
 10
178.01988
 20
-1294.025
 40
2
 50
0
 51
90.000003
  0
ARC
  8
0
  6
CONTINUOUS
 62
     7
 10
193.01988
 20
-1318.525
 40
3
 50
270
 51
0
  0
ARC
  8
0
  6
CONTINUOUS
 62
     7
 10
199.01988
 20
-1278.025
 40
3
 50
90.000003
 51
180.00001
  0
ARC
  8
0
  6
CONTINUOUS
 62
     7
 10
234.01988
 20
-653.97998
 40
8
 50
270
 51
0
  0
ARC
  8
0
  6
CONTINUOUS
 62
     7
 10
274.39487
 20
-652.02161
 40
52.375008
 50
172.07669
 51
187.92331
  0
ARC
  8
0
  6
CONTINUOUS
 62
     7
 10
326.5199
 20
-627.97998
 40
104.50002
 50
180.00001
 51
185.6071
  0
ARC
  8
0
  6
CONTINUOUS
 62
     7
 10
233.3734
 20
-967.97223
 40
8
 50
270
 51
0
  0
ARC
  8
0
  6
CONTINUOUS
 62
     7
 10
386.12299
 20
-934.97223
 40
168.24962
 50
179.99999
 51
184.41828
  0
ARC
  8
0
  6
CONTINUOUS
 62
     7
 10
302.1232
 20
-963.96362
 40
84.249809
 50
173.7547
 51
186.24531
  0
ARC
  8
0
  6
CONTINUOUS
 62
     7
 10
236.01988
 20
-1267.025
 40
8
 50
270
 51
0
  0
ARC
  8
0
  6
CONTINUOUS
 62
     7
 10
388.7695
 20
-1234.025
 40
168.24962
 50
179.99999
 51
184.41828
  0
ARC
  8
0
  6
CONTINUOUS
 62
     7
 10
304.76968
 20
-1263.0165
 40
84.249809
 50
173.7547
 51
186.24531
  0
CIRCLE
  8
0
  6
CONTINUOUS
 62
     7
 10
-162.17751
 20
-10.362597
 40
47.500008
  0
CIRCLE
  8
0
  6
PHANTOM
 62
     7
 10
-162.17751
 20
-10.362597
 40
35.000008
  0
ARC
  8
0
  6
CONTINUOUS
 62
     7
 10
-228.08414
 20
-0.10926742
 40
11.59337
 50
163.11152
 51
196.88848
  0
ARC
  8
0
  6
CONTINUOUS
 62
     7
 10
-216.73695
 20
-10.362597
 40
22.940548
 50
168.0157
 51
180.00001
  0
ARC
  8
0
  6
CONTINUOUS
 62
     7
 10
-257.17752
 20
7.6374044
 40
3
 50
179.99999
 51
270
  0
ARC
  8
0
  6
CONTINUOUS
 62
     7
 10
-262.17752
 20
35.137402
 40
2
 50
0
 51
90.000003
  0
ARC
  8
0
  6
CONTINUOUS
 62
     7
 10
-272.17752
 20
16.1374
 40
1
 50
270
 51
0
  0
ARC
  8
0
  6
CONTINUOUS
 62
     7
 10
-232.17751
 20
0.13740236
 40
4
 50
0
 51
90.000003
  0
CIRCLE
  8
0
  6
CONTINUOUS
 62
     7
 10
32.822491
 20
-10.362597
 40
47.500008
  0
CIRCLE
  8
0
  6
PHANTOM
 62
     7
 10
32.822491
 20
-10.362597
 40
35.000008
  0
CIRCLE
  8
0
  6
CONTINUOUS
 62
     7
 10
-77.51403
 20
-302.81674
 40
17
  0
CIRCLE
  8
0
  6
CONTINUOUS
 62
     7
 10
-77.51403
 20
-302.81674
 40
11.25
  0
ARC
  8
0
  6
CONTINUOUS
 62
     7
 10
-37.177509
 20
1.6374023
 40
5
 50
0
 51
90.000003
  0
ARC
  8
0
  6
CONTINUOUS
 62
     7
 10
-11.799032
 20
-10.362597
 40
33.878471
 50
170.14412
 51
179.99999
  0
ARC
  8
0
  6
CONTINUOUS
 62
     7
 10
-70.177513
 20
35.137402
 40
2
 50
0
 51
90.000003
  0
ARC
  8
0
  6
CONTINUOUS
 62
     7
 10
-80.177513
 20
16.137402
 40
1
 50
270
 51
0
  0
ARC
  8
0
  6
CONTINUOUS
 62
     7
 10
-65.177513
 20
10.137399
 40
3
 50
179.99999
 51
270
  0
ARC
  8
0
  6
CONTINUOUS
 62
     7
 10
-28.613272
 20
1.6582153
 40
17.064236
 50
166.09586
 51
193.90414
  0
CIRCLE
  8
0
  6
CONTINUOUS
 62
     7
 10
-162.17751
 20
24.637407
 40
7.5
  0
CIRCLE
  8
0
  6
CONTINUOUS
 62
     7
 10
-197.17752
 20
-10.362597
 40
7.5
  0
CIRCLE
  8
0
  6
CONTINUOUS
 62
     7
 10
-127.17751
 20
-10.362597
 40
7.5
  0
CIRCLE
  8
0
  6
CONTINUOUS
 62
     7
 10
-162.17751
 20
-45.362606
 40
7.5
  0
CIRCLE
  8
0
  6
CONTINUOUS
 62
     7
 10
-2.1775188
 20
-10.362597
 40
7.5
  0
CIRCLE
  8
0
  6
CONTINUOUS
 62
     7
 10
32.822491
 20
24.637409
 40
7.5
  0
CIRCLE
  8
0
  6
CONTINUOUS
 62
     7
 10
67.822495
 20
-10.362597
 40
7.5
  0
CIRCLE
  8
0
  6
CONTINUOUS
 62
     7
 10
32.822491
 20
-45.362606
 40
7.5
  0
CIRCLE
  8
0
  6
CONTINUOUS
 62
     7
 10
-77.51403
 20
-302.81674
 40
50.000008
  0
CIRCLE
  8
0
  6
PHANTOM
 62
     7
 10
-77.51403
 20
-302.81674
 40
37.500008
  0
CIRCLE
  8
0
  6
CONTINUOUS
 62
     7
 10
-401.50162
 20
56.199329
 40
17
  0
CIRCLE
  8
0
  6
CONTINUOUS
 62
     7
 10
-401.50162
 20
56.199329
 40
11.25
  0
CIRCLE
  8
0
  6
CONTINUOUS
 62
     7
 10
-77.51403
 20
-265.31674
 40
7.5
  0
CIRCLE
  8
0
  6
CONTINUOUS
 62
     7
 10
-40.014023
 20
-302.81674
 40
7.5
  0
CIRCLE
  8
0
  6
CONTINUOUS
 62
     7
 10
-115.01404
 20
-302.81674
 40
7.5
  0
CIRCLE
  8
0
  6
CONTINUOUS
 62
     7
 10
-77.51403
 20
-340.31674
 40
7.5
  0
ARC
  8
0
  6
CONTINUOUS
 62
     7
 10
-183.51402
 20
-282.31674
 40
3
 50
179.99999
 51
270
  0
ARC
  8
0
  6
CONTINUOUS
 62
     7
 10
-200.51402
 20
-273.81674
 40
1
 50
270
 51
0
  0
ARC
  8
0
  6
CONTINUOUS
 62
     7
 10
-188.51402
 20
-254.81674
 40
2
 50
0
 51
90.000003
  0
ARC
  8
0
  6
CONTINUOUS
 62
     7
 10
-148.94978
 20
-290.79593
 40
17.064236
 50
166.09586
 51
193.90414
  0
ARC
  8
0
  6
CONTINUOUS
 62
     7
 10
-132.13554
 20
-302.81674
 40
33.878471
 50
170.14412
 51
179.99999
  0
ARC
  8
0
  6
CONTINUOUS
 62
     7
 10
-157.51402
 20
-290.81674
 40
5
 50
0
 51
90.000003
  0
ARC
  8
0
  6
CONTINUOUS
 62
     7
 10
-217.16245
 20
-581.44757
 40
1
 50
270
 51
0
  0
ARC
  8
0
  6
CONTINUOUS
 62
     7
 10
-205.16245
 20
-555.44757
 40
2
 50
0
 51
90.000003
  0
ARC
  8
0
  6
CONTINUOUS
 62
     7
 10
-200.16245
 20
-589.94757
 40
3
 50
179.99999
 51
270
  0
ARC
  8
0
  6
CONTINUOUS
 62
     7
 10
-157.41241
 20
-600.74481
 40
22.249998
 50
167.83045
 51
192.16954
  0
ARC
  8
0
  6
CONTINUOUS
 62
     7
 10
-135.41248
 20
-615.94757
 40
44.249989
 50
171.37864
 51
179.99999
  0
ARC
  8
0
  6
CONTINUOUS
 62
     7
 10
-170.16245
 20
-599.44757
 40
5
 50
0
 51
90.000003
  0
ARC
  8
0
  6
CONTINUOUS
 62
     7
 10
-231.7608
 20
-903.27655
 40
1
 50
270
 51
0
  0
ARC
  8
0
  6
CONTINUOUS
 62
     7
 10
-219.7608
 20
-877.27655
 40
2
 50
0
 51
90.000003
  0
ARC
  8
0
  6
CONTINUOUS
 62
     7
 10
-214.7608
 20
-909.27655
 40
3
 50
179.99999
 51
270
  0
ARC
  8
0
  6
CONTINUOUS
 62
     7
 10
-153.53578
 20
-920.45245
 40
38.125019
 50
170.71047
 51
189.28951
  0
ARC
  8
0
  6
CONTINUOUS
 62
     7
 10
-180.76079
 20
-918.27655
 40
5
 50
0
 51
90.000003
  0
ARC
  8
0
  6
CONTINUOUS
 62
     7
 10
-115.66078
 20
-937.77655
 40
76.000023
 50
173.42412
 51
179.99999
  0
ARC
  8
0
  6
CONTINUOUS
 62
     7
 10
-244.80791
 20
-1193.5112
 40
2
 50
270
 51
0
  0
ARC
  8
0
  6
CONTINUOUS
 62
     7
 10
-231.80791
 20
-1169.0112
 40
3
 50
0
 51
90.000003
  0
ARC
  8
0
  6
CONTINUOUS
 62
     7
 10
-225.80791
 20
-1205.0112
 40
3
 50
179.99999
 51
270
  0
ARC
  8
0
  6
CONTINUOUS
 62
     7
 10
-166.5829
 20
-1216.1871
 40
38.125019
 50
170.71047
 51
189.28951
  0
ARC
  8
0
  6
CONTINUOUS
 62
     7
 10
-193.80791
 20
-1214.0112
 40
5
 50
0
 51
90.000003
  0
ARC
  8
0
  6
CONTINUOUS
 62
     7
 10
-128.7079
 20
-1233.5112
 40
76.000023
 50
173.42412
 51
179.99999
  0
ARC
  8
0
  6
CONTINUOUS
 62
     7
 10
181.01991
 20
-270.54822
 40
2
 50
270
 51
0
  0
ARC
  8
0
  6
CONTINUOUS
 62
     7
 10
194.01991
 20
-246.04822
 40
3
 50
0
 51
90.000003
  0
ARC
  8
0
  6
CONTINUOUS
 62
     7
 10
200.01991
 20
-276.04822
 40
3
 50
179.99999
 51
270
  0
ARC
  8
0
  6
CONTINUOUS
 62
     7
 10
234.01988
 20
-287.04822
 40
8
 50
0
 51
90.000003
  0
ARC
  8
0
  6
CONTINUOUS
 62
     7
 10
274.3949
 20
-289.00659
 40
52.375008
 50
172.07669
 51
187.92331
  0
ARC
  8
0
  6
CONTINUOUS
 62
     7
 10
326.5199
 20
-313.04822
 40
104.50002
 50
174.3929
 51
179.99999
  0
ARC
  8
0
  6
CONTINUOUS
 62
     7
 10
196.2523
 20
31.151094
 40
2
 50
270
 51
0
  0
ARC
  8
0
  6
CONTINUOUS
 62
     7
 10
209.2523
 20
55.651096
 40
3
 50
0
 51
90.000003
  0
ARC
  8
0
  6
CONTINUOUS
 62
     7
 10
215.2523
 20
22.151094
 40
3
 50
179.99999
 51
270
  0
ARC
  8
0
  6
CONTINUOUS
 62
     7
 10
281.97751
 20
9.510745
 40
45.625206
 50
171.50982
 51
188.49018
  0
ARC
  8
0
  6
CONTINUOUS
 62
     7
 10
327.35269
 20
-11.348905
 40
91.000397
 50
173.99104
 51
179.99999
  0
ARC
  8
0
  6
CONTINUOUS
 62
     7
 10
248.2523
 20
12.151095
 40
6
 50
0
 51
90.000003
  0
ARC
  8
0
  6
CONTINUOUS
 62
     7
 10
-249.68047
 20
-1503.6638
 40
2
 50
270
 51
0
  0
ARC
  8
0
  6
CONTINUOUS
 62
     7
 10
-236.68047
 20
-1479.1638
 40
3
 50
0
 51
90.000003
  0
ARC
  8
0
  6
CONTINUOUS
 62
     7
 10
-230.68047
 20
-1510.1638
 40
3
 50
179.99999
 51
270
  0
ARC
  8
0
  6
CONTINUOUS
 62
     7
 10
-163.95526
 20
-1522.8042
 40
45.625206
 50
171.50982
 51
188.49018
  0
ARC
  8
0
  6
CONTINUOUS
 62
     7
 10
-118.58008
 20
-1543.6638
 40
91.000397
 50
173.99104
 51
179.99999
  0
ARC
  8
0
  6
CONTINUOUS
 62
     7
 10
-197.68045
 20
-1520.1638
 40
6
 50
0
 51
90.000003
  0
ARC
  8
0
  6
CONTINUOUS
 62
     7
 10
181.01988
 20
-577.97998
 40
2
 50
270
 51
0
  0
ARC
  8
0
  6
CONTINUOUS
 62
     7
 10
194.01988
 20
-553.47998
 40
3
 50
0
 51
90.000003
  0
ARC
  8
0
  6
CONTINUOUS
 62
     7
 10
200.01988
 20
-590.97998
 40
3
 50
179.99999
 51
270
  0
ARC
  8
0
  6
CONTINUOUS
 62
     7
 10
234.01988
 20
-601.97998
 40
8
 50
0
 51
90.000003
  0
ARC
  8
0
  6
CONTINUOUS
 62
     7
 10
274.39487
 20
-603.93835
 40
52.375008
 50
172.07669
 51
187.92331
  0
ARC
  8
0
  6
CONTINUOUS
 62
     7
 10
326.5199
 20
-627.97998
 40
104.50002
 50
174.3929
 51
179.99999
  0
ARC
  8
0
  6
CONTINUOUS
 62
     7
 10
175.3734
 20
-884.97223
 40
2
 50
270
 51
0
  0
ARC
  8
0
  6
CONTINUOUS
 62
     7
 10
188.3734
 20
-860.47223
 40
3
 50
0
 51
90.000003
  0
ARC
  8
0
  6
CONTINUOUS
 62
     7
 10
194.3734
 20
-890.97223
 40
3
 50
179.99999
 51
270
  0
ARC
  8
0
  6
CONTINUOUS
 62
     7
 10
233.3734
 20
-901.97223
 40
8
 50
0
 51
90.000003
  0
ARC
  8
0
  6
CONTINUOUS
 62
     7
 10
386.12299
 20
-934.97223
 40
168.24962
 50
175.58172
 51
180.00001
  0
ARC
  8
0
  6
CONTINUOUS
 62
     7
 10
302.1232
 20
-905.9809
 40
84.249809
 50
173.75468
 51
186.2453
  0
ARC
  8
0
  6
CONTINUOUS
 62
     7
 10
178.01988
 20
-1174.025
 40
2
 50
270
 51
0
  0
ARC
  8
0
  6
CONTINUOUS
 62
     7
 10
193.01988
 20
-1149.525
 40
3
 50
0
 51
90.000003
  0
ARC
  8
0
  6
CONTINUOUS
 62
     7
 10
199.01988
 20
-1190.025
 40
3
 50
179.99999
 51
270
  0
ARC
  8
0
  6
CONTINUOUS
 62
     7
 10
236.01988
 20
-1201.025
 40
8
 50
0
 51
90.000003
  0
ARC
  8
0
  6
CONTINUOUS
 62
     7
 10
388.7695
 20
-1234.025
 40
168.24962
 50
175.58172
 51
180.00001
  0
ARC
  8
0
  6
CONTINUOUS
 62
     7
 10
304.76968
 20
-1205.0337
 40
84.249809
 50
173.75468
 51
186.2453
  0
CIRCLE
  8
0
  6
CONTINUOUS
 62
     7
 10
-74.034798
 20
-615.94757
 40
62.5
  0
CIRCLE
  8
0
  6
PHANTOM
 62
     7
 10
-74.034798
 20
-615.94757
 40
45.000008
  0
CIRCLE
  8
0
  6
CONTINUOUS
 62
     7
 10
-74.034798
 20
-570.94757
 40
9.5
  0
CIRCLE
  8
0
  6
CONTINUOUS
 62
     7
 10
-119.03481
 20
-615.94757
 40
9.5
  0
CIRCLE
  8
0
  6
CONTINUOUS
 62
     7
 10
-29.03479
 20
-615.94757
 40
9.5
  0
CIRCLE
  8
0
  6
CONTINUOUS
 62
     7
 10
-74.034798
 20
-660.94763
 40
9.5
  0
CIRCLE
  8
0
  6
CONTINUOUS
 62
     7
 10
-401.50162
 20
5.3851457
 40
21.5
  0
CIRCLE
  8
0
  6
CONTINUOUS
 62
     7
 10
-401.50162
 20
5.3851457
 40
14.4
  0
CIRCLE
  8
0
  6
CONTINUOUS
 62
     7
 10
-76.931488
 20
-937.77655
 40
62.499996
  0
CIRCLE
  8
0
  6
PHANTOM
 62
     7
 10
-76.931488
 20
-937.77655
 40
45
  0
CIRCLE
  8
0
  6
CONTINUOUS
 62
     7
 10
-401.50162
 20
-50.685677
 40
24.5
  0
CIRCLE
  8
0
  6
CONTINUOUS
 62
     7
 10
-401.50162
 20
-50.685677
 40
17.25
  0
CIRCLE
  8
0
  6
CONTINUOUS
 62
     7
 10
-121.93149
 20
-937.77655
 40
9.5
  0
CIRCLE
  8
0
  6
CONTINUOUS
 62
     7
 10
-76.931488
 20
-892.77655
 40
9.5
  0
CIRCLE
  8
0
  6
CONTINUOUS
 62
     7
 10
-31.931486
 20
-937.77655
 40
9.5
  0
CIRCLE
  8
0
  6
CONTINUOUS
 62
     7
 10
-76.931488
 20
-982.77655
 40
9.5
  0
CIRCLE
  8
0
  6
CONTINUOUS
 62
     7
 10
-79.085335
 20
-1233.5112
 40
67.5
  0
CIRCLE
  8
0
  6
PHANTOM
 62
     7
 10
-79.085335
 20
-1233.5112
 40
50.000004
  0
CIRCLE
  8
0
  6
CONTINUOUS
 62
     7
 10
-79.085335
 20
-1543.6638
 40
67.5
  0
CIRCLE
  8
0
  6
PHANTOM
 62
     7
 10
-79.085335
 20
-1543.6638
 40
50.000015
  0
CIRCLE
  8
0
  6
CONTINUOUS
 62
     7
 10
-76.931488
 20
-937.77655
 40
24.5
  0
CIRCLE
  8
0
  6
CONTINUOUS
 62
     7
 10
-76.931488
 20
-937.77655
 40
17.25
  0
CIRCLE
  8
0
  6
CONTINUOUS
 62
     7
 10
-79.085335
 20
-1183.5112
 40
9.5
  0
CIRCLE
  8
0
  6
CONTINUOUS
 62
     7
 10
-129.08534
 20
-1233.5112
 40
9.5
  0
CIRCLE
  8
0
  6
CONTINUOUS
 62
     7
 10
-29.085337
 20
-1233.5112
 40
9.5
  0
CIRCLE
  8
0
  6
CONTINUOUS
 62
     7
 10
-79.085335
 20
-1283.5112
 40
9.5
  0
CIRCLE
  8
0
  6
CONTINUOUS
 62
     7
 10
373.84589
 20
-11.348905
 40
29.5
  0
CIRCLE
  8
0
  6
CONTINUOUS
 62
     7
 10
373.84589
 20
-11.348905
 40
21.65
  0
CIRCLE
  8
0
  6
CONTINUOUS
 62
     7
 10
-79.085335
 20
-1493.6638
 40
9.5
  0
CIRCLE
  8
0
  6
CONTINUOUS
 62
     7
 10
-29.085323
 20
-1543.6638
 40
9.5
  0
CIRCLE
  8
0
  6
CONTINUOUS
 62
     7
 10
-79.085335
 20
-1593.6638
 40
9.5
  0
CIRCLE
  8
0
  6
CONTINUOUS
 62
     7
 10
-129.08536
 20
-1543.6638
 40
9.5
  0
CIRCLE
  8
0
  6
CONTINUOUS
 62
     7
 10
373.84589
 20
-11.348905
 40
70
  0
CIRCLE
  8
0
  6
PHANTOM
 62
     7
 10
373.84589
 20
-11.348905
 40
52.500015
  0
CIRCLE
  8
0
  6
CONTINUOUS
 62
     7
 10
373.84589
 20
-313.04822
 40
70
  0
CIRCLE
  8
0
  6
PHANTOM
 62
     7
 10
373.84589
 20
-313.04822
 40
52.500015
  0
CIRCLE
  8
0
  6
CONTINUOUS
 62
     7
 10
373.84589
 20
-627.97998
 40
77.5
  0
CIRCLE
  8
0
  6
PHANTOM
 62
     7
 10
373.84589
 20
-627.97998
 40
60
  0
CIRCLE
  8
0
  6
CONTINUOUS
 62
     7
 10
373.84589
 20
-934.97223
 40
77.5
  0
CIRCLE
  8
0
  6
PHANTOM
 62
     7
 10
373.84589
 20
-934.97223
 40
60
  0
CIRCLE
  8
0
  6
CONTINUOUS
 62
     7
 10
373.84589
 20
-1234.025
 40
87.5
  0
CIRCLE
  8
0
  6
PHANTOM
 62
     7
 10
373.84589
 20
-1234.025
 40
70
  0
CIRCLE
  8
0
  6
CONTINUOUS
 62
     7
 10
-401.50162
 20
-137.66437
 40
29.5
  0
CIRCLE
  8
0
  6
CONTINUOUS
 62
     7
 10
-401.50162
 20
-137.66437
 40
21.65
  0
CIRCLE
  8
0
  6
CONTINUOUS
 62
     7
 10
-401.50162
 20
-241.56189
 40
34
  0
CIRCLE
  8
0
  6
CONTINUOUS
 62
     7
 10
-401.50162
 20
-241.56189
 40
24.65
  0
CIRCLE
  8
0
  6
CONTINUOUS
 62
     7
 10
373.84589
 20
-313.04822
 40
34
  0
CIRCLE
  8
0
  6
CONTINUOUS
 62
     7
 10
373.84589
 20
-313.04822
 40
24.65
  0
CIRCLE
  8
0
  6
CONTINUOUS
 62
     7
 10
373.84589
 20
41.151112
 40
9.5
  0
CIRCLE
  8
0
  6
CONTINUOUS
 62
     7
 10
321.34589
 20
-11.348905
 40
9.5
  0
CIRCLE
  8
0
  6
CONTINUOUS
 62
     7
 10
426.34592
 20
-11.348905
 40
9.5
  0
CIRCLE
  8
0
  6
CONTINUOUS
 62
     7
 10
373.84589
 20
-63.848919
 40
9.5
  0
CIRCLE
  8
0
  6
CONTINUOUS
 62
     7
 10
373.84589
 20
-260.54819
 40
9.5
  0
CIRCLE
  8
0
  6
CONTINUOUS
 62
     7
 10
321.34589
 20
-313.04822
 40
9.5
  0
CIRCLE
  8
0
  6
CONTINUOUS
 62
     7
 10
426.34592
 20
-313.04822
 40
9.5
  0
CIRCLE
  8
0
  6
CONTINUOUS
 62
     7
 10
373.84589
 20
-365.54822
 40
9.5
  0
CIRCLE
  8
0
  6
CONTINUOUS
 62
     7
 10
373.84589
 20
-567.97998
 40
9.5
  0
CIRCLE
  8
0
  6
CONTINUOUS
 62
     7
 10
433.84589
 20
-627.97998
 40
9.5
  0
CIRCLE
  8
0
  6
CONTINUOUS
 62
     7
 10
373.84589
 20
-687.97998
 40
9.5
  0
CIRCLE
  8
0
  6
CONTINUOUS
 62
     7
 10
313.84589
 20
-627.97998
 40
9.5
  0
CIRCLE
  8
0
  6
CONTINUOUS
 62
     7
 10
-401.50162
 20
-347.29117
 40
41
  0
CIRCLE
  8
0
  6
CONTINUOUS
 62
     7
 10
-401.50162
 20
-347.29117
 40
30.65
  0
CIRCLE
  8
0
  6
CONTINUOUS
 62
     7
 10
373.84589
 20
-934.97223
 40
41
  0
CIRCLE
  8
0
  6
CONTINUOUS
 62
     7
 10
373.84589
 20
-934.97223
 40
30.65
  0
CIRCLE
  8
0
  6
CONTINUOUS
 62
     7
 10
373.84589
 20
-1304.025
 40
9.5
  0
CIRCLE
  8
0
  6
CONTINUOUS
 62
     7
 10
303.84589
 20
-1234.025
 40
9.5
  0
CIRCLE
  8
0
  6
CONTINUOUS
 62
     7
 10
373.84589
 20
-1164.025
 40
9.5
  0
CIRCLE
  8
0
  6
CONTINUOUS
 62
     7
 10
443.84589
 20
-1234.025
 40
9.5
  0
CIRCLE
  8
0
  6
CONTINUOUS
 62
     7
 10
373.84589
 20
-994.97223
 40
9.5
  0
CIRCLE
  8
0
  6
CONTINUOUS
 62
     7
 10
373.84589
 20
-874.97223
 40
9.5
  0
CIRCLE
  8
0
  6
CONTINUOUS
 62
     7
 10
313.84589
 20
-934.97223
 40
9.5
  0
CIRCLE
  8
0
  6
CONTINUOUS
 62
     7
 10
433.84589
 20
-934.97223
 40
9.5
  0
CIRCLE
  8
0
  6
CONTINUOUS
 62
     7
 10
-162.17751
 20
-10.362597
 40
8.0500002
  0
CIRCLE
  8
0
  6
CONTINUOUS
 62
     7
 10
-162.17751
 20
-10.362597
 40
14.5
  0
TEXT
  8
0
  6
CONTINUOUS
 62
     7
 10
-450.61525
 20
97.572197
 40
10
 41
1.0285716
  1
13
  0
TEXT
  8
0
  6
CONTINUOUS
 62
     7
 10
-452.17415
 20
55.48214
 40
10
 41
1.0285716
  1
20
  0
TEXT
  8
0
  6
CONTINUOUS
 62
     7
 10
-455.29192
 20
4.0387392
 40
10
 41
1.0285716
  1
25
  0
TEXT
  8
0
  6
CONTINUOUS
 62
     7
 10
-452.9536
 20
-59.87579
 40
10
 41
1.0285716
  1
30
  0
TEXT
  8
0
  6
CONTINUOUS
 62
     7
 10
-452.6129
 20
-136.00479
 40
10
 41
1.0285716
  1
40
  0
TEXT
  8
0
  6
CONTINUOUS
 62
     7
 10
-445.85396
 20
-213.73271
 40
10
 41
1.0285716
  1
50
  0
TEXT
  8
0
  6
CONTINUOUS
 62
     7
 10
-452.96972
 20
-314.21277
 40
10
 41
1.0285716
  1
60
  0
TEXT
  8
0
  6
CONTINUOUS
 62
     7
 10
-282.77682
 20
118.76988
 40
8
 41
0.84237086
  1
コマサスフィット継手　フランジアダプタ－
  0
TEXT
  8
0
  6
CONTINUOUS
 62
     7
 10
14.422998
 20
53.758629
 40
8
 41
0.84892707
  1
２０×１５
  0
TEXT
  8
0
  6
CONTINUOUS
 62
     7
 10
-94.648943
 20
-233.89824
 40
8
 41
0.84892707
  1
２０×２０
  0
TEXT
  8
0
  6
CONTINUOUS
 62
     7
 10
-187.79842
 20
-569.29602
 40
8
 41
0.84892707
  1
２５×２５
  0
TEXT
  8
0
  6
CONTINUOUS
 62
     7
 10
-196.97614
 20
-892.3335
 40
8
 41
0.84892707
  1
３０×２５
  0
TEXT
  8
0
  6
CONTINUOUS
 62
     7
 10
-95.561228
 20
-1151.8956
 40
8
 41
0.84892707
  1
３０×３２
  0
TEXT
  8
0
  6
CONTINUOUS
 62
     7
 10
-89.930765
 20
-1451.7177
 40
8
 41
0.84892707
  1
４０×３２
  0
TEXT
  8
0
  6
CONTINUOUS
 62
     7
 10
355.3127
 20
74.223137
 40
8
 41
0.84892707
  1
４０×４０
  0
TEXT
  8
0
  6
CONTINUOUS
 62
     7
 10
356.06944
 20
-223.17569
 40
8
 41
0.84892707
  1
５０×４０
  0
TEXT
  8
0
  6
CONTINUOUS
 62
     7
 10
355.3127
 20
-524.35822
 40
8
 41
0.84892707
  1
５０×５０
  0
TEXT
  8
0
  6
CONTINUOUS
 62
     7
 10
353.79924
 20
-829.32446
 40
8
 41
0.84892707
  1
６０×５０
  0
TEXT
  8
0
  6
CONTINUOUS
 62
     7
 10
353.46791
 20
-1126.5586
 40
8
 41
0.84892707
  1
６０×６５
  0
TEXT
  8
0
  6
CONTINUOUS
 62
     7
 10
-178.42688
 20
57.596443
 40
8
 41
1.0102041
  1
13X15
  0
POINT
  8
1
  6
CONTINUOUS
 62
     7
 10
-311.3107
 20
-470.71918
  0
POINT
  8
1
  6
CONTINUOUS
 62
     7
 10
-311.3107
 20
-153.71919
  0
POINT
  8
1
  6
CONTINUOUS
 62
     7
 10
129.50026
 20
-1073.7355
  0
POINT
  8
1
  6
CONTINUOUS
 62
     7
 10
108.68929
 20
-153.71919
  0
POINT
  8
1
  6
CONTINUOUS
 62
     7
 10
129.50026
 20
-1083.7355
  0
POINT
  8
1
  6
CONTINUOUS
 62
     7
 10
-311.3107
 20
143.28081
  0
POINT
  8
1
  6
CONTINUOUS
 62
     7
 10
-311.3107
 20
-153.71919
  0
POINT
  8
1
  6
CONTINUOUS
 62
     7
 10
-311.3107
 20
-163.71919
  0
POINT
  8
1
  6
CONTINUOUS
 62
     7
 10
-311.3107
 20
-163.71919
  0
POINT
  8
1
  6
CONTINUOUS
 62
     7
 10
-311.3107
 20
-460.71918
  0
POINT
  8
1
  6
CONTINUOUS
 62
     7
 10
129.50026
 20
-776.73547
  0
POINT
  8
1
  6
CONTINUOUS
 62
     7
 10
-311.3107
 20
-470.71918
  0
POINT
  8
1
  6
CONTINUOUS
 62
     7
 10
-311.3107
 20
-767.71918
  0
POINT
  8
1
  6
CONTINUOUS
 62
     7
 10
-311.3107
 20
-777.71918
  0
POINT
  8
1
  6
CONTINUOUS
 62
     7
 10
-311.3107
 20
-777.71918
  0
POINT
  8
1
  6
CONTINUOUS
 62
     7
 10
-311.3107
 20
-1074.7192
  0
POINT
  8
1
  6
CONTINUOUS
 62
     7
 10
-311.3107
 20
-1084.7192
  0
POINT
  8
1
  6
CONTINUOUS
 62
     7
 10
129.50026
 20
-1390.7355
  0
POINT
  8
1
  6
CONTINUOUS
 62
     7
 10
129.50026
 20
-1687.7355
  0
POINT
  8
1
  6
CONTINUOUS
 62
     7
 10
129.50026
 20
-1697.7355
  0
POINT
  8
1
  6
CONTINUOUS
 62
     7
 10
129.50026
 20
144.26454
  0
POINT
  8
1
  6
CONTINUOUS
 62
     7
 10
129.50026
 20
-152.73546
  0
POINT
  8
1
  6
CONTINUOUS
 62
     7
 10
129.50026
 20
-162.73546
  0
POINT
  8
1
  6
CONTINUOUS
 62
     7
 10
129.50026
 20
-162.73546
  0
POINT
  8
1
  6
CONTINUOUS
 62
     7
 10
129.50026
 20
-459.73547
  0
POINT
  8
1
  6
CONTINUOUS
 62
     7
 10
129.50026
 20
-469.73547
  0
POINT
  8
1
  6
CONTINUOUS
 62
     7
 10
129.50026
 20
-469.73547
  0
POINT
  8
1
  6
CONTINUOUS
 62
     7
 10
129.50026
 20
-766.73547
  0
POINT
  8
1
  6
CONTINUOUS
 62
     7
 10
129.50026
 20
-776.73547
  0
POINT
  8
1
  6
CONTINUOUS
 62
     7
 10
-311.3107
 20
-1381.7192
  0
POINT
  8
1
  6
CONTINUOUS
 62
     7
 10
-311.3107
 20
-1391.7192
  0
POINT
  8
1
  6
CONTINUOUS
 62
     7
 10
-311.3107
 20
-1084.7192
  0
POINT
  8
1
  6
CONTINUOUS
 62
     7
 10
-311.3107
 20
-1688.7192
  0
POINT
  8
1
  6
CONTINUOUS
 62
     7
 10
-311.3107
 20
-1698.7192
  0
POINT
  8
1
  6
CONTINUOUS
 62
     7
 10
-311.3107
 20
-1391.7192
  0
POINT
  8
1
  6
CONTINUOUS
 62
     7
 10
129.50026
 20
-1380.7355
  0
POINT
  8
1
  6
CONTINUOUS
 62
     7
 10
129.50026
 20
-1390.7355
  0
POINT
  8
1
  6
CONTINUOUS
 62
     7
 10
129.50026
 20
-1083.7355
  0
LINE
  8
1
  6
CONTINUOUS
 62
     7
 10
108.68929
 20
143.28081
 11
108.68929
 21
-33.714287
  0
LINE
  8
1
  6
CONTINUOUS
 62
     2
 10
129.50026
 20
-776.73547
 11
549.50024
 21
-776.73547
  0
LINE
  8
1
  6
CONTINUOUS
 62
     2
 10
129.50026
 20
-776.73547
 11
129.50026
 21
-1073.7355
  0
LINE
  8
1
  6
CONTINUOUS
 62
     2
 10
129.50026
 20
-1073.7355
 11
549.50024
 21
-1073.7355
  0
LINE
  8
1
  6
CONTINUOUS
 62
     2
 10
549.50024
 20
-776.73547
 11
549.50024
 21
-1073.7355
  0
LINE
  8
1
  6
CONTINUOUS
 62
     2
 10
-311.3107
 20
143.28081
 11
-311.3107
 21
-153.71919
  0
LINE
  8
1
  6
CONTINUOUS
 62
     2
 10
-311.3107
 20
-153.71919
 11
108.68929
 21
-153.71919
  0
LINE
  8
1
  6
CONTINUOUS
 62
     2
 10
108.68929
 20
143.28081
 11
108.68929
 21
-153.71919
  0
LINE
  8
1
  6
CONTINUOUS
 62
     2
 10
-311.3107
 20
143.28081
 11
108.68929
 21
143.28081
  0
LINE
  8
1
  6
CONTINUOUS
 62
     2
 10
-311.3107
 20
-163.71919
 11
-311.3107
 21
-460.71918
  0
LINE
  8
1
  6
CONTINUOUS
 62
     2
 10
-311.3107
 20
-460.71918
 11
108.68929
 21
-460.71918
  0
LINE
  8
1
  6
CONTINUOUS
 62
     2
 10
108.68929
 20
-163.71919
 11
108.68929
 21
-460.71918
  0
LINE
  8
1
  6
CONTINUOUS
 62
     2
 10
-311.3107
 20
-163.71919
 11
108.68929
 21
-163.71919
  0
LINE
  8
1
  6
CONTINUOUS
 62
     2
 10
-311.3107
 20
-470.71918
 11
-311.3107
 21
-767.71918
  0
LINE
  8
1
  6
CONTINUOUS
 62
     2
 10
-311.3107
 20
-767.71918
 11
108.68929
 21
-767.71918
  0
LINE
  8
1
  6
CONTINUOUS
 62
     2
 10
-311.3107
 20
-470.71918
 11
108.68929
 21
-470.71918
  0
LINE
  8
1
  6
CONTINUOUS
 62
     2
 10
108.68929
 20
-470.71918
 11
108.68929
 21
-767.71918
  0
LINE
  8
1
  6
CONTINUOUS
 62
     2
 10
-311.3107
 20
-777.71918
 11
-311.3107
 21
-1074.7192
  0
LINE
  8
1
  6
CONTINUOUS
 62
     2
 10
-311.3107
 20
-1074.7192
 11
108.68929
 21
-1074.7192
  0
LINE
  8
1
  6
CONTINUOUS
 62
     2
 10
-311.3107
 20
-777.71918
 11
108.68929
 21
-777.71918
  0
LINE
  8
1
  6
CONTINUOUS
 62
     2
 10
108.68929
 20
-777.71918
 11
108.68929
 21
-1074.7192
  0
LINE
  8
1
  6
CONTINUOUS
 62
     2
 10
129.50026
 20
-1390.7355
 11
129.50026
 21
-1687.7355
  0
LINE
  8
1
  6
CONTINUOUS
 62
     2
 10
129.50026
 20
-1687.7355
 11
549.50024
 21
-1687.7355
  0
LINE
  8
1
  6
CONTINUOUS
 62
     2
 10
129.50026
 20
-1390.7355
 11
549.50024
 21
-1390.7355
  0
LINE
  8
1
  6
CONTINUOUS
 62
     2
 10
549.50024
 20
-1390.7355
 11
549.50024
 21
-1687.7355
  0
LINE
  8
1
  6
CONTINUOUS
 62
     2
 10
129.50026
 20
144.26454
 11
129.50026
 21
-152.73546
  0
LINE
  8
1
  6
CONTINUOUS
 62
     2
 10
129.50026
 20
-152.73546
 11
549.50024
 21
-152.73546
  0
LINE
  8
1
  6
CONTINUOUS
 62
     2
 10
129.50026
 20
144.26454
 11
549.50024
 21
144.26454
  0
LINE
  8
1
  6
CONTINUOUS
 62
     2
 10
549.50024
 20
144.26454
 11
549.50024
 21
-152.73546
  0
LINE
  8
1
  6
CONTINUOUS
 62
     2
 10
129.50026
 20
-162.73546
 11
129.50026
 21
-459.73547
  0
LINE
  8
1
  6
CONTINUOUS
 62
     2
 10
129.50026
 20
-459.73547
 11
549.50024
 21
-459.73547
  0
LINE
  8
1
  6
CONTINUOUS
 62
     2
 10
129.50026
 20
-162.73546
 11
549.50024
 21
-162.73546
  0
LINE
  8
1
  6
CONTINUOUS
 62
     2
 10
549.50024
 20
-162.73546
 11
549.50024
 21
-459.73547
  0
LINE
  8
1
  6
CONTINUOUS
 62
     2
 10
129.50026
 20
-469.73547
 11
129.50026
 21
-766.73547
  0
LINE
  8
1
  6
CONTINUOUS
 62
     2
 10
129.50026
 20
-766.73547
 11
549.50024
 21
-766.73547
  0
LINE
  8
1
  6
CONTINUOUS
 62
     2
 10
129.50026
 20
-469.73547
 11
549.50024
 21
-469.73547
  0
LINE
  8
1
  6
CONTINUOUS
 62
     2
 10
549.50024
 20
-469.73547
 11
549.50024
 21
-766.73547
  0
LINE
  8
1
  6
CONTINUOUS
 62
     2
 10
-311.3107
 20
-1084.7192
 11
-311.3107
 21
-1381.7192
  0
LINE
  8
1
  6
CONTINUOUS
 62
     2
 10
-311.3107
 20
-1381.7192
 11
108.68929
 21
-1381.7192
  0
LINE
  8
1
  6
CONTINUOUS
 62
     2
 10
108.68929
 20
-1084.7192
 11
108.68929
 21
-1381.7192
  0
LINE
  8
1
  6
CONTINUOUS
 62
     2
 10
-311.3107
 20
-1084.7192
 11
108.68929
 21
-1084.7192
  0
LINE
  8
1
  6
CONTINUOUS
 62
     2
 10
-311.3107
 20
-1391.7192
 11
-311.3107
 21
-1688.7192
  0
LINE
  8
1
  6
CONTINUOUS
 62
     2
 10
-311.3107
 20
-1688.7192
 11
108.68929
 21
-1688.7192
  0
LINE
  8
1
  6
CONTINUOUS
 62
     2
 10
108.68929
 20
-1391.7192
 11
108.68929
 21
-1688.7192
  0
LINE
  8
1
  6
CONTINUOUS
 62
     2
 10
-311.3107
 20
-1391.7192
 11
108.68929
 21
-1391.7192
  0
LINE
  8
1
  6
CONTINUOUS
 62
     2
 10
129.50026
 20
-1083.7355
 11
129.50026
 21
-1380.7355
  0
LINE
  8
1
  6
CONTINUOUS
 62
     2
 10
129.50026
 20
-1380.7355
 11
549.50024
 21
-1380.7355
  0
LINE
  8
1
  6
CONTINUOUS
 62
     2
 10
549.50024
 20
-1083.7355
 11
549.50024
 21
-1380.7355
  0
LINE
  8
1
  6
CONTINUOUS
 62
     2
 10
129.50026
 20
-1083.7355
 11
549.50024
 21
-1083.7355
  0
ENDSEC
  0
EOF
