  0
SECTION
  2
HEADER
  9
$EXTMAX
 10
296.17499
 20
209.41667
  9
$EXTMIN
 10
-298.56836
 20
-209.41667
  0
ENDSEC
  0
SECTION
  2
TABLES
  0
TABLE
  2
LTYPE
 70
    22
  0
LTYPE
  2
CONTINUOUS
 70
    64
  3
Solid line
 72
    65
 73
     0
 40
0.000000
  0
LTYPE
  2
DASHED
 70
    64
  3
__ __ __ __ __ __ __ __ __ __ __ __ __ __ __
 72
    65
 73
     2
 40
3.500000
 49
2.000000
 49
-1.500000
  0
LTYPE
  2
CENTER
 70
    64
  3
____ _ ____ _ ____ _ ____ _ ____ _ ____ _ ____
 72
    65
 73
     4
 40
17.500000
 49
13.000000
 49
-1.500000
 49
1.500000
 49
-1.500000
  0
LTYPE
  2
PHANTOM
 70
    64
  3
_____ _ _ _____ _ _ _____ _ _ _____ _ _ ____  
 72
    65
 73
     6
 40
15.500000
 49
8.000000
 49
-1.500000
 49
1.500000
 49
-1.500000
 49
1.500000
 49
-1.500000
  0
LTYPE
  2
DOT
 70
    64
  3
. . . . . . . . . . . . . . . . . . . . . . . .
 72
    65
 73
     2
 40
0.25
 49
0.0
 49
-0.25
  0
ENDTAB
  0
TABLE
  2
LAYER
 70
     1
  0
LAYER
  2
0
 70
     0
 62
     7
  6
CONTINUOUS
  0
ENDTAB
  0
TABLE
  2
STYLE
 70
     1
  0
STYLE
  2
STANDARD
 70
     0
 40
0.000000
 41
1.000000
 50
0.000000
 71
     0
 42
0.200000
  3
txt
  4
BIGFONT
  0
ENDTAB
  0
TABLE
  2
VIEW
 70
     0
  0
ENDTAB
  0
ENDSEC
  0
SECTION
  2
BLOCKS
  0
ENDSEC
  0
SECTION
  2
ENTITIES
  0
POINT
  8
0
  6
CONTINUOUS
 62
     7
 10
-164.99719
 20
78.600182
  0
POINT
  8
0
  6
CONTINUOUS
 62
     7
 10
-25.495577
 20
78.600182
  0
POINT
  8
0
  6
CONTINUOUS
 62
     7
 10
150.27193
 20
78.600182
  0
POINT
  8
0
  6
CONTINUOUS
 62
     7
 10
-102.88446
 20
-91.204994
  0
POINT
  8
0
  6
CONTINUOUS
 62
     7
 10
147.98824
 20
-91.61187
  0
POINT
  8
0
  6
CONTINUOUS
 62
     7
 10
483.82025
 20
17.924452
  0
POINT
  8
0
  6
CONTINUOUS
 62
     7
 10
744.38477
 20
19.87055
  0
POINT
  8
0
  6
CONTINUOUS
 62
     7
 10
-143.62556
 20
-324.961
  0
POINT
  8
0
  6
CONTINUOUS
 62
     7
 10
128.74051
 20
-439.35223
  0
POINT
  8
0
  6
CONTINUOUS
 62
     7
 10
744.20215
 20
-68.301353
  0
POINT
  8
0
  6
CONTINUOUS
 62
     7
 10
-25.539162
 20
35.518074
  0
POINT
  8
0
  6
CONTINUOUS
 62
     7
 10
-102.91502
 20
-152.17015
  0
POINT
  8
0
  6
CONTINUOUS
 62
     7
 10
128.62381
 20
-556.36981
  0
POINT
  8
0
  6
CONTINUOUS
 62
     7
 10
-165.04108
 20
40.265373
  0
POINT
  8
0
  6
CONTINUOUS
 62
     7
 10
150.26784
 20
25.881632
  0
POINT
  8
0
  6
CONTINUOUS
 62
     7
 10
147.8553
 20
-154.37723
  0
POINT
  8
0
  6
CONTINUOUS
 62
     7
 10
483.61279
 20
-54.323872
  0
POINT
  8
0
  6
CONTINUOUS
 62
     7
 10
-143.76778
 20
-422.66791
  0
LINE
  8
0
  6
CONTINUOUS
 62
     7
 10
881
 20
200
 11
881
 21
-200
  0
LINE
  8
0
  6
CONTINUOUS
 62
     7
 10
307
 20
200
 11
881
 21
200
  0
LINE
  8
0
  6
CONTINUOUS
 62
     7
 10
307
 20
200
 11
307
 21
-200
  0
LINE
  8
0
  6
CONTINUOUS
 62
     7
 10
307
 20
-200
 11
881
 21
-200
  0
LINE
  8
0
  6
CONTINUOUS
 62
     7
 10
-117.99719
 20
95.100182
 11
-117.99719
 21
62.100178
  0
LINE
  8
0
  6
CONTINUOUS
 62
     7
 10
-134.58298
 20
95.100182
 11
-117.99719
 21
95.100182
  0
LINE
  8
0
  6
CONTINUOUS
 62
     7
 10
-134.99719
 20
94.420639
 11
-134.99719
 21
62.972912
  0
LINE
  8
0
  6
CONTINUOUS
 62
     7
 10
-135.70432
 20
95.807297
 11
-135.2901
 21
95.393082
  0
LINE
  8
0
  6
CONTINUOUS
 62
     7
 10
-193.58298
 20
96.100182
 11
-136.41141
 21
96.100182
  0
LINE
  8
0
  6
CONTINUOUS
 62
     7
 10
-135.99719
 20
95.338821
 11
-135.99719
 21
62.054729
  0
LINE
  8
0
  6
CONTINUOUS
 62
     7
 10
-144.49719
 20
61.100178
 11
-136.41141
 21
61.100178
  0
LINE
  8
0
  6
CONTINUOUS
 62
     7
 10
-135.70432
 20
61.39307
 11
-135.29008
 21
61.807293
  0
LINE
  8
0
  6
CONTINUOUS
 62
     7
 10
-134.58298
 20
62.100178
 11
-117.99719
 21
62.100178
  0
LINE
  8
0
  6
CONTINUOUS
 62
     7
 10
26.504423
 20
98.100182
 11
26.504423
 21
59.100178
  0
LINE
  8
0
  6
CONTINUOUS
 62
     7
 10
9.9186392
 20
98.100182
 11
26.504423
 21
98.100182
  0
LINE
  8
0
  6
CONTINUOUS
 62
     7
 10
-59.08136
 20
99.100182
 11
8.090209
 21
99.100182
  0
LINE
  8
0
  6
CONTINUOUS
 62
     7
 10
9.5044241
 20
97.083817
 11
9.5044241
 21
59.868198
  0
LINE
  8
0
  6
CONTINUOUS
 62
     7
 10
8.7973194
 20
98.807297
 11
9.2115316
 21
98.393082
  0
LINE
  8
0
  6
CONTINUOUS
 62
     7
 10
8.5044241
 20
98.11586
 11
8.5044241
 21
58.954662
  0
LINE
  8
0
  6
CONTINUOUS
 62
     7
 10
-0.99557602
 20
58.100178
 11
8.090209
 21
58.100178
  0
LINE
  8
0
  6
CONTINUOUS
 62
     7
 10
8.7973166
 20
58.393078
 11
9.2115316
 21
58.807293
  0
LINE
  8
0
  6
CONTINUOUS
 62
     7
 10
9.9186392
 20
59.100178
 11
26.504423
 21
59.100178
  0
LINE
  8
0
  6
CONTINUOUS
 62
     7
 10
214.27193
 20
101.60019
 11
214.27193
 21
55.600178
  0
LINE
  8
0
  6
CONTINUOUS
 62
     7
 10
192.68614
 20
101.60019
 11
214.27193
 21
101.60019
  0
LINE
  8
0
  6
CONTINUOUS
 62
     7
 10
110.18615
 20
103.10019
 11
190.35773
 21
103.10019
  0
LINE
  8
0
  6
CONTINUOUS
 62
     7
 10
192.27193
 20
99.928596
 11
192.27193
 21
57.148975
  0
LINE
  8
0
  6
CONTINUOUS
 62
     7
 10
191.06483
 20
102.80729
 11
191.97903
 21
101.89307
  0
LINE
  8
0
  6
CONTINUOUS
 62
     7
 10
190.77193
 20
101.27328
 11
190.77193
 21
55.712208
  0
LINE
  8
0
  6
CONTINUOUS
 62
     7
 10
178.77194
 20
54.100178
 11
190.35773
 21
54.100178
  0
LINE
  8
0
  6
CONTINUOUS
 62
     7
 10
192.68614
 20
55.600178
 11
214.27193
 21
55.600178
  0
LINE
  8
0
  6
CONTINUOUS
 62
     7
 10
191.06482
 20
54.393074
 11
191.97903
 21
55.307289
  0
LINE
  8
0
  6
CONTINUOUS
 62
     7
 10
-30.884447
 20
-63.204987
 11
-30.884447
 21
-119.20499
  0
LINE
  8
0
  6
CONTINUOUS
 62
     7
 10
-51.470261
 20
-63.204987
 11
-30.884447
 21
-63.204987
  0
LINE
  8
0
  6
CONTINUOUS
 62
     7
 10
-151.47025
 20
-61.204987
 11
-54.298676
 21
-61.204987
  0
LINE
  8
0
  6
CONTINUOUS
 62
     7
 10
-51.88446
 20
-65.477203
 11
-51.88446
 21
-118.19775
  0
LINE
  8
0
  6
CONTINUOUS
 62
     7
 10
-53.59156
 20
-61.497868
 11
-52.177349
 21
-62.912083
  0
LINE
  8
0
  6
CONTINUOUS
 62
     7
 10
-53.88446
 20
-63.325745
 11
-53.88446
 21
-119.48705
  0
LINE
  8
0
  6
CONTINUOUS
 62
     7
 10
-67.88446
 20
-121.20499
 11
-54.298676
 21
-121.20499
  0
LINE
  8
0
  6
CONTINUOUS
 62
     7
 10
-53.591572
 20
-120.91209
 11
-52.177361
 21
-119.49788
  0
LINE
  8
0
  6
CONTINUOUS
 62
     7
 10
-51.470261
 20
-119.20499
 11
-30.884447
 21
-119.20499
  0
LINE
  8
0
  6
CONTINUOUS
 62
     7
 10
221.98824
 20
-60.61187
 11
221.98824
 21
-122.61187
  0
LINE
  8
0
  6
CONTINUOUS
 62
     7
 10
201.40245
 20
-60.61187
 11
221.98824
 21
-60.61187
  0
LINE
  8
0
  6
CONTINUOUS
 62
     7
 10
200.98824
 20
-62.634083
 11
200.98824
 21
-120.59758
  0
LINE
  8
0
  6
CONTINUOUS
 62
     7
 10
199.53113
 20
-59.154758
 11
200.69534
 21
-60.318966
  0
LINE
  8
0
  6
CONTINUOUS
 62
     7
 10
185.73824
 20
-124.36187
 11
198.82402
 21
-124.36187
  0
LINE
  8
0
  6
CONTINUOUS
 62
     7
 10
199.53111
 20
-124.06898
 11
200.69534
 21
-122.90476
  0
LINE
  8
0
  6
CONTINUOUS
 62
     7
 10
201.40245
 20
-122.61187
 11
221.98824
 21
-122.61187
  0
LINE
  8
0
  6
CONTINUOUS
 62
     7
 10
199.23824
 20
-60.94207
 11
199.23824
 21
-122.21127
  0
LINE
  8
0
  6
CONTINUOUS
 62
     7
 10
566.82025
 20
54.924458
 11
566.82025
 21
-19.075548
  0
LINE
  8
0
  6
CONTINUOUS
 62
     7
 10
546.2345
 20
54.924458
 11
566.82025
 21
54.924458
  0
LINE
  8
0
  6
CONTINUOUS
 62
     7
 10
424.73447
 20
57.424458
 11
542.90607
 21
57.424458
  0
LINE
  8
0
  6
CONTINUOUS
 62
     7
 10
545.82025
 20
52.709164
 11
545.82025
 21
-17.202669
  0
LINE
  8
0
  6
CONTINUOUS
 62
     7
 10
543.61316
 20
57.131565
 11
545.52734
 21
55.217339
  0
LINE
  8
0
  6
CONTINUOUS
 62
     7
 10
543.32025
 20
54.639412
 11
543.32025
 21
-19.584719
  0
LINE
  8
0
  6
CONTINUOUS
 62
     7
 10
529.32025
 20
-21.575548
 11
542.90607
 21
-21.575548
  0
LINE
  8
0
  6
CONTINUOUS
 62
     7
 10
543.61316
 20
-21.282646
 11
545.52734
 21
-19.368443
  0
LINE
  8
0
  6
CONTINUOUS
 62
     7
 10
546.2345
 20
-19.075548
 11
566.82025
 21
-19.075548
  0
LINE
  8
0
  6
CONTINUOUS
 62
     7
 10
843.38477
 20
66.120552
 11
843.38477
 21
-26.37945
  0
LINE
  8
0
  6
CONTINUOUS
 62
     7
 10
822.25079
 20
66.120552
 11
843.38477
 21
66.120552
  0
LINE
  8
0
  6
CONTINUOUS
 62
     7
 10
821.38477
 20
64.669411
 11
821.38477
 21
-24.914381
  0
LINE
  8
0
  6
CONTINUOUS
 62
     7
 10
1.740515
 20
-373.85223
 11
1.740515
 21
-504.85223
  0
LINE
  8
0
  6
CONTINUOUS
 62
     7
 10
21.874487
 20
-373.85223
 11
1.740515
 21
-373.85223
  0
LINE
  8
0
  6
CONTINUOUS
 62
     7
 10
50.871971
 20
-367.35223
 11
27.359304
 21
-367.35223
  0
LINE
  8
0
  6
CONTINUOUS
 62
     7
 10
22.740515
 20
-375.7019
 11
22.740515
 21
-503.27609
  0
LINE
  8
0
  6
CONTINUOUS
 62
     7
 10
26.060266
 20
-368.1022
 11
23.173517
 21
-373.1022
  0
LINE
  8
0
  6
CONTINUOUS
 62
     7
 10
26.493292
 20
-370.84503
 11
26.493292
 21
-508.45676
  0
LINE
  8
0
  6
CONTINUOUS
 62
     7
 10
46.740501
 20
-511.35223
 11
27.359304
 21
-511.35223
  0
LINE
  8
0
  6
CONTINUOUS
 62
     7
 10
26.060293
 20
-510.60223
 11
23.173544
 21
-505.60223
  0
LINE
  8
0
  6
CONTINUOUS
 62
     7
 10
21.874487
 20
-504.85223
 11
1.740515
 21
-504.85223
  0
LINE
  8
0
  6
CONTINUOUS
 62
     7
 10
796.97498
 20
71.370552
 11
817.48767
 21
71.370552
  0
LINE
  8
0
  6
CONTINUOUS
 62
     7
 10
822.0061
 20
-26.37945
 11
843.38477
 21
-26.37945
  0
LINE
  8
0
  6
CONTINUOUS
 62
     7
 10
-56.759541
 20
-272.461
 11
-35.625568
 21
-272.461
  0
LINE
  8
0
  6
CONTINUOUS
 62
     7
 10
-83.17971
 20
-266.961
 11
-61.667011
 21
-266.961
  0
LINE
  8
0
  6
CONTINUOUS
 62
     7
 10
-35.625568
 20
-272.461
 11
-35.625568
 21
-377.461
  0
LINE
  8
0
  6
CONTINUOUS
 62
     7
 10
-57.625568
 20
-274.74524
 11
-57.625568
 21
-375.46524
  0
LINE
  8
0
  6
CONTINUOUS
 62
     7
 10
-60.368004
 20
-267.711
 11
-58.058617
 21
-271.71097
  0
LINE
  8
0
  6
CONTINUOUS
 62
     7
 10
-60.801044
 20
-269.53922
 11
-60.801044
 21
-380.83371
  0
LINE
  8
0
  6
CONTINUOUS
 62
     7
 10
818.78668
 20
70.620544
 11
820.95172
 21
66.870529
  0
LINE
  8
0
  6
CONTINUOUS
 62
     7
 10
818.3537
 20
69.54335
 11
818.3537
 21
-30.118391
  0
LINE
  8
0
  6
CONTINUOUS
 62
     7
 10
803.88477
 20
-31.62945
 11
817.48767
 21
-31.62945
  0
LINE
  8
0
  6
CONTINUOUS
 62
     7
 10
818.78668
 20
-30.879465
 11
820.95172
 21
-27.129454
  0
LINE
  8
0
  6
CONTINUOUS
 62
     7
 10
-56.759541
 20
-377.461
 11
-35.625568
 21
-377.461
  0
LINE
  8
0
  6
CONTINUOUS
 62
     7
 10
-77.625572
 20
-382.961
 11
-61.667011
 21
-382.961
  0
LINE
  8
0
  6
CONTINUOUS
 62
     7
 10
-60.368015
 20
-382.211
 11
-58.058613
 21
-378.211
  0
LINE
  8
0
  6
CONTINUOUS
 62
     7
 10
-287
 20
-220
 11
-287
 21
-620
  0
LINE
  8
0
  6
CONTINUOUS
 62
     7
 10
-287
 20
-220
 11
287
 21
-220
  0
LINE
  8
0
  6
CONTINUOUS
 62
     7
 10
287
 20
-220
 11
287
 21
-620
  0
LINE
  8
0
  6
CONTINUOUS
 62
     7
 10
-287
 20
-620
 11
287
 21
-620
  0
LINE
  8
0
  6
CENTER
 62
     7
 10
-218.74811
 20
78.600182
 11
-110.78387
 21
78.600182
  0
LINE
  8
0
  6
CENTER
 62
     7
 10
-164.99719
 20
103.57317
 11
-164.99719
 21
22.991735
  0
LINE
  8
0
  6
CONTINUOUS
 62
     7
 10
-181.49719
 20
31.600183
 11
-148.49719
 21
31.600183
  0
LINE
  8
0
  6
CONTINUOUS
 62
     7
 10
-181.49719
 20
48.18597
 11
-181.49719
 21
31.600183
  0
LINE
  8
0
  6
CONTINUOUS
 62
     7
 10
-180.81766
 20
48.600178
 11
-149.3699
 21
48.600178
  0
LINE
  8
0
  6
CONTINUOUS
 62
     7
 10
-182.20432
 20
49.307293
 11
-181.7901
 21
48.893078
  0
LINE
  8
0
  6
CONTINUOUS
 62
     7
 10
-182.49719
 20
58.100178
 11
-182.49719
 21
50.014393
  0
LINE
  8
0
  6
CONTINUOUS
 62
     7
 10
-181.73584
 20
49.600178
 11
-148.45175
 21
49.600178
  0
LINE
  8
0
  6
CONTINUOUS
 62
     7
 10
-147.49719
 20
58.100178
 11
-147.49719
 21
50.014393
  0
LINE
  8
0
  6
CONTINUOUS
 62
     7
 10
-147.79008
 20
49.307293
 11
-148.2043
 21
48.893078
  0
LINE
  8
0
  6
CONTINUOUS
 62
     7
 10
-148.49719
 20
48.18597
 11
-148.49719
 21
31.600183
  0
LINE
  8
0
  6
CENTER
 62
     7
 10
-25.495577
 20
104.54991
 11
-25.495577
 21
18.108011
  0
LINE
  8
0
  6
CONTINUOUS
 62
     7
 10
-44.995575
 20
26.600183
 11
-5.9955759
 21
26.600183
  0
LINE
  8
0
  6
CONTINUOUS
 62
     7
 10
-44.995575
 20
43.18597
 11
-44.995575
 21
26.600183
  0
LINE
  8
0
  6
CONTINUOUS
 62
     7
 10
-45.995575
 20
54.100178
 11
-45.995575
 21
45.014393
  0
LINE
  8
0
  6
CONTINUOUS
 62
     7
 10
-43.979202
 20
43.600178
 11
-6.7635813
 21
43.600178
  0
LINE
  8
0
  6
CONTINUOUS
 62
     7
 10
-45.702682
 20
44.307293
 11
-45.288471
 21
43.893082
  0
LINE
  8
0
  6
CONTINUOUS
 62
     7
 10
-45.011246
 20
44.600178
 11
-5.8500528
 21
44.600178
  0
LINE
  8
0
  6
CONTINUOUS
 62
     7
 10
-4.9955759
 20
54.100178
 11
-4.9955759
 21
45.014393
  0
LINE
  8
0
  6
CONTINUOUS
 62
     7
 10
-5.2884707
 20
44.307293
 11
-5.702683
 21
43.893078
  0
LINE
  8
0
  6
CONTINUOUS
 62
     7
 10
-5.9955759
 20
43.18597
 11
-5.9955759
 21
26.600183
  0
LINE
  8
0
  6
CENTER
 62
     7
 10
150.27193
 20
113.7686
 11
150.27193
 21
1.9917238
  0
LINE
  8
0
  6
CONTINUOUS
 62
     7
 10
127.27193
 20
14.600183
 11
173.27194
 21
14.600183
  0
LINE
  8
0
  6
CONTINUOUS
 62
     7
 10
127.27193
 20
36.185966
 11
127.27193
 21
14.600183
  0
LINE
  8
0
  6
CONTINUOUS
 62
     7
 10
125.77193
 20
50.100178
 11
125.77193
 21
38.514393
  0
LINE
  8
0
  6
CONTINUOUS
 62
     7
 10
128.94353
 20
36.600178
 11
171.72314
 21
36.600178
  0
LINE
  8
0
  6
CONTINUOUS
 62
     7
 10
126.06483
 20
37.807289
 11
126.97904
 21
36.893074
  0
LINE
  8
0
  6
CONTINUOUS
 62
     7
 10
127.59884
 20
38.100178
 11
173.15991
 21
38.100178
  0
LINE
  8
0
  6
CONTINUOUS
 62
     7
 10
174.77194
 20
50.100178
 11
174.77194
 21
38.514393
  0
LINE
  8
0
  6
CONTINUOUS
 62
     7
 10
173.27194
 20
36.185966
 11
173.27194
 21
14.600183
  0
LINE
  8
0
  6
CONTINUOUS
 62
     7
 10
174.47903
 20
37.807289
 11
173.56482
 21
36.893078
  0
LINE
  8
0
  6
CENTER
 62
     7
 10
62.674889
 20
-91.61187
 11
231.30975
 21
-91.61187
  0
LINE
  8
0
  6
CENTER
 62
     7
 10
-102.88446
 20
-51.674377
 11
-102.88446
 21
-172.36168
  0
LINE
  8
0
  6
CONTINUOUS
 62
     7
 10
-130.88448
 20
-163.20499
 11
-74.88446
 21
-163.20499
  0
LINE
  8
0
  6
CONTINUOUS
 62
     7
 10
-130.88448
 20
-142.6192
 11
-130.88448
 21
-163.20499
  0
LINE
  8
0
  6
CONTINUOUS
 62
     7
 10
-132.88448
 20
-126.20499
 11
-132.88448
 21
-139.79077
  0
LINE
  8
0
  6
CONTINUOUS
 62
     7
 10
-128.61226
 20
-142.20499
 11
-75.891708
 21
-142.20499
  0
LINE
  8
0
  6
CONTINUOUS
 62
     7
 10
-132.59158
 20
-140.49788
 11
-131.17737
 21
-141.91209
  0
LINE
  8
0
  6
CONTINUOUS
 62
     7
 10
-130.7637
 20
-140.20499
 11
-74.602417
 21
-140.20499
  0
LINE
  8
0
  6
CONTINUOUS
 62
     7
 10
-72.88446
 20
-126.20499
 11
-72.88446
 21
-139.79077
  0
LINE
  8
0
  6
CONTINUOUS
 62
     7
 10
-73.177368
 20
-140.49788
 11
-74.591576
 21
-141.91209
  0
LINE
  8
0
  6
CONTINUOUS
 62
     7
 10
-74.88446
 20
-142.6192
 11
-74.88446
 21
-163.20499
  0
LINE
  8
0
  6
CENTER
 62
     7
 10
147.98824
 20
-49.125008
 11
147.98824
 21
-174.90154
  0
LINE
  8
0
  6
CONTINUOUS
 62
     7
 10
116.98823
 20
-165.61188
 11
178.98824
 21
-165.61188
  0
LINE
  8
0
  6
CONTINUOUS
 62
     7
 10
116.98823
 20
-145.02608
 11
116.98823
 21
-165.61188
  0
LINE
  8
0
  6
CONTINUOUS
 62
     7
 10
115.23823
 20
-129.36188
 11
115.23823
 21
-142.44766
  0
LINE
  8
0
  6
CONTINUOUS
 62
     7
 10
119.01044
 20
-144.61188
 11
176.97395
 21
-144.61188
  0
LINE
  8
0
  6
CONTINUOUS
 62
     7
 10
115.53113
 20
-143.15477
 11
116.69534
 21
-144.31897
  0
LINE
  8
0
  6
CONTINUOUS
 62
     7
 10
180.73824
 20
-129.36188
 11
180.73824
 21
-142.44766
  0
LINE
  8
0
  6
CONTINUOUS
 62
     7
 10
180.44533
 20
-143.15477
 11
179.28113
 21
-144.31897
  0
LINE
  8
0
  6
CONTINUOUS
 62
     7
 10
178.98824
 20
-145.02608
 11
178.98824
 21
-165.61188
  0
LINE
  8
0
  6
CONTINUOUS
 62
     7
 10
117.31843
 20
-142.86188
 11
178.58765
 21
-142.86188
  0
LINE
  8
0
  6
CENTER
 62
     7
 10
483.82025
 20
68.408669
 11
483.82025
 21
-75.543655
  0
LINE
  8
0
  6
CONTINUOUS
 62
     7
 10
446.82025
 20
-65.075546
 11
520.82025
 21
-65.075546
  0
LINE
  8
0
  6
CONTINUOUS
 62
     7
 10
446.82025
 20
-44.489761
 11
446.82025
 21
-65.075546
  0
LINE
  8
0
  6
CONTINUOUS
 62
     7
 10
444.32025
 20
-27.575548
 11
444.32025
 21
-41.161331
  0
LINE
  8
0
  6
CONTINUOUS
 62
     7
 10
449.03555
 20
-44.075546
 11
518.94739
 21
-44.075546
  0
LINE
  8
0
  6
CONTINUOUS
 62
     7
 10
444.61313
 20
-41.868435
 11
446.52734
 21
-43.782658
  0
LINE
  8
0
  6
CONTINUOUS
 62
     7
 10
447.10532
 20
-41.575546
 11
521.32941
 21
-41.575546
  0
LINE
  8
0
  6
CONTINUOUS
 62
     7
 10
523.32025
 20
-27.575548
 11
523.32025
 21
-41.161331
  0
LINE
  8
0
  6
CONTINUOUS
 62
     7
 10
523.02734
 20
-41.868435
 11
521.11316
 21
-43.782658
  0
LINE
  8
0
  6
CONTINUOUS
 62
     7
 10
520.82025
 20
-44.489761
 11
520.82025
 21
-65.075546
  0
LINE
  8
0
  6
CENTER
 62
     7
 10
631.43805
 20
19.87055
 11
851.97241
 21
19.87055
  0
LINE
  8
0
  6
CENTER
 62
     7
 10
744.38477
 20
80.508667
 11
744.38477
 21
-88.162743
  0
LINE
  8
0
  6
CONTINUOUS
 62
     7
 10
796.3537
 20
69.54335
 11
796.3537
 21
-30.118391
  0
LINE
  8
0
  6
CONTINUOUS
 62
     7
 10
695.53717
 20
68.870552
 11
793.23236
 21
68.870552
  0
LINE
  8
0
  6
CONTINUOUS
 62
     7
 10
795.91437
 20
70.931221
 11
794.29303
 21
69.309883
  0
LINE
  8
0
  6
CONTINUOUS
 62
     7
 10
793.8537
 20
68.007408
 11
793.8537
 21
-28.156523
  0
LINE
  8
0
  6
CONTINUOUS
 62
     7
 10
698.13477
 20
-79.129448
 11
790.63477
 21
-79.129448
  0
LINE
  8
0
  6
CONTINUOUS
 62
     7
 10
698.13477
 20
-57.995472
 11
698.13477
 21
-79.129448
  0
LINE
  8
0
  6
CONTINUOUS
 62
     7
 10
699.58588
 20
-57.129448
 11
789.16968
 21
-57.129448
  0
LINE
  8
0
  6
CONTINUOUS
 62
     7
 10
692.88477
 20
-39.629448
 11
692.88477
 21
-53.232334
  0
LINE
  8
0
  6
CONTINUOUS
 62
     7
 10
790.63477
 20
-57.750767
 11
790.63477
 21
-79.129448
  0
LINE
  8
0
  6
CONTINUOUS
 62
     7
 10
693.63477
 20
-54.531376
 11
697.38477
 21
-56.696445
  0
LINE
  8
0
  6
CONTINUOUS
 62
     7
 10
694.71198
 20
-54.098358
 11
794.37372
 21
-54.098358
  0
LINE
  8
0
  6
CONTINUOUS
 62
     7
 10
795.88477
 20
-39.629448
 11
795.88477
 21
-53.232334
  0
LINE
  8
0
  6
CONTINUOUS
 62
     7
 10
795.13477
 20
-54.53141
 11
791.38477
 21
-56.696449
  0
LINE
  8
0
  6
CONTINUOUS
 62
     7
 10
694.71198
 20
-32.098358
 11
794.37372
 21
-32.098358
  0
LINE
  8
0
  6
CONTINUOUS
 62
     7
 10
696.24792
 20
-29.59836
 11
792.4118
 21
-29.59836
  0
LINE
  8
0
  6
CENTER
 62
     7
 10
-143.62556
 20
-261.90656
 11
-143.62556
 21
-446.27109
  0
LINE
  8
0
  6
CONTINUOUS
 62
     7
 10
-83.801048
 20
-269.53922
 11
-83.801048
 21
-380.83371
  0
LINE
  8
0
  6
CONTINUOUS
 62
     7
 10
-84.240356
 20
-267.4003
 11
-85.861687
 21
-269.02164
  0
LINE
  8
0
  6
CONTINUOUS
 62
     7
 10
-200.32881
 20
-269.461
 11
-86.922325
 21
-269.461
  0
LINE
  8
0
  6
CONTINUOUS
 62
     7
 10
-86.301048
 20
-271.09058
 11
-86.301048
 21
-373.92661
  0
LINE
  8
0
  6
CONTINUOUS
 62
     7
 10
-196.12556
 20
-411.82703
 11
-196.12556
 21
-432.961
  0
LINE
  8
0
  6
CONTINUOUS
 62
     7
 10
-201.62556
 20
-390.961
 11
-201.62556
 21
-406.91956
  0
LINE
  8
0
  6
CONTINUOUS
 62
     7
 10
-196.12556
 20
-432.961
 11
-91.125572
 21
-432.961
  0
LINE
  8
0
  6
CONTINUOUS
 62
     7
 10
-193.84132
 20
-410.961
 11
-93.121361
 21
-410.961
  0
LINE
  8
0
  6
CONTINUOUS
 62
     7
 10
-200.87558
 20
-408.2186
 11
-196.8756
 21
-410.52798
  0
LINE
  8
0
  6
CONTINUOUS
 62
     7
 10
-199.04738
 20
-407.78555
 11
-87.752892
 21
-407.78555
  0
LINE
  8
0
  6
CONTINUOUS
 62
     7
 10
-91.125572
 20
-411.82703
 11
-91.125572
 21
-432.961
  0
LINE
  8
0
  6
CONTINUOUS
 62
     7
 10
-85.625572
 20
-390.961
 11
-85.625572
 21
-406.91956
  0
LINE
  8
0
  6
CONTINUOUS
 62
     7
 10
-86.375626
 20
-408.21857
 11
-90.375603
 21
-410.52795
  0
LINE
  8
0
  6
CONTINUOUS
 62
     7
 10
-199.04738
 20
-384.78555
 11
-87.752892
 21
-384.78555
  0
LINE
  8
0
  6
CONTINUOUS
 62
     7
 10
-197.49599
 20
-382.28555
 11
-94.659996
 21
-382.28555
  0
LINE
  8
0
  6
CENTER
 62
     7
 10
128.74051
 20
-358.41156
 11
128.74051
 21
-576.26489
  0
LINE
  8
0
  6
CONTINUOUS
 62
     7
 10
202.86641
 20
-369.85223
 11
54.614601
 21
-369.85223
  0
LINE
  8
0
  6
CONTINUOUS
 62
     7
 10
51.493294
 20
-370.84503
 11
51.493294
 21
-508.45676
  0
LINE
  8
0
  6
CONTINUOUS
 62
     7
 10
51.932621
 20
-367.79153
 11
53.553951
 21
-369.41287
  0
LINE
  8
0
  6
CONTINUOUS
 62
     7
 10
53.993294
 20
-372.48419
 11
53.993294
 21
-507.55688
  0
LINE
  8
0
  6
CONTINUOUS
 62
     7
 10
63.240501
 20
-566.35223
 11
194.24051
 21
-566.35223
  0
LINE
  8
0
  6
CONTINUOUS
 62
     7
 10
63.240501
 20
-546.21826
 11
63.240501
 21
-566.35223
  0
LINE
  8
0
  6
CONTINUOUS
 62
     7
 10
56.740501
 20
-521.35223
 11
56.740501
 21
-540.7334
  0
LINE
  8
0
  6
CONTINUOUS
 62
     7
 10
65.090187
 20
-545.35223
 11
192.66437
 21
-545.35223
  0
LINE
  8
0
  6
CONTINUOUS
 62
     7
 10
57.490517
 20
-542.03247
 11
62.490513
 21
-544.91919
  0
LINE
  8
0
  6
CONTINUOUS
 62
     7
 10
60.233299
 20
-541.59943
 11
197.84503
 21
-541.59943
  0
LINE
  8
0
  6
CONTINUOUS
 62
     7
 10
200.74051
 20
-521.35223
 11
200.74051
 21
-540.7334
  0
LINE
  8
0
  6
CONTINUOUS
 62
     7
 10
199.99051
 20
-542.03241
 11
194.99052
 21
-544.91919
  0
LINE
  8
0
  6
CONTINUOUS
 62
     7
 10
194.24051
 20
-546.21826
 11
194.24051
 21
-566.35223
  0
LINE
  8
0
  6
CONTINUOUS
 62
     7
 10
60.233299
 20
-516.59943
 11
197.84503
 21
-516.59943
  0
LINE
  8
0
  6
CONTINUOUS
 62
     7
 10
61.872475
 20
-514.09943
 11
196.94514
 21
-514.09943
  0
LINE
  8
0
  6
CONTINUOUS
 62
     7
 10
-287
 20
200
 11
-287
 21
-200
  0
LINE
  8
0
  6
CONTINUOUS
 62
     7
 10
-287
 20
200
 11
287
 21
200
  0
LINE
  8
0
  6
CONTINUOUS
 62
     7
 10
287
 20
200
 11
287
 21
-200
  0
LINE
  8
0
  6
CONTINUOUS
 62
     7
 10
-287
 20
-200
 11
287
 21
-200
  0
LINE
  8
0
  6
CENTER
 62
     7
 10
-11.684586
 20
-439.35223
 11
266.04163
 21
-439.35223
  0
LINE
  8
0
  6
CONTINUOUS
 62
     7
 10
-211.99719
 20
95.100182
 11
-211.99719
 21
62.100178
  0
LINE
  8
0
  6
CONTINUOUS
 62
     7
 10
-195.41141
 20
95.100182
 11
-211.99719
 21
95.100182
  0
LINE
  8
0
  6
CONTINUOUS
 62
     7
 10
-194.99719
 20
94.420639
 11
-194.99719
 21
62.972912
  0
LINE
  8
0
  6
CONTINUOUS
 62
     7
 10
-194.29007
 20
95.807297
 11
-194.70428
 21
95.393089
  0
LINE
  8
0
  6
CONTINUOUS
 62
     7
 10
-193.99719
 20
95.338821
 11
-193.99719
 21
62.054729
  0
LINE
  8
0
  6
CONTINUOUS
 62
     7
 10
-185.49719
 20
61.100178
 11
-193.58298
 21
61.100178
  0
LINE
  8
0
  6
CONTINUOUS
 62
     7
 10
-194.29007
 20
61.393082
 11
-194.70428
 21
61.807293
  0
LINE
  8
0
  6
CONTINUOUS
 62
     7
 10
-195.41141
 20
62.100178
 11
-211.99719
 21
62.100178
  0
LINE
  8
0
  6
CONTINUOUS
 62
     7
 10
-77.495575
 20
98.100182
 11
-77.495575
 21
59.100178
  0
LINE
  8
0
  6
CONTINUOUS
 62
     7
 10
-60.909775
 20
98.100182
 11
-77.495575
 21
98.100182
  0
LINE
  8
0
  6
CONTINUOUS
 62
     7
 10
-60.495575
 20
97.083817
 11
-60.495575
 21
59.868198
  0
LINE
  8
0
  6
CONTINUOUS
 62
     7
 10
-59.788464
 20
98.807297
 11
-60.202675
 21
98.393082
  0
LINE
  8
0
  6
CONTINUOUS
 62
     7
 10
-59.495575
 20
98.11586
 11
-59.495575
 21
58.954662
  0
LINE
  8
0
  6
CONTINUOUS
 62
     7
 10
-49.995575
 20
58.100178
 11
-59.08136
 21
58.100178
  0
LINE
  8
0
  6
CONTINUOUS
 62
     7
 10
-59.78846
 20
58.393082
 11
-60.202675
 21
58.807293
  0
LINE
  8
0
  6
CONTINUOUS
 62
     7
 10
-60.909775
 20
59.100178
 11
-77.495575
 21
59.100178
  0
LINE
  8
0
  6
CONTINUOUS
 62
     7
 10
86.271935
 20
101.60019
 11
86.271935
 21
55.600178
  0
LINE
  8
0
  6
CONTINUOUS
 62
     7
 10
107.85772
 20
101.60019
 11
86.271935
 21
101.60019
  0
LINE
  8
0
  6
CONTINUOUS
 62
     7
 10
108.27193
 20
99.928596
 11
108.27193
 21
57.148975
  0
LINE
  8
0
  6
CONTINUOUS
 62
     7
 10
109.47903
 20
102.80729
 11
108.56483
 21
101.89307
  0
LINE
  8
0
  6
CONTINUOUS
 62
     7
 10
109.77193
 20
101.27328
 11
109.77193
 21
55.712208
  0
LINE
  8
0
  6
CONTINUOUS
 62
     7
 10
121.77193
 20
54.100178
 11
110.18615
 21
54.100178
  0
LINE
  8
0
  6
CONTINUOUS
 62
     7
 10
107.85772
 20
55.600178
 11
86.271935
 21
55.600178
  0
LINE
  8
0
  6
CONTINUOUS
 62
     7
 10
109.47904
 20
54.39307
 11
108.56483
 21
55.307285
  0
LINE
  8
0
  6
CONTINUOUS
 62
     7
 10
-174.88446
 20
-63.204987
 11
-174.88446
 21
-119.20499
  0
LINE
  8
0
  6
CONTINUOUS
 62
     7
 10
-154.29866
 20
-63.204987
 11
-174.88446
 21
-63.204987
  0
LINE
  8
0
  6
CONTINUOUS
 62
     7
 10
-153.88446
 20
-65.477203
 11
-153.88446
 21
-118.19775
  0
LINE
  8
0
  6
CONTINUOUS
 62
     7
 10
-152.17734
 20
-61.497883
 11
-153.59155
 21
-62.912094
  0
LINE
  8
0
  6
CONTINUOUS
 62
     7
 10
-151.88446
 20
-63.325745
 11
-151.88446
 21
-119.48705
  0
LINE
  8
0
  6
CONTINUOUS
 62
     7
 10
-137.88448
 20
-121.20499
 11
-151.47025
 21
-121.20499
  0
LINE
  8
0
  6
CONTINUOUS
 62
     7
 10
-152.17735
 20
-120.91209
 11
-153.59157
 21
-119.49788
  0
LINE
  8
0
  6
CONTINUOUS
 62
     7
 10
-154.29866
 20
-119.20499
 11
-174.88446
 21
-119.20499
  0
LINE
  8
0
  6
CENTER
 62
     7
 10
390.63644
 20
17.924452
 11
576.0296
 21
17.924452
  0
LINE
  8
0
  6
CONTINUOUS
 62
     7
 10
73.988213
 20
-60.61187
 11
73.988213
 21
-122.61187
  0
LINE
  8
0
  6
CONTINUOUS
 62
     7
 10
94.574028
 20
-60.61187
 11
73.988213
 21
-60.61187
  0
LINE
  8
0
  6
CONTINUOUS
 62
     7
 10
198.82402
 20
-58.86187
 11
97.152458
 21
-58.86187
  0
LINE
  8
0
  6
CONTINUOUS
 62
     7
 10
94.988213
 20
-62.634083
 11
94.988213
 21
-120.59758
  0
LINE
  8
0
  6
CONTINUOUS
 62
     7
 10
96.445335
 20
-59.154766
 11
95.281128
 21
-60.318974
  0
LINE
  8
0
  6
CONTINUOUS
 62
     7
 10
110.23823
 20
-124.36187
 11
97.152458
 21
-124.36187
  0
LINE
  8
0
  6
CONTINUOUS
 62
     7
 10
96.445335
 20
-124.06898
 11
95.28112
 21
-122.90476
  0
LINE
  8
0
  6
CONTINUOUS
 62
     7
 10
94.574028
 20
-122.61187
 11
73.988213
 21
-122.61187
  0
LINE
  8
0
  6
CONTINUOUS
 62
     7
 10
96.738213
 20
-60.94207
 11
96.738213
 21
-122.21127
  0
LINE
  8
0
  6
CONTINUOUS
 62
     7
 10
400.82025
 20
54.924458
 11
400.82025
 21
-19.075548
  0
LINE
  8
0
  6
CONTINUOUS
 62
     7
 10
421.40604
 20
54.924458
 11
400.82025
 21
54.924458
  0
LINE
  8
0
  6
CONTINUOUS
 62
     7
 10
421.82025
 20
52.709164
 11
421.82025
 21
-17.202669
  0
LINE
  8
0
  6
CONTINUOUS
 62
     7
 10
424.02737
 20
57.131565
 11
422.11313
 21
55.217339
  0
LINE
  8
0
  6
CONTINUOUS
 62
     7
 10
424.32025
 20
54.639412
 11
424.32025
 21
-19.584719
  0
LINE
  8
0
  6
CONTINUOUS
 62
     7
 10
438.32025
 20
-21.575548
 11
424.73447
 21
-21.575548
  0
LINE
  8
0
  6
CONTINUOUS
 62
     7
 10
424.02734
 20
-21.282646
 11
422.11313
 21
-19.368443
  0
LINE
  8
0
  6
CONTINUOUS
 62
     7
 10
421.40604
 20
-19.075548
 11
400.82025
 21
-19.075548
  0
LINE
  8
0
  6
CONTINUOUS
 62
     7
 10
255.74051
 20
-373.85223
 11
255.74051
 21
-504.85223
  0
LINE
  8
0
  6
CONTINUOUS
 62
     7
 10
235.60654
 20
-373.85223
 11
255.74051
 21
-373.85223
  0
LINE
  8
0
  6
CONTINUOUS
 62
     7
 10
206.60905
 20
-367.35223
 11
230.1217
 21
-367.35223
  0
LINE
  8
0
  6
CONTINUOUS
 62
     7
 10
234.74051
 20
-375.7019
 11
234.74051
 21
-503.27609
  0
LINE
  8
0
  6
CONTINUOUS
 62
     7
 10
231.42075
 20
-368.1022
 11
234.3075
 21
-373.1022
  0
LINE
  8
0
  6
CONTINUOUS
 62
     7
 10
230.98773
 20
-370.84503
 11
230.98773
 21
-508.45676
  0
LINE
  8
0
  6
CONTINUOUS
 62
     7
 10
210.74051
 20
-511.35223
 11
230.1217
 21
-511.35223
  0
LINE
  8
0
  6
CONTINUOUS
 62
     7
 10
231.42073
 20
-510.60223
 11
234.30748
 21
-505.60223
  0
LINE
  8
0
  6
CONTINUOUS
 62
     7
 10
235.60654
 20
-504.85223
 11
255.74051
 21
-504.85223
  0
LINE
  8
0
  6
CONTINUOUS
 62
     7
 10
205.98773
 20
-370.84503
 11
205.98773
 21
-508.45676
  0
LINE
  8
0
  6
CONTINUOUS
 62
     7
 10
205.5484
 20
-367.79156
 11
203.92706
 21
-369.41287
  0
LINE
  8
0
  6
CONTINUOUS
 62
     7
 10
203.48773
 20
-372.48419
 11
203.48773
 21
-507.55688
  0
LINE
  8
0
  6
CONTINUOUS
 62
     7
 10
684.88477
 20
-31.62945
 11
671.28186
 21
-31.62945
  0
LINE
  8
0
  6
CONTINUOUS
 62
     7
 10
694.91583
 20
68.007408
 11
694.91583
 21
-28.156523
  0
LINE
  8
0
  6
CONTINUOUS
 62
     7
 10
692.41583
 20
69.54335
 11
692.41583
 21
-30.118391
  0
LINE
  8
0
  6
CONTINUOUS
 62
     7
 10
645.38477
 20
66.120552
 11
645.38477
 21
-26.37945
  0
LINE
  8
0
  6
CONTINUOUS
 62
     7
 10
666.51874
 20
66.120552
 11
645.38477
 21
66.120552
  0
LINE
  8
0
  6
CONTINUOUS
 62
     7
 10
667.38477
 20
64.669411
 11
667.38477
 21
-24.914381
  0
LINE
  8
0
  6
CONTINUOUS
 62
     7
 10
666.76343
 20
-26.37945
 11
645.38477
 21
-26.37945
  0
LINE
  8
0
  6
CONTINUOUS
 62
     7
 10
669.98285
 20
70.620552
 11
667.81775
 21
66.870537
  0
LINE
  8
0
  6
CONTINUOUS
 62
     7
 10
670.41583
 20
69.54335
 11
670.41583
 21
-30.118391
  0
LINE
  8
0
  6
CONTINUOUS
 62
     7
 10
669.98285
 20
-30.879473
 11
667.81775
 21
-27.129461
  0
LINE
  8
0
  6
CONTINUOUS
 62
     7
 10
692.85516
 20
70.931236
 11
694.4765
 21
69.309906
  0
LINE
  8
0
  6
CONTINUOUS
 62
     7
 10
691.79456
 20
71.370552
 11
671.28186
 21
71.370552
  0
LINE
  8
0
  6
CONTINUOUS
 62
     7
 10
-230.49159
 20
-272.461
 11
-251.62556
 21
-272.461
  0
LINE
  8
0
  6
CONTINUOUS
 62
     7
 10
-204.07143
 20
-266.961
 11
-225.58412
 21
-266.961
  0
LINE
  8
0
  6
CONTINUOUS
 62
     7
 10
-251.62556
 20
-272.461
 11
-251.62556
 21
-377.461
  0
LINE
  8
0
  6
CONTINUOUS
 62
     7
 10
-229.62556
 20
-274.74524
 11
-229.62556
 21
-375.46524
  0
LINE
  8
0
  6
CONTINUOUS
 62
     7
 10
-226.88313
 20
-267.711
 11
-229.19252
 21
-271.711
  0
LINE
  8
0
  6
CONTINUOUS
 62
     7
 10
-226.45009
 20
-269.53922
 11
-226.45009
 21
-380.83371
  0
LINE
  8
0
  6
CONTINUOUS
 62
     7
 10
-230.49159
 20
-377.461
 11
-251.62556
 21
-377.461
  0
LINE
  8
0
  6
CONTINUOUS
 62
     7
 10
-209.62556
 20
-382.961
 11
-225.58412
 21
-382.961
  0
LINE
  8
0
  6
CONTINUOUS
 62
     7
 10
-226.88312
 20
-382.211
 11
-229.19252
 21
-378.211
  0
LINE
  8
0
  6
CONTINUOUS
 62
     7
 10
-203.45009
 20
-269.53922
 11
-203.45009
 21
-380.83371
  0
LINE
  8
0
  6
CONTINUOUS
 62
     7
 10
-203.01079
 20
-267.40033
 11
-201.38947
 21
-269.02164
  0
LINE
  8
0
  6
CONTINUOUS
 62
     7
 10
-200.95009
 20
-271.09058
 11
-200.95009
 21
-373.92661
  0
LINE
  8
0
  6
CENTER
 62
     7
 10
-261.76157
 20
-324.961
 11
-26.93026
 21
-324.961
  0
LINE
  8
0
  6
CENTER
 62
     7
 10
-184.03731
 20
-91.204994
 11
-22.272703
 21
-91.204994
  0
LINE
  8
0
  6
CENTER
 62
     7
 10
78.971474
 20
78.600182
 11
225.83192
 21
78.600182
  0
LINE
  8
0
  6
CENTER
 62
     7
 10
-85.337746
 20
78.600182
 11
36.076588
 21
78.600182
  0
LINE
  8
0
  6
CONTINUOUS
 62
     7
 10
744.95215
 20
-60.80135
 11
744.95215
 21
-62.855679
  0
LINE
  8
0
  6
CONTINUOUS
 62
     7
 10
743.45215
 20
-60.80135
 11
743.45215
 21
-62.855679
  0
LINE
  8
0
  6
CONTINUOUS
 62
     7
 10
743.45215
 20
-73.747025
 11
743.45215
 21
-75.801353
  0
LINE
  8
0
  6
CONTINUOUS
 62
     7
 10
744.95215
 20
-73.747025
 11
744.95215
 21
-75.801353
  0
LINE
  8
0
  6
CONTINUOUS
 62
     7
 10
743.45215
 20
-64.361137
 11
743.45215
 21
-68.301353
  0
LINE
  8
0
  6
CONTINUOUS
 62
     7
 10
744.95215
 20
-64.361137
 11
744.95215
 21
-68.301353
  0
LINE
  8
0
  6
CONTINUOUS
 62
     7
 10
-25.08918
 20
40.018074
 11
-25.08918
 21
38.785469
  0
LINE
  8
0
  6
CONTINUOUS
 62
     7
 10
-25.989174
 20
40.018074
 11
-25.989174
 21
38.785469
  0
LINE
  8
0
  6
CONTINUOUS
 62
     7
 10
-25.989174
 20
32.250679
 11
-25.989174
 21
31.018074
  0
LINE
  8
0
  6
CONTINUOUS
 62
     7
 10
-25.08918
 20
32.250679
 11
-25.08918
 21
31.018074
  0
LINE
  8
0
  6
CONTINUOUS
 62
     7
 10
-25.989174
 20
37.88221
 11
-25.989174
 21
35.518074
  0
LINE
  8
0
  6
CONTINUOUS
 62
     7
 10
-25.08918
 20
37.88221
 11
-25.08918
 21
35.518074
  0
LINE
  8
0
  6
CONTINUOUS
 62
     7
 10
-102.31502
 20
-146.17015
 11
-102.31502
 21
-147.81361
  0
LINE
  8
0
  6
CONTINUOUS
 62
     7
 10
-103.51503
 20
-146.17015
 11
-103.51503
 21
-147.81361
  0
LINE
  8
0
  6
CONTINUOUS
 62
     7
 10
-103.51503
 20
-156.52669
 11
-103.51503
 21
-158.17015
  0
LINE
  8
0
  6
CONTINUOUS
 62
     7
 10
-102.31502
 20
-156.52669
 11
-102.31502
 21
-158.17015
  0
LINE
  8
0
  6
CONTINUOUS
 62
     7
 10
-103.51503
 20
-149.01797
 11
-103.51503
 21
-152.17015
  0
LINE
  8
0
  6
CONTINUOUS
 62
     7
 10
-102.31502
 20
-149.01797
 11
-102.31502
 21
-152.17015
  0
LINE
  8
0
  6
CONTINUOUS
 62
     7
 10
129.52383
 20
-547.36981
 11
129.52383
 21
-549.83502
  0
LINE
  8
0
  6
CONTINUOUS
 62
     7
 10
127.72384
 20
-547.36981
 11
127.72384
 21
-549.83502
  0
LINE
  8
0
  6
CONTINUOUS
 62
     7
 10
127.72384
 20
-562.9046
 11
127.72384
 21
-565.36981
  0
LINE
  8
0
  6
CONTINUOUS
 62
     7
 10
129.52383
 20
-562.9046
 11
129.52383
 21
-565.36981
  0
LINE
  8
0
  6
CONTINUOUS
 62
     7
 10
127.72384
 20
-551.64154
 11
127.72384
 21
-556.36981
  0
LINE
  8
0
  6
CONTINUOUS
 62
     7
 10
129.52383
 20
-551.64154
 11
129.52383
 21
-556.36981
  0
LINE
  8
0
  6
CONTINUOUS
 62
     7
 10
-164.59109
 20
44.765373
 11
-164.59109
 21
43.532768
  0
LINE
  8
0
  6
CONTINUOUS
 62
     7
 10
-165.49109
 20
44.765373
 11
-165.49109
 21
43.532768
  0
LINE
  8
0
  6
CONTINUOUS
 62
     7
 10
-165.49109
 20
36.997978
 11
-165.49109
 21
35.765373
  0
LINE
  8
0
  6
CONTINUOUS
 62
     7
 10
-164.59109
 20
36.997978
 11
-164.59109
 21
35.765373
  0
LINE
  8
0
  6
CONTINUOUS
 62
     7
 10
-165.49109
 20
42.629509
 11
-165.49109
 21
40.265373
  0
LINE
  8
0
  6
CONTINUOUS
 62
     7
 10
-164.59109
 20
42.629509
 11
-164.59109
 21
40.265373
  0
LINE
  8
0
  6
CONTINUOUS
 62
     7
 10
150.86784
 20
31.881632
 11
150.86784
 21
30.238169
  0
LINE
  8
0
  6
CONTINUOUS
 62
     7
 10
149.66783
 20
31.881632
 11
149.66783
 21
30.238169
  0
LINE
  8
0
  6
CONTINUOUS
 62
     7
 10
149.66783
 20
21.525095
 11
149.66783
 21
19.881632
  0
LINE
  8
0
  6
CONTINUOUS
 62
     7
 10
150.86784
 20
21.525095
 11
150.86784
 21
19.881632
  0
LINE
  8
0
  6
CONTINUOUS
 62
     7
 10
149.66783
 20
29.033808
 11
149.66783
 21
25.881632
  0
LINE
  8
0
  6
CONTINUOUS
 62
     7
 10
150.86784
 20
29.033808
 11
150.86784
 21
25.881632
  0
LINE
  8
0
  6
CONTINUOUS
 62
     7
 10
148.45531
 20
-148.37723
 11
148.45531
 21
-150.02069
  0
LINE
  8
0
  6
CONTINUOUS
 62
     7
 10
147.25529
 20
-148.37723
 11
147.25529
 21
-150.02069
  0
LINE
  8
0
  6
CONTINUOUS
 62
     7
 10
147.25529
 20
-158.73376
 11
147.25529
 21
-160.37723
  0
LINE
  8
0
  6
CONTINUOUS
 62
     7
 10
148.45531
 20
-158.73376
 11
148.45531
 21
-160.37723
  0
LINE
  8
0
  6
CONTINUOUS
 62
     7
 10
147.25529
 20
-151.22505
 11
147.25529
 21
-154.37723
  0
LINE
  8
0
  6
CONTINUOUS
 62
     7
 10
148.45531
 20
-151.22505
 11
148.45531
 21
-154.37723
  0
LINE
  8
0
  6
CONTINUOUS
 62
     7
 10
484.36279
 20
-46.823872
 11
484.36279
 21
-48.878201
  0
LINE
  8
0
  6
CONTINUOUS
 62
     7
 10
482.86279
 20
-46.823872
 11
482.86279
 21
-48.878201
  0
LINE
  8
0
  6
CONTINUOUS
 62
     7
 10
482.86279
 20
-59.769543
 11
482.86279
 21
-61.823872
  0
LINE
  8
0
  6
CONTINUOUS
 62
     7
 10
484.36279
 20
-59.769543
 11
484.36279
 21
-61.823872
  0
LINE
  8
0
  6
CONTINUOUS
 62
     7
 10
482.86279
 20
-50.383656
 11
482.86279
 21
-54.323872
  0
LINE
  8
0
  6
CONTINUOUS
 62
     7
 10
484.36279
 20
-50.383656
 11
484.36279
 21
-54.323872
  0
LINE
  8
0
  6
CONTINUOUS
 62
     7
 10
-142.86775
 20
-413.66791
 11
-142.86775
 21
-416.13312
  0
LINE
  8
0
  6
CONTINUOUS
 62
     7
 10
-144.66774
 20
-413.66791
 11
-144.66774
 21
-416.13312
  0
LINE
  8
0
  6
CONTINUOUS
 62
     7
 10
-144.66774
 20
-429.2027
 11
-144.66774
 21
-431.66791
  0
LINE
  8
0
  6
CONTINUOUS
 62
     7
 10
-142.86775
 20
-429.2027
 11
-142.86775
 21
-431.66791
  0
LINE
  8
0
  6
CONTINUOUS
 62
     7
 10
-144.66774
 20
-417.93964
 11
-144.66774
 21
-422.66791
  0
LINE
  8
0
  6
CONTINUOUS
 62
     7
 10
-142.86775
 20
-417.93964
 11
-142.86775
 21
-422.66791
  0
ARC
  8
0
  6
CONTINUOUS
 62
     7
 10
-134.58298
 20
96.100182
 40
1
 50
225
 51
270
  0
ARC
  8
0
  6
CONTINUOUS
 62
     7
 10
-136.41141
 20
95.100182
 40
1
 50
45.000001
 51
90.000003
  0
ARC
  8
0
  6
CONTINUOUS
 62
     7
 10
-134.58298
 20
61.100178
 40
1
 50
90.000003
 51
135
  0
ARC
  8
0
  6
CONTINUOUS
 62
     7
 10
-136.41141
 20
62.100178
 40
1
 50
270
 51
315
  0
ARC
  8
0
  6
CONTINUOUS
 62
     7
 10
9.9186392
 20
99.100182
 40
1
 50
225
 51
270
  0
ARC
  8
0
  6
CONTINUOUS
 62
     7
 10
8.090209
 20
98.100182
 40
1
 50
45.000001
 51
90.000003
  0
ARC
  8
0
  6
CONTINUOUS
 62
     7
 10
8.090209
 20
59.100178
 40
1
 50
270
 51
315
  0
ARC
  8
0
  6
CONTINUOUS
 62
     7
 10
9.9186392
 20
58.100178
 40
1
 50
90.000003
 51
135
  0
ARC
  8
0
  6
CONTINUOUS
 62
     7
 10
192.68614
 20
102.60019
 40
1
 50
225
 51
270
  0
ARC
  8
0
  6
CONTINUOUS
 62
     7
 10
190.35773
 20
102.10019
 40
1
 50
45.000001
 51
90.000003
  0
ARC
  8
0
  6
CONTINUOUS
 62
     7
 10
190.35773
 20
55.100178
 40
1
 50
270
 51
315
  0
ARC
  8
0
  6
CONTINUOUS
 62
     7
 10
192.68614
 20
54.600178
 40
1
 50
90.000003
 51
135
  0
ARC
  8
0
  6
CONTINUOUS
 62
     7
 10
-51.470261
 20
-62.204987
 40
1
 50
225
 51
270
  0
ARC
  8
0
  6
CONTINUOUS
 62
     7
 10
-54.298676
 20
-62.204987
 40
1
 50
45.000001
 51
90.000003
  0
ARC
  8
0
  6
CONTINUOUS
 62
     7
 10
-54.298676
 20
-120.20499
 40
1
 50
270
 51
315
  0
ARC
  8
0
  6
CONTINUOUS
 62
     7
 10
-51.470261
 20
-120.20499
 40
1
 50
90.000003
 51
135
  0
ARC
  8
0
  6
CONTINUOUS
 62
     7
 10
201.40245
 20
-59.61187
 40
1
 50
225
 51
270
  0
ARC
  8
0
  6
CONTINUOUS
 62
     7
 10
198.82402
 20
-59.86187
 40
1
 50
45.000001
 51
90.000003
  0
ARC
  8
0
  6
CONTINUOUS
 62
     7
 10
198.82402
 20
-123.36187
 40
1
 50
270
 51
315
  0
ARC
  8
0
  6
CONTINUOUS
 62
     7
 10
201.40245
 20
-123.61187
 40
1
 50
90.000003
 51
135
  0
ARC
  8
0
  6
CONTINUOUS
 62
     7
 10
546.2345
 20
55.924458
 40
1
 50
225
 51
270
  0
ARC
  8
0
  6
CONTINUOUS
 62
     7
 10
542.90607
 20
56.424458
 40
1
 50
45.000001
 51
90.000003
  0
ARC
  8
0
  6
CONTINUOUS
 62
     7
 10
542.90607
 20
-20.575548
 40
1
 50
270
 51
315
  0
ARC
  8
0
  6
CONTINUOUS
 62
     7
 10
546.2345
 20
-20.075548
 40
1
 50
90.000003
 51
135
  0
ARC
  8
0
  6
CONTINUOUS
 62
     7
 10
21.874487
 20
-372.35223
 40
1.5
 50
270
 51
330
  0
ARC
  8
0
  6
CONTINUOUS
 62
     7
 10
27.359304
 20
-368.85223
 40
1.5
 50
89.999996
 51
150
  0
ARC
  8
0
  6
CONTINUOUS
 62
     7
 10
27.359304
 20
-509.85223
 40
1.5
 50
210
 51
270
  0
ARC
  8
0
  6
CONTINUOUS
 62
     7
 10
21.874487
 20
-506.35223
 40
1.5
 50
30.000004
 51
89.999996
  0
ARC
  8
0
  6
CONTINUOUS
 62
     7
 10
-56.759541
 20
-270.961
 40
1.5
 50
210
 51
270
  0
ARC
  8
0
  6
CONTINUOUS
 62
     7
 10
-61.667011
 20
-268.461
 40
1.5
 50
30.000001
 51
90.000003
  0
ARC
  8
0
  6
CONTINUOUS
 62
     7
 10
822.25079
 20
67.620552
 40
1.5
 50
210
 51
270
  0
ARC
  8
0
  6
CONTINUOUS
 62
     7
 10
817.48767
 20
69.870552
 40
1.5
 50
30.000001
 51
90.000003
  0
ARC
  8
0
  6
CONTINUOUS
 62
     7
 10
817.48767
 20
-30.12945
 40
1.5
 50
270
 51
330
  0
ARC
  8
0
  6
CONTINUOUS
 62
     7
 10
822.25079
 20
-27.87945
 40
1.5
 50
90.000003
 51
150
  0
ARC
  8
0
  6
CONTINUOUS
 62
     7
 10
-56.759541
 20
-378.961
 40
1.5
 50
90.000003
 51
150
  0
ARC
  8
0
  6
CONTINUOUS
 62
     7
 10
-61.667011
 20
-381.461
 40
1.5
 50
270
 51
330
  0
ARC
  8
0
  6
CONTINUOUS
 62
     7
 10
-148.49719
 20
50.014393
 40
1
 50
315
 51
0
  0
ARC
  8
0
  6
CONTINUOUS
 62
     7
 10
-182.49719
 20
48.18597
 40
1
 50
0
 51
45.000001
  0
ARC
  8
0
  6
CONTINUOUS
 62
     7
 10
-181.49719
 20
50.014393
 40
1
 50
179.99999
 51
225
  0
ARC
  8
0
  6
CONTINUOUS
 62
     7
 10
-147.49719
 20
48.18597
 40
1
 50
135
 51
180.00001
  0
ARC
  8
0
  6
CONTINUOUS
 62
     7
 10
-4.9955759
 20
43.18597
 40
1
 50
135
 51
180.00001
  0
ARC
  8
0
  6
CONTINUOUS
 62
     7
 10
-45.995575
 20
43.18597
 40
1
 50
0
 51
45.000001
  0
ARC
  8
0
  6
CONTINUOUS
 62
     7
 10
-44.995575
 20
45.014393
 40
1
 50
179.99999
 51
225
  0
ARC
  8
0
  6
CONTINUOUS
 62
     7
 10
-5.9955759
 20
45.014393
 40
1
 50
315
 51
0
  0
ARC
  8
0
  6
CONTINUOUS
 62
     7
 10
174.27194
 20
36.185966
 40
1
 50
135
 51
180.00001
  0
ARC
  8
0
  6
CONTINUOUS
 62
     7
 10
126.27193
 20
36.185966
 40
1
 50
0
 51
45.000001
  0
ARC
  8
0
  6
CONTINUOUS
 62
     7
 10
126.77193
 20
38.514393
 40
1
 50
179.99999
 51
225
  0
ARC
  8
0
  6
CONTINUOUS
 62
     7
 10
173.77194
 20
38.514393
 40
1
 50
315
 51
0
  0
ARC
  8
0
  6
CONTINUOUS
 62
     7
 10
-73.88446
 20
-142.6192
 40
1
 50
135
 51
180.00001
  0
ARC
  8
0
  6
CONTINUOUS
 62
     7
 10
-131.88448
 20
-142.6192
 40
1
 50
0
 51
45.000001
  0
ARC
  8
0
  6
CONTINUOUS
 62
     7
 10
-131.88448
 20
-139.79077
 40
1
 50
179.99999
 51
225
  0
ARC
  8
0
  6
CONTINUOUS
 62
     7
 10
-73.88446
 20
-139.79077
 40
1
 50
315
 51
0
  0
ARC
  8
0
  6
CONTINUOUS
 62
     7
 10
179.98824
 20
-145.02608
 40
1
 50
135
 51
180.00001
  0
ARC
  8
0
  6
CONTINUOUS
 62
     7
 10
115.98823
 20
-145.02608
 40
1
 50
0
 51
45.000001
  0
ARC
  8
0
  6
CONTINUOUS
 62
     7
 10
116.23823
 20
-142.44766
 40
1
 50
179.99999
 51
225
  0
ARC
  8
0
  6
CONTINUOUS
 62
     7
 10
179.73824
 20
-142.44766
 40
1
 50
315
 51
0
  0
ARC
  8
0
  6
CONTINUOUS
 62
     7
 10
521.82025
 20
-44.489761
 40
1
 50
135
 51
180.00001
  0
ARC
  8
0
  6
CONTINUOUS
 62
     7
 10
445.82025
 20
-44.489761
 40
1
 50
0
 51
45.000001
  0
ARC
  8
0
  6
CONTINUOUS
 62
     7
 10
445.32025
 20
-41.161331
 40
1
 50
179.99999
 51
225
  0
ARC
  8
0
  6
CONTINUOUS
 62
     7
 10
522.32025
 20
-41.161331
 40
1
 50
315
 51
0
  0
ARC
  8
0
  6
CONTINUOUS
 62
     7
 10
796.97498
 20
69.870552
 40
1.5
 50
90.000003
 51
135
  0
ARC
  8
0
  6
CONTINUOUS
 62
     7
 10
793.23236
 20
70.370552
 40
1.5
 50
270
 51
315
  0
ARC
  8
0
  6
CONTINUOUS
 62
     7
 10
696.63477
 20
-57.995472
 40
1.5
 50
0
 51
60.000002
  0
ARC
  8
0
  6
CONTINUOUS
 62
     7
 10
694.38477
 20
-53.232334
 40
1.5
 50
179.99999
 51
240.00001
  0
ARC
  8
0
  6
CONTINUOUS
 62
     7
 10
794.38477
 20
-53.232334
 40
1.5
 50
300
 51
0
  0
ARC
  8
0
  6
CONTINUOUS
 62
     7
 10
792.13477
 20
-57.995472
 40
1.5
 50
120
 51
180.00001
  0
ARC
  8
0
  6
CONTINUOUS
 62
     7
 10
-83.17971
 20
-268.461
 40
1.5
 50
90.000003
 51
135
  0
ARC
  8
0
  6
CONTINUOUS
 62
     7
 10
-86.922325
 20
-267.961
 40
1.5
 50
270
 51
315
  0
ARC
  8
0
  6
CONTINUOUS
 62
     7
 10
-197.62556
 20
-411.82703
 40
1.5
 50
0
 51
60.000002
  0
ARC
  8
0
  6
CONTINUOUS
 62
     7
 10
-200.12556
 20
-406.91956
 40
1.5
 50
179.99999
 51
240.00001
  0
ARC
  8
0
  6
CONTINUOUS
 62
     7
 10
-89.625572
 20
-411.82703
 40
1.5
 50
120
 51
180.00001
  0
ARC
  8
0
  6
CONTINUOUS
 62
     7
 10
-87.125572
 20
-406.91956
 40
1.5
 50
300
 51
0
  0
ARC
  8
0
  6
CONTINUOUS
 62
     7
 10
50.871971
 20
-368.85223
 40
1.5
 50
45.000001
 51
89.999996
  0
ARC
  8
0
  6
CONTINUOUS
 62
     7
 10
54.614601
 20
-368.35223
 40
1.5
 50
225
 51
270
  0
ARC
  8
0
  6
CONTINUOUS
 62
     7
 10
61.740501
 20
-546.21826
 40
1.5
 50
0
 51
60.000002
  0
ARC
  8
0
  6
CONTINUOUS
 62
     7
 10
58.240501
 20
-540.7334
 40
1.5
 50
179.99999
 51
240.00001
  0
ARC
  8
0
  6
CONTINUOUS
 62
     7
 10
199.24051
 20
-540.7334
 40
1.5
 50
300
 51
0
  0
ARC
  8
0
  6
CONTINUOUS
 62
     7
 10
195.74051
 20
-546.21826
 40
1.5
 50
120
 51
180.00001
  0
ARC
  8
0
  6
CONTINUOUS
 62
     7
 10
-193.58298
 20
62.100178
 40
1
 50
225
 51
270
  0
ARC
  8
0
  6
CONTINUOUS
 62
     7
 10
-195.41141
 20
96.100182
 40
1
 50
270
 51
315
  0
ARC
  8
0
  6
CONTINUOUS
 62
     7
 10
-193.58298
 20
95.100182
 40
1
 50
89.999996
 51
135
  0
ARC
  8
0
  6
CONTINUOUS
 62
     7
 10
-195.41141
 20
61.100178
 40
1
 50
45.000001
 51
89.999996
  0
ARC
  8
0
  6
CONTINUOUS
 62
     7
 10
-60.909775
 20
58.100178
 40
1
 50
45.000001
 51
89.999996
  0
ARC
  8
0
  6
CONTINUOUS
 62
     7
 10
-60.909775
 20
99.100182
 40
1
 50
270
 51
315
  0
ARC
  8
0
  6
CONTINUOUS
 62
     7
 10
-59.08136
 20
98.100182
 40
1
 50
89.999996
 51
135
  0
ARC
  8
0
  6
CONTINUOUS
 62
     7
 10
-59.08136
 20
59.100178
 40
1
 50
225
 51
270
  0
ARC
  8
0
  6
CONTINUOUS
 62
     7
 10
107.85772
 20
54.600178
 40
1
 50
45.000001
 51
89.999996
  0
ARC
  8
0
  6
CONTINUOUS
 62
     7
 10
107.85772
 20
102.60019
 40
1
 50
270
 51
315
  0
ARC
  8
0
  6
CONTINUOUS
 62
     7
 10
110.18615
 20
102.10019
 40
1
 50
89.999996
 51
135
  0
ARC
  8
0
  6
CONTINUOUS
 62
     7
 10
110.18615
 20
55.100178
 40
1
 50
225
 51
270
  0
ARC
  8
0
  6
CONTINUOUS
 62
     7
 10
-154.29866
 20
-120.20499
 40
1
 50
45.000001
 51
89.999996
  0
ARC
  8
0
  6
CONTINUOUS
 62
     7
 10
-154.29866
 20
-62.204987
 40
1
 50
270
 51
315
  0
ARC
  8
0
  6
CONTINUOUS
 62
     7
 10
-151.47025
 20
-62.204987
 40
1
 50
89.999996
 51
135
  0
ARC
  8
0
  6
CONTINUOUS
 62
     7
 10
-151.47025
 20
-120.20499
 40
1
 50
225
 51
270
  0
ARC
  8
0
  6
CONTINUOUS
 62
     7
 10
94.574028
 20
-123.61187
 40
1
 50
45.000001
 51
89.999996
  0
ARC
  8
0
  6
CONTINUOUS
 62
     7
 10
94.574028
 20
-59.61187
 40
1
 50
270
 51
315
  0
ARC
  8
0
  6
CONTINUOUS
 62
     7
 10
97.152458
 20
-59.86187
 40
1
 50
89.999996
 51
135
  0
ARC
  8
0
  6
CONTINUOUS
 62
     7
 10
97.152458
 20
-123.36187
 40
1
 50
225
 51
270
  0
ARC
  8
0
  6
CONTINUOUS
 62
     7
 10
421.40604
 20
-20.075548
 40
1
 50
45.000001
 51
89.999996
  0
ARC
  8
0
  6
CONTINUOUS
 62
     7
 10
421.40604
 20
55.924458
 40
1
 50
270
 51
315
  0
ARC
  8
0
  6
CONTINUOUS
 62
     7
 10
424.73447
 20
56.424458
 40
1
 50
89.999996
 51
135
  0
ARC
  8
0
  6
CONTINUOUS
 62
     7
 10
424.73447
 20
-20.575548
 40
1
 50
225
 51
270
  0
ARC
  8
0
  6
CONTINUOUS
 62
     7
 10
235.60654
 20
-372.35223
 40
1.5
 50
210
 51
270
  0
ARC
  8
0
  6
CONTINUOUS
 62
     7
 10
230.1217
 20
-368.85223
 40
1.5
 50
30.000001
 51
90.000003
  0
ARC
  8
0
  6
CONTINUOUS
 62
     7
 10
230.1217
 20
-509.85223
 40
1.5
 50
270
 51
330
  0
ARC
  8
0
  6
CONTINUOUS
 62
     7
 10
235.60654
 20
-506.35223
 40
1.5
 50
90.000003
 51
150
  0
ARC
  8
0
  6
CONTINUOUS
 62
     7
 10
206.60905
 20
-368.85223
 40
1.5
 50
90.000003
 51
135
  0
ARC
  8
0
  6
CONTINUOUS
 62
     7
 10
202.86641
 20
-368.35223
 40
1.5
 50
270
 51
315
  0
ARC
  8
0
  6
CONTINUOUS
 62
     7
 10
666.51874
 20
-27.87945
 40
1.5
 50
30.000004
 51
89.999996
  0
ARC
  8
0
  6
CONTINUOUS
 62
     7
 10
666.51874
 20
67.620552
 40
1.5
 50
270
 51
330
  0
ARC
  8
0
  6
CONTINUOUS
 62
     7
 10
671.28186
 20
69.870552
 40
1.5
 50
89.999996
 51
150
  0
ARC
  8
0
  6
CONTINUOUS
 62
     7
 10
671.28186
 20
-30.12945
 40
1.5
 50
210
 51
270
  0
ARC
  8
0
  6
CONTINUOUS
 62
     7
 10
691.79456
 20
69.870552
 40
1.5
 50
45.000001
 51
89.999996
  0
ARC
  8
0
  6
CONTINUOUS
 62
     7
 10
695.53717
 20
70.370552
 40
1.5
 50
225
 51
270
  0
ARC
  8
0
  6
CONTINUOUS
 62
     7
 10
-144.49719
 20
58.100178
 40
3
 50
90.000003
 51
180.00001
  0
ARC
  8
0
  6
CONTINUOUS
 62
     7
 10
-185.49719
 20
58.100178
 40
3
 50
0
 51
90.000003
  0
ARC
  8
0
  6
CONTINUOUS
 62
     7
 10
-49.995575
 20
54.100178
 40
4
 50
0
 51
90.000003
  0
ARC
  8
0
  6
CONTINUOUS
 62
     7
 10
-0.99557602
 20
54.100178
 40
4
 50
90.000003
 51
180.00001
  0
ARC
  8
0
  6
CONTINUOUS
 62
     7
 10
121.77193
 20
50.100178
 40
4
 50
0
 51
90.000003
  0
ARC
  8
0
  6
CONTINUOUS
 62
     7
 10
178.77194
 20
50.100178
 40
4
 50
90.000003
 51
180.00001
  0
ARC
  8
0
  6
CONTINUOUS
 62
     7
 10
-137.88448
 20
-126.20499
 40
5
 50
0
 51
90.000003
  0
ARC
  8
0
  6
CONTINUOUS
 62
     7
 10
-67.88446
 20
-126.20499
 40
5
 50
90.000003
 51
180.00001
  0
ARC
  8
0
  6
CONTINUOUS
 62
     7
 10
110.23823
 20
-129.36188
 40
5
 50
0
 51
90.000003
  0
ARC
  8
0
  6
CONTINUOUS
 62
     7
 10
185.73824
 20
-129.36188
 40
5
 50
90.000003
 51
180.00001
  0
ARC
  8
0
  6
CONTINUOUS
 62
     7
 10
438.32025
 20
-27.575548
 40
6
 50
0
 51
90.000003
  0
ARC
  8
0
  6
CONTINUOUS
 62
     7
 10
529.32025
 20
-27.575548
 40
6
 50
90.000003
 51
180.00001
  0
ARC
  8
0
  6
CONTINUOUS
 62
     7
 10
684.88477
 20
-39.629448
 40
8
 50
0
 51
90.000003
  0
ARC
  8
0
  6
CONTINUOUS
 62
     7
 10
803.88477
 20
-39.629448
 40
8
 50
90.000003
 51
180.00001
  0
ARC
  8
0
  6
CONTINUOUS
 62
     7
 10
-200.32881
 20
-267.961
 40
1.5
 50
225
 51
270
  0
ARC
  8
0
  6
CONTINUOUS
 62
     7
 10
-230.49159
 20
-270.961
 40
1.5
 50
270
 51
330
  0
ARC
  8
0
  6
CONTINUOUS
 62
     7
 10
-225.58412
 20
-268.461
 40
1.5
 50
89.999996
 51
150
  0
ARC
  8
0
  6
CONTINUOUS
 62
     7
 10
-230.49159
 20
-378.961
 40
1.5
 50
30.000004
 51
89.999996
  0
ARC
  8
0
  6
CONTINUOUS
 62
     7
 10
-225.58412
 20
-381.461
 40
1.5
 50
210
 51
270
  0
ARC
  8
0
  6
CONTINUOUS
 62
     7
 10
-204.07143
 20
-268.461
 40
1.5
 50
45.000001
 51
89.999996
  0
ARC
  8
0
  6
CONTINUOUS
 62
     7
 10
-209.62556
 20
-390.961
 40
8
 50
0
 51
90.000003
  0
ARC
  8
0
  6
CONTINUOUS
 62
     7
 10
-77.625572
 20
-390.961
 40
8
 50
90.000003
 51
180.00001
  0
ARC
  8
0
  6
CONTINUOUS
 62
     7
 10
46.740501
 20
-521.35223
 40
10
 50
0
 51
90.000003
  0
ARC
  8
0
  6
CONTINUOUS
 62
     7
 10
210.74051
 20
-521.35223
 40
10
 50
90.000003
 51
180.00001
  0
ARC
  8
0
  6
CONTINUOUS
 62
     7
 10
747.20215
 20
-68.301353
 40
3
 50
306.00833
 51
53.991676
  0
ARC
  8
0
  6
CONTINUOUS
 62
     7
 10
747.20215
 20
-68.301353
 40
4.5
 50
306.00833
 51
53.991676
  0
ARC
  8
0
  6
CONTINUOUS
 62
     7
 10
741.20215
 20
-68.301353
 40
3
 50
126.00833
 51
233.99168
  0
ARC
  8
0
  6
CONTINUOUS
 62
     7
 10
741.20215
 20
-68.301353
 40
4.5
 50
126.00833
 51
233.99168
  0
ARC
  8
0
  6
CONTINUOUS
 62
     7
 10
744.20215
 20
-72.429237
 40
9.6028843
 50
53.991676
 51
85.520553
  0
ARC
  8
0
  6
CONTINUOUS
 62
     7
 10
744.20215
 20
-72.429237
 40
8.1028843
 50
53.991676
 51
84.689121
  0
ARC
  8
0
  6
CONTINUOUS
 62
     7
 10
744.20215
 20
-64.17347
 40
8.1028843
 50
233.99167
 51
306.00832
  0
ARC
  8
0
  6
CONTINUOUS
 62
     7
 10
744.20215
 20
-64.17347
 40
9.6028843
 50
233.99167
 51
265.52055
  0
ARC
  8
0
  6
CONTINUOUS
 62
     7
 10
744.20215
 20
-61.36385
 40
0.9375
 50
36.869897
 51
143.1301
  0
ARC
  8
0
  6
CONTINUOUS
 62
     7
 10
744.20215
 20
-67.738853
 40
0.9375
 50
216.8699
 51
323.13009
  0
ARC
  8
0
  6
CONTINUOUS
 62
     7
 10
744.20215
 20
-75.238853
 40
0.9375
 50
216.8699
 51
323.13009
  0
ARC
  8
0
  6
CONTINUOUS
 62
     7
 10
744.20215
 20
-72.429237
 40
9.6028843
 50
94.479452
 51
126.00833
  0
ARC
  8
0
  6
CONTINUOUS
 62
     7
 10
744.20215
 20
-72.429237
 40
8.1028843
 50
95.310878
 51
126.00833
  0
ARC
  8
0
  6
CONTINUOUS
 62
     7
 10
744.20215
 20
-64.17347
 40
9.6028843
 50
274.47945
 51
306.00833
  0
ARC
  8
0
  6
CONTINUOUS
 62
     7
 10
-23.739174
 20
35.518074
 40
1.8
 50
306.00833
 51
53.991676
  0
ARC
  8
0
  6
CONTINUOUS
 62
     7
 10
-23.739174
 20
35.518074
 40
2.7
 50
306.00833
 51
53.991676
  0
ARC
  8
0
  6
CONTINUOUS
 62
     7
 10
-27.33918
 20
35.518074
 40
1.8
 50
126.00833
 51
233.99168
  0
ARC
  8
0
  6
CONTINUOUS
 62
     7
 10
-27.33918
 20
35.518074
 40
2.7
 50
126.00833
 51
233.99168
  0
ARC
  8
0
  6
CONTINUOUS
 62
     7
 10
-25.539162
 20
33.041344
 40
5.7617307
 50
53.991676
 51
85.520553
  0
ARC
  8
0
  6
CONTINUOUS
 62
     7
 10
-25.539162
 20
33.041344
 40
4.8617306
 50
53.991676
 51
84.689121
  0
ARC
  8
0
  6
CONTINUOUS
 62
     7
 10
-25.539162
 20
37.994804
 40
4.8617306
 50
233.99167
 51
306.00832
  0
ARC
  8
0
  6
CONTINUOUS
 62
     7
 10
-25.539162
 20
37.994804
 40
5.7617307
 50
233.99167
 51
265.52055
  0
ARC
  8
0
  6
CONTINUOUS
 62
     7
 10
-25.539162
 20
39.68058
 40
0.5625
 50
36.869897
 51
143.1301
  0
ARC
  8
0
  6
CONTINUOUS
 62
     7
 10
-25.539162
 20
35.855568
 40
0.5625
 50
216.8699
 51
323.13009
  0
ARC
  8
0
  6
CONTINUOUS
 62
     7
 10
-25.539162
 20
31.355568
 40
0.5625
 50
216.8699
 51
323.13009
  0
ARC
  8
0
  6
CONTINUOUS
 62
     7
 10
-25.539162
 20
33.041344
 40
5.7617307
 50
94.479452
 51
126.00833
  0
ARC
  8
0
  6
CONTINUOUS
 62
     7
 10
-25.539162
 20
33.041344
 40
4.8617306
 50
95.310878
 51
126.00833
  0
ARC
  8
0
  6
CONTINUOUS
 62
     7
 10
-25.539162
 20
37.994804
 40
5.7617307
 50
274.47945
 51
306.00833
  0
ARC
  8
0
  6
CONTINUOUS
 62
     7
 10
-100.51503
 20
-152.17015
 40
2.4000001
 50
306.00833
 51
53.991676
  0
ARC
  8
0
  6
CONTINUOUS
 62
     7
 10
-100.51503
 20
-152.17015
 40
3.5999999
 50
306.00833
 51
53.991676
  0
ARC
  8
0
  6
CONTINUOUS
 62
     7
 10
-105.31502
 20
-152.17015
 40
2.4000001
 50
126.00833
 51
233.99168
  0
ARC
  8
0
  6
CONTINUOUS
 62
     7
 10
-105.31502
 20
-152.17015
 40
3.5999999
 50
126.00833
 51
233.99168
  0
ARC
  8
0
  6
CONTINUOUS
 62
     7
 10
-102.91502
 20
-155.47246
 40
7.6823077
 50
53.991676
 51
85.520553
  0
ARC
  8
0
  6
CONTINUOUS
 62
     7
 10
-102.91502
 20
-155.47246
 40
6.4823079
 50
53.991676
 51
84.689121
  0
ARC
  8
0
  6
CONTINUOUS
 62
     7
 10
-102.91502
 20
-148.86784
 40
6.4823079
 50
233.99167
 51
306.00832
  0
ARC
  8
0
  6
CONTINUOUS
 62
     7
 10
-102.91502
 20
-148.86784
 40
7.6823077
 50
233.99167
 51
265.52055
  0
ARC
  8
0
  6
CONTINUOUS
 62
     7
 10
-102.91502
 20
-146.62015
 40
0.75
 50
36.869897
 51
143.1301
  0
ARC
  8
0
  6
CONTINUOUS
 62
     7
 10
-102.91502
 20
-151.72015
 40
0.75
 50
216.8699
 51
323.13009
  0
ARC
  8
0
  6
CONTINUOUS
 62
     7
 10
-102.91502
 20
-157.72015
 40
0.75
 50
216.8699
 51
323.13009
  0
ARC
  8
0
  6
CONTINUOUS
 62
     7
 10
-102.91502
 20
-155.47246
 40
6.4823079
 50
95.310878
 51
126.00833
  0
ARC
  8
0
  6
CONTINUOUS
 62
     7
 10
-102.91502
 20
-155.47246
 40
7.6823077
 50
94.479452
 51
126.00833
  0
ARC
  8
0
  6
CONTINUOUS
 62
     7
 10
-102.91502
 20
-148.86784
 40
7.6823077
 50
274.47945
 51
306.00833
  0
ARC
  8
0
  6
CONTINUOUS
 62
     7
 10
132.22385
 20
-556.36981
 40
3.5999999
 50
306.00833
 51
53.991676
  0
ARC
  8
0
  6
CONTINUOUS
 62
     7
 10
132.22385
 20
-556.36981
 40
5.4000001
 50
306.00833
 51
53.991676
  0
ARC
  8
0
  6
CONTINUOUS
 62
     7
 10
125.02383
 20
-556.36981
 40
3.5999999
 50
126.00833
 51
233.99168
  0
ARC
  8
0
  6
CONTINUOUS
 62
     7
 10
125.02383
 20
-556.36981
 40
5.4000001
 50
126.00833
 51
233.99168
  0
ARC
  8
0
  6
CONTINUOUS
 62
     7
 10
128.62381
 20
-561.3233
 40
11.523461
 50
53.991676
 51
85.520553
  0
ARC
  8
0
  6
CONTINUOUS
 62
     7
 10
128.62381
 20
-561.3233
 40
9.7234612
 50
53.991676
 51
84.689121
  0
ARC
  8
0
  6
CONTINUOUS
 62
     7
 10
128.62381
 20
-551.41638
 40
9.7234612
 50
233.99167
 51
306.00832
  0
ARC
  8
0
  6
CONTINUOUS
 62
     7
 10
128.62381
 20
-551.41638
 40
11.523461
 50
233.99167
 51
265.52055
  0
ARC
  8
0
  6
CONTINUOUS
 62
     7
 10
128.62381
 20
-548.0448
 40
1.125
 50
36.869897
 51
143.1301
  0
ARC
  8
0
  6
CONTINUOUS
 62
     7
 10
128.62381
 20
-555.69482
 40
1.125
 50
216.8699
 51
323.13009
  0
ARC
  8
0
  6
CONTINUOUS
 62
     7
 10
128.62381
 20
-564.69482
 40
1.125
 50
216.8699
 51
323.13009
  0
ARC
  8
0
  6
CONTINUOUS
 62
     7
 10
128.62381
 20
-561.3233
 40
11.523461
 50
94.479452
 51
126.00833
  0
ARC
  8
0
  6
CONTINUOUS
 62
     7
 10
128.62381
 20
-561.3233
 40
9.7234612
 50
95.310878
 51
126.00833
  0
ARC
  8
0
  6
CONTINUOUS
 62
     7
 10
128.62381
 20
-551.41638
 40
11.523461
 50
274.47945
 51
306.00833
  0
ARC
  8
0
  6
CONTINUOUS
 62
     7
 10
-163.24109
 20
40.265373
 40
1.8
 50
306.00833
 51
53.991676
  0
ARC
  8
0
  6
CONTINUOUS
 62
     7
 10
-163.24109
 20
40.265373
 40
2.7
 50
306.00833
 51
53.991676
  0
ARC
  8
0
  6
CONTINUOUS
 62
     7
 10
-166.84109
 20
40.265373
 40
1.8
 50
126.00833
 51
233.99168
  0
ARC
  8
0
  6
CONTINUOUS
 62
     7
 10
-166.84109
 20
40.265373
 40
2.7
 50
126.00833
 51
233.99168
  0
ARC
  8
0
  6
CONTINUOUS
 62
     7
 10
-165.04108
 20
37.788643
 40
5.7617307
 50
53.991676
 51
85.520553
  0
ARC
  8
0
  6
CONTINUOUS
 62
     7
 10
-165.04108
 20
37.788643
 40
4.8617306
 50
53.991676
 51
84.689121
  0
ARC
  8
0
  6
CONTINUOUS
 62
     7
 10
-165.04108
 20
42.742104
 40
4.8617306
 50
233.99167
 51
306.00832
  0
ARC
  8
0
  6
CONTINUOUS
 62
     7
 10
-165.04108
 20
42.742104
 40
5.7617307
 50
233.99167
 51
265.52055
  0
ARC
  8
0
  6
CONTINUOUS
 62
     7
 10
-165.04108
 20
44.427879
 40
0.5625
 50
36.869897
 51
143.1301
  0
ARC
  8
0
  6
CONTINUOUS
 62
     7
 10
-165.04108
 20
40.602867
 40
0.5625
 50
216.8699
 51
323.13009
  0
ARC
  8
0
  6
CONTINUOUS
 62
     7
 10
-165.04108
 20
36.102867
 40
0.5625
 50
216.8699
 51
323.13009
  0
ARC
  8
0
  6
CONTINUOUS
 62
     7
 10
-165.04108
 20
37.788643
 40
5.7617307
 50
94.479452
 51
126.00833
  0
ARC
  8
0
  6
CONTINUOUS
 62
     7
 10
-165.04108
 20
37.788643
 40
4.8617306
 50
95.310878
 51
126.00833
  0
ARC
  8
0
  6
CONTINUOUS
 62
     7
 10
-165.04108
 20
42.742104
 40
5.7617307
 50
274.47945
 51
306.00833
  0
ARC
  8
0
  6
CONTINUOUS
 62
     7
 10
152.66783
 20
25.881632
 40
2.4000001
 50
306.00833
 51
53.991676
  0
ARC
  8
0
  6
CONTINUOUS
 62
     7
 10
152.66783
 20
25.881632
 40
3.5999999
 50
306.00833
 51
53.991676
  0
ARC
  8
0
  6
CONTINUOUS
 62
     7
 10
147.86784
 20
25.881632
 40
2.4000001
 50
126.00833
 51
233.99168
  0
ARC
  8
0
  6
CONTINUOUS
 62
     7
 10
147.86784
 20
25.881632
 40
3.5999999
 50
126.00833
 51
233.99168
  0
ARC
  8
0
  6
CONTINUOUS
 62
     7
 10
150.26784
 20
22.579325
 40
7.6823077
 50
53.991676
 51
85.520553
  0
ARC
  8
0
  6
CONTINUOUS
 62
     7
 10
150.26784
 20
22.579325
 40
6.4823079
 50
53.991676
 51
84.689121
  0
ARC
  8
0
  6
CONTINUOUS
 62
     7
 10
150.26784
 20
29.183939
 40
6.4823079
 50
233.99167
 51
306.00832
  0
ARC
  8
0
  6
CONTINUOUS
 62
     7
 10
150.26784
 20
29.183939
 40
7.6823077
 50
233.99167
 51
265.52055
  0
ARC
  8
0
  6
CONTINUOUS
 62
     7
 10
150.26784
 20
31.431635
 40
0.75
 50
36.869897
 51
143.1301
  0
ARC
  8
0
  6
CONTINUOUS
 62
     7
 10
150.26784
 20
26.331629
 40
0.75
 50
216.8699
 51
323.13009
  0
ARC
  8
0
  6
CONTINUOUS
 62
     7
 10
150.26784
 20
20.331629
 40
0.75
 50
216.8699
 51
323.13009
  0
ARC
  8
0
  6
CONTINUOUS
 62
     7
 10
150.26784
 20
22.579325
 40
6.4823079
 50
95.310878
 51
126.00833
  0
ARC
  8
0
  6
CONTINUOUS
 62
     7
 10
150.26784
 20
22.579325
 40
7.6823077
 50
94.479452
 51
126.00833
  0
ARC
  8
0
  6
CONTINUOUS
 62
     7
 10
150.26784
 20
29.183939
 40
7.6823077
 50
274.47945
 51
306.00833
  0
ARC
  8
0
  6
CONTINUOUS
 62
     7
 10
150.25529
 20
-154.37723
 40
2.4000001
 50
306.00833
 51
53.991676
  0
ARC
  8
0
  6
CONTINUOUS
 62
     7
 10
150.25529
 20
-154.37723
 40
3.5999999
 50
306.00833
 51
53.991676
  0
ARC
  8
0
  6
CONTINUOUS
 62
     7
 10
145.45531
 20
-154.37723
 40
2.4000001
 50
126.00833
 51
233.99168
  0
ARC
  8
0
  6
CONTINUOUS
 62
     7
 10
145.45531
 20
-154.37723
 40
3.5999999
 50
126.00833
 51
233.99168
  0
ARC
  8
0
  6
CONTINUOUS
 62
     7
 10
147.8553
 20
-157.67953
 40
7.6823077
 50
53.991676
 51
85.520553
  0
ARC
  8
0
  6
CONTINUOUS
 62
     7
 10
147.8553
 20
-157.67953
 40
6.4823079
 50
53.991676
 51
84.689121
  0
ARC
  8
0
  6
CONTINUOUS
 62
     7
 10
147.8553
 20
-151.07492
 40
6.4823079
 50
233.99167
 51
306.00832
  0
ARC
  8
0
  6
CONTINUOUS
 62
     7
 10
147.8553
 20
-151.07492
 40
7.6823077
 50
233.99167
 51
265.52055
  0
ARC
  8
0
  6
CONTINUOUS
 62
     7
 10
147.8553
 20
-148.82722
 40
0.75
 50
36.869897
 51
143.1301
  0
ARC
  8
0
  6
CONTINUOUS
 62
     7
 10
147.8553
 20
-153.92723
 40
0.75
 50
216.8699
 51
323.13009
  0
ARC
  8
0
  6
CONTINUOUS
 62
     7
 10
147.8553
 20
-159.92723
 40
0.75
 50
216.8699
 51
323.13009
  0
ARC
  8
0
  6
CONTINUOUS
 62
     7
 10
147.8553
 20
-157.67953
 40
6.4823079
 50
95.310878
 51
126.00833
  0
ARC
  8
0
  6
CONTINUOUS
 62
     7
 10
147.8553
 20
-157.67953
 40
7.6823077
 50
94.479452
 51
126.00833
  0
ARC
  8
0
  6
CONTINUOUS
 62
     7
 10
147.8553
 20
-151.07492
 40
7.6823077
 50
274.47945
 51
306.00833
  0
ARC
  8
0
  6
CONTINUOUS
 62
     7
 10
486.61279
 20
-54.323872
 40
3
 50
306.00833
 51
53.991676
  0
ARC
  8
0
  6
CONTINUOUS
 62
     7
 10
486.61279
 20
-54.323872
 40
4.5
 50
306.00833
 51
53.991676
  0
ARC
  8
0
  6
CONTINUOUS
 62
     7
 10
480.61279
 20
-54.323872
 40
3
 50
126.00833
 51
233.99168
  0
ARC
  8
0
  6
CONTINUOUS
 62
     7
 10
480.61279
 20
-54.323872
 40
4.5
 50
126.00833
 51
233.99168
  0
ARC
  8
0
  6
CONTINUOUS
 62
     7
 10
483.61279
 20
-58.451756
 40
9.6028843
 50
53.991676
 51
85.520553
  0
ARC
  8
0
  6
CONTINUOUS
 62
     7
 10
483.61279
 20
-58.451756
 40
8.1028843
 50
53.991676
 51
84.689121
  0
ARC
  8
0
  6
CONTINUOUS
 62
     7
 10
483.61279
 20
-50.195988
 40
8.1028843
 50
233.99167
 51
306.00832
  0
ARC
  8
0
  6
CONTINUOUS
 62
     7
 10
483.61279
 20
-50.195988
 40
9.6028843
 50
233.99167
 51
265.52055
  0
ARC
  8
0
  6
CONTINUOUS
 62
     7
 10
483.61279
 20
-47.386372
 40
0.9375
 50
36.869897
 51
143.1301
  0
ARC
  8
0
  6
CONTINUOUS
 62
     7
 10
483.61279
 20
-53.761372
 40
0.9375
 50
216.8699
 51
323.13009
  0
ARC
  8
0
  6
CONTINUOUS
 62
     7
 10
483.61279
 20
-61.261372
 40
0.9375
 50
216.8699
 51
323.13009
  0
ARC
  8
0
  6
CONTINUOUS
 62
     7
 10
483.61279
 20
-58.451756
 40
9.6028843
 50
94.479452
 51
126.00833
  0
ARC
  8
0
  6
CONTINUOUS
 62
     7
 10
483.61279
 20
-58.451756
 40
8.1028843
 50
95.310878
 51
126.00833
  0
ARC
  8
0
  6
CONTINUOUS
 62
     7
 10
483.61279
 20
-50.195988
 40
9.6028843
 50
274.47945
 51
306.00833
  0
ARC
  8
0
  6
CONTINUOUS
 62
     7
 10
-140.16774
 20
-422.66791
 40
3.5999999
 50
306.00833
 51
53.991676
  0
ARC
  8
0
  6
CONTINUOUS
 62
     7
 10
-140.16774
 20
-422.66791
 40
5.4000001
 50
306.00833
 51
53.991676
  0
ARC
  8
0
  6
CONTINUOUS
 62
     7
 10
-147.36775
 20
-422.66791
 40
3.5999999
 50
126.00833
 51
233.99168
  0
ARC
  8
0
  6
CONTINUOUS
 62
     7
 10
-147.36775
 20
-422.66791
 40
5.4000001
 50
126.00833
 51
233.99168
  0
ARC
  8
0
  6
CONTINUOUS
 62
     7
 10
-143.76778
 20
-427.6214
 40
11.523461
 50
53.991676
 51
85.520553
  0
ARC
  8
0
  6
CONTINUOUS
 62
     7
 10
-143.76778
 20
-427.6214
 40
9.7234612
 50
53.991676
 51
84.689121
  0
ARC
  8
0
  6
CONTINUOUS
 62
     7
 10
-143.76778
 20
-417.71448
 40
9.7234612
 50
233.99167
 51
306.00832
  0
ARC
  8
0
  6
CONTINUOUS
 62
     7
 10
-143.76778
 20
-417.71448
 40
11.523461
 50
233.99167
 51
265.52055
  0
ARC
  8
0
  6
CONTINUOUS
 62
     7
 10
-143.76778
 20
-414.3429
 40
1.125
 50
36.869897
 51
143.1301
  0
ARC
  8
0
  6
CONTINUOUS
 62
     7
 10
-143.76778
 20
-421.99292
 40
1.125
 50
216.8699
 51
323.13009
  0
ARC
  8
0
  6
CONTINUOUS
 62
     7
 10
-143.76778
 20
-430.99292
 40
1.125
 50
216.8699
 51
323.13009
  0
ARC
  8
0
  6
CONTINUOUS
 62
     7
 10
-143.76778
 20
-427.6214
 40
11.523461
 50
94.479452
 51
126.00833
  0
ARC
  8
0
  6
CONTINUOUS
 62
     7
 10
-143.76778
 20
-427.6214
 40
9.7234612
 50
95.310878
 51
126.00833
  0
ARC
  8
0
  6
CONTINUOUS
 62
     7
 10
-143.76778
 20
-417.71448
 40
11.523461
 50
274.47945
 51
306.00833
  0
TEXT
  8
0
  6
CONTINUOUS
 62
     7
 10
-90.632313
 20
-53.567642
 40
10
 41
0.85124967
  1
１１／４
  0
TEXT
  8
0
  6
CONTINUOUS
 62
     7
 10
161.75798
 20
-51.328079
 40
10
 41
0.85124967
  1
１１／２
  0
TEXT
  8
0
  6
CONTINUOUS
 62
     7
 10
507.19096
 20
64.28624
 40
10
 41
0.90036056
  1
２
  0
TEXT
  8
0
  6
CONTINUOUS
 62
     7
 10
769.29905
 20
78.303734
 40
10
 41
0.85124967
  1
２１／２
  0
TEXT
  8
0
  6
CONTINUOUS
 62
     7
 10
-105.56633
 20
-253.24188
 40
10
 41
0.90036056
  1
３
  0
TEXT
  8
0
  6
CONTINUOUS
 62
     7
 10
178.12471
 20
-355.6846
 40
10
 41
0.90036056
  1
４
  0
TEXT
  8
0
  6
CONTINUOUS
 62
     7
 10
-112.48413
 20
180.52132
 40
10
 41
0.8437661
  1
ＲＣＦ－ＭＫ－Ｔ　チ－ズ
  0
TEXT
  8
0
  6
CONTINUOUS
 62
     7
 10
-173.11357
 20
111.75922
 40
10
 41
1.0178572
  1
1/2
  0
TEXT
  8
0
  6
CONTINUOUS
 62
     7
 10
-28.578634
 20
117.61969
 40
10
 41
1.0178573
  1
3/4
  0
TEXT
  8
0
  6
CONTINUOUS
 62
     7
 10
157.77023
 20
112.18599
 40
10
 41
1.0714291
  1
1
  0
ENDSEC
  0
EOF
