  0
SECTION
  2
HEADER
  9
$EXTMAX
 10
296.17499
 20
209.41667
  9
$EXTMIN
 10
-298.56836
 20
-209.41667
  0
ENDSEC
  0
SECTION
  2
TABLES
  0
TABLE
  2
LTYPE
 70
    22
  0
LTYPE
  2
CONTINUOUS
 70
    64
  3
Solid line
 72
    65
 73
     0
 40
0.000000
  0
LTYPE
  2
DASHED
 70
    64
  3
__ __ __ __ __ __ __ __ __ __ __ __ __ __ __
 72
    65
 73
     2
 40
3.500000
 49
2.000000
 49
-1.500000
  0
LTYPE
  2
CENTER
 70
    64
  3
____ _ ____ _ ____ _ ____ _ ____ _ ____ _ ____
 72
    65
 73
     4
 40
17.500000
 49
13.000000
 49
-1.500000
 49
1.500000
 49
-1.500000
  0
LTYPE
  2
PHANTOM
 70
    64
  3
_____ _ _ _____ _ _ _____ _ _ _____ _ _ ____  
 72
    65
 73
     6
 40
15.500000
 49
8.000000
 49
-1.500000
 49
1.500000
 49
-1.500000
 49
1.500000
 49
-1.500000
  0
LTYPE
  2
DOT
 70
    64
  3
. . . . . . . . . . . . . . . . . . . . . . . .
 72
    65
 73
     2
 40
0.25
 49
0.0
 49
-0.25
  0
ENDTAB
  0
TABLE
  2
LAYER
 70
     1
  0
LAYER
  2
0
 70
     0
 62
     7
  6
CONTINUOUS
  0
ENDTAB
  0
TABLE
  2
STYLE
 70
     1
  0
STYLE
  2
STANDARD
 70
     0
 40
0.000000
 41
1.000000
 50
0.000000
 71
     0
 42
0.200000
  3
txt
  4
BIGFONT
  0
ENDTAB
  0
TABLE
  2
VIEW
 70
     0
  0
ENDTAB
  0
ENDSEC
  0
SECTION
  2
BLOCKS
  0
ENDSEC
  0
SECTION
  2
ENTITIES
  0
POINT
  8
0
  6
CONTINUOUS
 62
     7
 10
340.40649
 20
4.9184566
  0
POINT
  8
0
  6
CONTINUOUS
 62
     7
 10
529.87915
 20
4.9184566
  0
POINT
  8
0
  6
CONTINUOUS
 62
     7
 10
714.98346
 20
4.3435731
  0
POINT
  8
0
  6
CONTINUOUS
 62
     7
 10
-224.23836
 20
83.014206
  0
POINT
  8
0
  6
CONTINUOUS
 62
     7
 10
-224.23836
 20
83.014206
  0
POINT
  8
0
  6
CONTINUOUS
 62
     7
 10
-224.23836
 20
83.014206
  0
POINT
  8
0
  6
CONTINUOUS
 62
     7
 10
-110.38182
 20
83.014206
  0
POINT
  8
0
  6
CONTINUOUS
 62
     7
 10
5.8042612
 20
81.616478
  0
POINT
  8
0
  6
CONTINUOUS
 62
     7
 10
134.91931
 20
81.616478
  0
POINT
  8
0
  6
CONTINUOUS
 62
     7
 10
-192.62315
 20
-81.752182
  0
POINT
  8
0
  6
CONTINUOUS
 62
     7
 10
3.7810936
 20
-81.752182
  0
POINT
  8
0
  6
CONTINUOUS
 62
     7
 10
-149.21756
 20
-81.838974
  0
POINT
  8
0
  6
CONTINUOUS
 62
     7
 10
49.749535
 20
-81.838974
  0
POINT
  8
0
  6
CONTINUOUS
 62
     7
 10
175.9211
 20
81.662094
  0
POINT
  8
0
  6
CONTINUOUS
 62
     7
 10
43.265862
 20
81.662094
  0
POINT
  8
0
  6
CONTINUOUS
 62
     7
 10
-78.158463
 20
83.006119
  0
POINT
  8
0
  6
CONTINUOUS
 62
     7
 10
-194.80769
 20
83.006119
  0
POINT
  8
0
  6
CONTINUOUS
 62
     7
 10
394.52911
 20
4.9678893
  0
POINT
  8
0
  6
CONTINUOUS
 62
     7
 10
586.09827
 20
4.7524142
  0
POINT
  8
0
  6
CONTINUOUS
 62
     7
 10
776.15686
 20
4.2435031
  0
LINE
  8
0
  6
CONTINUOUS
 62
     7
 10
881
 20
-220
 11
881
 21
-620
  0
LINE
  8
0
  6
CONTINUOUS
 62
     7
 10
307
 20
-220
 11
881
 21
-220
  0
LINE
  8
0
  6
CONTINUOUS
 62
     7
 10
307
 20
-220
 11
307
 21
-620
  0
LINE
  8
0
  6
CONTINUOUS
 62
     7
 10
307
 20
-620
 11
881
 21
-620
  0
LINE
  8
0
  6
CONTINUOUS
 62
     7
 10
-287
 20
-220
 11
-287
 21
-620
  0
LINE
  8
0
  6
CONTINUOUS
 62
     7
 10
-287
 20
-220
 11
287
 21
-220
  0
LINE
  8
0
  6
CONTINUOUS
 62
     7
 10
287
 20
-220
 11
287
 21
-620
  0
LINE
  8
0
  6
CONTINUOUS
 62
     7
 10
-287
 20
-620
 11
287
 21
-620
  0
LINE
  8
0
  6
CONTINUOUS
 62
     7
 10
-287
 20
200
 11
-287
 21
-200
  0
LINE
  8
0
  6
CONTINUOUS
 62
     7
 10
-287
 20
200
 11
287
 21
200
  0
LINE
  8
0
  6
CONTINUOUS
 62
     7
 10
287
 20
200
 11
287
 21
-200
  0
LINE
  8
0
  6
CONTINUOUS
 62
     7
 10
-287
 20
-200
 11
287
 21
-200
  0
LINE
  8
0
  6
CONTINUOUS
 62
     7
 10
307
 20
200
 11
307
 21
-200
  0
LINE
  8
0
  6
CONTINUOUS
 62
     7
 10
307
 20
-200
 11
881
 21
-200
  0
LINE
  8
0
  6
CONTINUOUS
 62
     7
 10
881
 20
200
 11
881
 21
-200
  0
LINE
  8
0
  6
CONTINUOUS
 62
     7
 10
307
 20
200
 11
881
 21
200
  0
LINE
  8
0
  6
CENTER
 62
     7
 10
-234.659
 20
83.006119
 11
-155.24835
 21
83.006119
  0
LINE
  8
0
  6
CENTER
 62
     7
 10
-122.05783
 20
83.006119
 11
-34.018444
 21
83.006119
  0
LINE
  8
0
  6
CENTER
 62
     7
 10
-8.9075565
 20
81.662094
 11
96.527916
 21
81.662094
  0
LINE
  8
0
  6
CENTER
 62
     7
 10
121.14909
 20
81.662094
 11
232.98227
 21
81.662094
  0
LINE
  8
0
  6
CENTER
 62
     7
 10
-209.59003
 20
-81.838974
 11
-89.242043
 21
-81.838974
  0
LINE
  8
0
  6
CENTER
 62
     7
 10
-12.222182
 20
-81.838974
 11
113.48169
 21
-81.838974
  0
LINE
  8
0
  6
CENTER
 62
     7
 10
324.46786
 20
4.9678893
 11
466.13776
 21
4.9678893
  0
LINE
  8
0
  6
CENTER
 62
     7
 10
507.44727
 20
4.7524142
 11
660.65521
 21
4.7524142
  0
LINE
  8
0
  6
CENTER
 62
     7
 10
691.18286
 20
4.2435031
 11
857.80249
 21
4.2435031
  0
LINE
  8
0
  6
CONTINUOUS
 62
     7
 10
-219.73836
 20
82.564209
 11
-220.97096
 21
82.564209
  0
LINE
  8
0
  6
CONTINUOUS
 62
     7
 10
-219.73836
 20
83.464218
 11
-220.97096
 21
83.464218
  0
LINE
  8
0
  6
CONTINUOUS
 62
     7
 10
-227.50575
 20
83.464218
 11
-228.73836
 21
83.464218
  0
LINE
  8
0
  6
CONTINUOUS
 62
     7
 10
-227.50575
 20
82.564209
 11
-228.73836
 21
82.564209
  0
LINE
  8
0
  6
CONTINUOUS
 62
     7
 10
-221.87422
 20
83.464218
 11
-224.23836
 21
83.464218
  0
LINE
  8
0
  6
CONTINUOUS
 62
     7
 10
-221.87422
 20
82.564209
 11
-224.23836
 21
82.564209
  0
LINE
  8
0
  6
CONTINUOUS
 62
     7
 10
-105.88182
 20
82.564209
 11
-107.11443
 21
82.564209
  0
LINE
  8
0
  6
CONTINUOUS
 62
     7
 10
-105.88182
 20
83.464203
 11
-107.11443
 21
83.464203
  0
LINE
  8
0
  6
CONTINUOUS
 62
     7
 10
-113.64922
 20
83.464203
 11
-114.88182
 21
83.464203
  0
LINE
  8
0
  6
CONTINUOUS
 62
     7
 10
-113.64922
 20
82.564209
 11
-114.88182
 21
82.564209
  0
LINE
  8
0
  6
CONTINUOUS
 62
     7
 10
-108.01768
 20
83.464203
 11
-110.38182
 21
83.464203
  0
LINE
  8
0
  6
CONTINUOUS
 62
     7
 10
-108.01768
 20
82.564209
 11
-110.38182
 21
82.564209
  0
LINE
  8
0
  6
CONTINUOUS
 62
     7
 10
11.804261
 20
81.016472
 11
10.160798
 21
81.016472
  0
LINE
  8
0
  6
CONTINUOUS
 62
     7
 10
11.804261
 20
82.216484
 11
10.160798
 21
82.216484
  0
LINE
  8
0
  6
CONTINUOUS
 62
     7
 10
1.4477245
 20
82.216484
 11
-0.19573864
 21
82.216484
  0
LINE
  8
0
  6
CONTINUOUS
 62
     7
 10
1.4477245
 20
81.016472
 11
-0.19573864
 21
81.016472
  0
LINE
  8
0
  6
CONTINUOUS
 62
     7
 10
8.9564371
 20
82.216484
 11
5.8042612
 21
82.216484
  0
LINE
  8
0
  6
CONTINUOUS
 62
     7
 10
8.9564371
 20
81.016472
 11
5.8042612
 21
81.016472
  0
LINE
  8
0
  6
CONTINUOUS
 62
     7
 10
140.91931
 20
81.016487
 11
139.27585
 21
81.016487
  0
LINE
  8
0
  6
CONTINUOUS
 62
     7
 10
140.91931
 20
82.216484
 11
139.27585
 21
82.216484
  0
LINE
  8
0
  6
CONTINUOUS
 62
     7
 10
130.56277
 20
82.216484
 11
128.91931
 21
82.216484
  0
LINE
  8
0
  6
CONTINUOUS
 62
     7
 10
130.56277
 20
81.016487
 11
128.91931
 21
81.016487
  0
LINE
  8
0
  6
CONTINUOUS
 62
     7
 10
138.07149
 20
82.216484
 11
134.91931
 21
82.216484
  0
LINE
  8
0
  6
CONTINUOUS
 62
     7
 10
138.07149
 20
81.016487
 11
134.91931
 21
81.016487
  0
LINE
  8
0
  6
CONTINUOUS
 62
     7
 10
-186.62315
 20
-82.352173
 11
-188.26662
 21
-82.352173
  0
LINE
  8
0
  6
CONTINUOUS
 62
     7
 10
-186.62315
 20
-81.152176
 11
-188.26662
 21
-81.152176
  0
LINE
  8
0
  6
CONTINUOUS
 62
     7
 10
-196.97969
 20
-81.152176
 11
-198.62315
 21
-81.152176
  0
LINE
  8
0
  6
CONTINUOUS
 62
     7
 10
-196.97969
 20
-82.352173
 11
-198.62315
 21
-82.352173
  0
LINE
  8
0
  6
CONTINUOUS
 62
     7
 10
-189.47098
 20
-81.152176
 11
-192.62315
 21
-81.152176
  0
LINE
  8
0
  6
CONTINUOUS
 62
     7
 10
-189.47098
 20
-82.352173
 11
-192.62315
 21
-82.352173
  0
LINE
  8
0
  6
CONTINUOUS
 62
     7
 10
11.281094
 20
-82.502182
 11
9.2267647
 21
-82.502182
  0
LINE
  8
0
  6
CONTINUOUS
 62
     7
 10
11.281094
 20
-81.002182
 11
9.2267647
 21
-81.002182
  0
LINE
  8
0
  6
CONTINUOUS
 62
     7
 10
-1.6645775
 20
-81.002182
 11
-3.7189064
 21
-81.002182
  0
LINE
  8
0
  6
CONTINUOUS
 62
     7
 10
-1.6645775
 20
-82.502182
 11
-3.7189064
 21
-82.502182
  0
LINE
  8
0
  6
CONTINUOUS
 62
     7
 10
7.7213097
 20
-81.002182
 11
3.7810936
 21
-81.002182
  0
LINE
  8
0
  6
CONTINUOUS
 62
     7
 10
7.7213097
 20
-82.502182
 11
3.7810936
 21
-82.502182
  0
LINE
  8
0
  6
CONTINUOUS
 62
     7
 10
347.90649
 20
4.1684566
 11
345.85217
 21
4.1684566
  0
LINE
  8
0
  6
CONTINUOUS
 62
     7
 10
347.90649
 20
5.6684566
 11
345.85217
 21
5.6684566
  0
LINE
  8
0
  6
CONTINUOUS
 62
     7
 10
334.96082
 20
5.6684566
 11
332.90649
 21
5.6684566
  0
LINE
  8
0
  6
CONTINUOUS
 62
     7
 10
334.96082
 20
4.1684566
 11
332.90649
 21
4.1684566
  0
LINE
  8
0
  6
CONTINUOUS
 62
     7
 10
344.34671
 20
5.6684566
 11
340.40649
 21
5.6684566
  0
LINE
  8
0
  6
CONTINUOUS
 62
     7
 10
344.34671
 20
4.1684566
 11
340.40649
 21
4.1684566
  0
LINE
  8
0
  6
CONTINUOUS
 62
     7
 10
538.87915
 20
4.0184321
 11
536.41394
 21
4.0184321
  0
LINE
  8
0
  6
CONTINUOUS
 62
     7
 10
538.87915
 20
5.8184199
 11
536.41394
 21
5.8184199
  0
LINE
  8
0
  6
CONTINUOUS
 62
     7
 10
523.34436
 20
5.8184199
 11
520.87915
 21
5.8184199
  0
LINE
  8
0
  6
CONTINUOUS
 62
     7
 10
523.34436
 20
4.0184321
 11
520.87915
 21
4.0184321
  0
LINE
  8
0
  6
CONTINUOUS
 62
     7
 10
534.60742
 20
5.8184199
 11
529.87915
 21
5.8184199
  0
LINE
  8
0
  6
CONTINUOUS
 62
     7
 10
534.60742
 20
4.0184321
 11
529.87915
 21
4.0184321
  0
LINE
  8
0
  6
CONTINUOUS
 62
     7
 10
723.30847
 20
3.4436097
 11
720.84326
 21
3.4436097
  0
LINE
  8
0
  6
CONTINUOUS
 62
     7
 10
723.30847
 20
5.2435975
 11
720.84326
 21
5.2435975
  0
LINE
  8
0
  6
CONTINUOUS
 62
     7
 10
707.77368
 20
5.2435975
 11
705.30847
 21
5.2435975
  0
LINE
  8
0
  6
CONTINUOUS
 62
     7
 10
707.77368
 20
3.4436097
 11
705.30847
 21
3.4436097
  0
LINE
  8
0
  6
CONTINUOUS
 62
     7
 10
719.03674
 20
5.2435975
 11
714.30847
 21
5.2435975
  0
LINE
  8
0
  6
CONTINUOUS
 62
     7
 10
719.03674
 20
3.4436097
 11
714.30847
 21
3.4436097
  0
LINE
  8
0
  6
CONTINUOUS
 62
     7
 10
-157.30769
 20
99.506119
 11
-157.30769
 21
66.506119
  0
LINE
  8
0
  6
CONTINUOUS
 62
     7
 10
-173.89348
 20
99.506119
 11
-157.30769
 21
99.506119
  0
LINE
  8
0
  6
CONTINUOUS
 62
     7
 10
-174.30769
 20
98.826569
 11
-174.30769
 21
67.378845
  0
LINE
  8
0
  6
CONTINUOUS
 62
     7
 10
-175.0148
 20
100.21323
 11
-174.60059
 21
99.799011
  0
LINE
  8
0
  6
CONTINUOUS
 62
     7
 10
-182.39348
 20
100.50612
 11
-175.72191
 21
100.50612
  0
LINE
  8
0
  6
CONTINUOUS
 62
     7
 10
-175.30769
 20
99.744751
 11
-175.30769
 21
66.460663
  0
LINE
  8
0
  6
CONTINUOUS
 62
     7
 10
-182.39348
 20
65.506119
 11
-175.72191
 21
65.506119
  0
LINE
  8
0
  6
CONTINUOUS
 62
     7
 10
-175.0148
 20
65.799019
 11
-174.60059
 21
66.213234
  0
LINE
  8
0
  6
CONTINUOUS
 62
     7
 10
-173.89348
 20
66.506119
 11
-157.30769
 21
66.506119
  0
LINE
  8
0
  6
CONTINUOUS
 62
     7
 10
-38.158455
 20
102.50612
 11
-38.158455
 21
63.506115
  0
LINE
  8
0
  6
CONTINUOUS
 62
     7
 10
-54.744244
 20
102.50612
 11
-38.158455
 21
102.50612
  0
LINE
  8
0
  6
CONTINUOUS
 62
     7
 10
-64.244247
 20
103.50612
 11
-56.57267
 21
103.50612
  0
LINE
  8
0
  6
CONTINUOUS
 62
     7
 10
-55.158455
 20
101.48976
 11
-55.158455
 21
64.274139
  0
LINE
  8
0
  6
CONTINUOUS
 62
     7
 10
-55.865566
 20
103.21323
 11
-55.451344
 21
102.799
  0
LINE
  8
0
  6
CONTINUOUS
 62
     7
 10
-56.158455
 20
102.52179
 11
-56.158455
 21
63.360592
  0
LINE
  8
0
  6
CONTINUOUS
 62
     7
 10
-64.244247
 20
62.506115
 11
-56.57267
 21
62.506115
  0
LINE
  8
0
  6
CONTINUOUS
 62
     7
 10
-55.865562
 20
62.799007
 11
-55.451351
 21
63.213223
  0
LINE
  8
0
  6
CONTINUOUS
 62
     7
 10
-54.744244
 20
63.506115
 11
-38.158455
 21
63.506115
  0
LINE
  8
0
  6
CONTINUOUS
 62
     7
 10
91.765862
 20
104.66209
 11
91.765862
 21
58.66209
  0
LINE
  8
0
  6
CONTINUOUS
 62
     7
 10
70.180077
 20
104.66209
 11
91.765862
 21
104.66209
  0
LINE
  8
0
  6
CONTINUOUS
 62
     7
 10
58.18008
 20
106.16209
 11
67.851646
 21
106.16209
  0
LINE
  8
0
  6
CONTINUOUS
 62
     7
 10
69.765862
 20
102.99051
 11
69.765862
 21
60.210888
  0
LINE
  8
0
  6
CONTINUOUS
 62
     7
 10
68.558762
 20
105.8692
 11
69.472969
 21
104.95499
  0
LINE
  8
0
  6
CONTINUOUS
 62
     7
 10
68.265862
 20
104.33519
 11
68.265862
 21
58.77412
  0
LINE
  8
0
  6
CONTINUOUS
 62
     7
 10
58.18008
 20
57.16209
 11
67.851646
 21
57.16209
  0
LINE
  8
0
  6
CONTINUOUS
 62
     7
 10
70.180077
 20
58.66209
 11
91.765862
 21
58.66209
  0
LINE
  8
0
  6
CONTINUOUS
 62
     7
 10
68.558754
 20
57.454983
 11
69.472969
 21
58.369198
  0
LINE
  8
0
  6
CONTINUOUS
 62
     7
 10
226.9211
 20
109.66209
 11
226.9211
 21
53.66209
  0
LINE
  8
0
  6
CONTINUOUS
 62
     7
 10
206.33531
 20
109.66209
 11
226.9211
 21
109.66209
  0
LINE
  8
0
  6
CONTINUOUS
 62
     7
 10
194.58531
 20
111.66209
 11
203.50688
 21
111.66209
  0
LINE
  8
0
  6
CONTINUOUS
 62
     7
 10
205.9211
 20
107.38988
 11
205.9211
 21
54.669331
  0
LINE
  8
0
  6
CONTINUOUS
 62
     7
 10
204.214
 20
111.36921
 11
205.62822
 21
109.95499
  0
LINE
  8
0
  6
CONTINUOUS
 62
     7
 10
203.9211
 20
109.54134
 11
203.9211
 21
53.380039
  0
LINE
  8
0
  6
CONTINUOUS
 62
     7
 10
194.58531
 20
51.66209
 11
203.50688
 21
51.66209
  0
LINE
  8
0
  6
CONTINUOUS
 62
     7
 10
204.21399
 20
51.954987
 11
205.6282
 21
53.369202
  0
LINE
  8
0
  6
CONTINUOUS
 62
     7
 10
206.33531
 20
53.66209
 11
226.9211
 21
53.66209
  0
LINE
  8
0
  6
CONTINUOUS
 62
     7
 10
-95.717567
 20
-50.838974
 11
-95.717567
 21
-112.83897
  0
LINE
  8
0
  6
CONTINUOUS
 62
     7
 10
-116.30335
 20
-50.838974
 11
-95.717567
 21
-50.838974
  0
LINE
  8
0
  6
CONTINUOUS
 62
     7
 10
-128.55336
 20
-49.088974
 11
-118.88178
 21
-49.088974
  0
LINE
  8
0
  6
CONTINUOUS
 62
     7
 10
-116.71757
 20
-52.861187
 11
-116.71757
 21
-110.82469
  0
LINE
  8
0
  6
CONTINUOUS
 62
     7
 10
-118.17467
 20
-49.38187
 11
-117.01046
 21
-50.546082
  0
LINE
  8
0
  6
CONTINUOUS
 62
     7
 10
-128.55336
 20
-114.58897
 11
-118.88178
 21
-114.58897
  0
LINE
  8
0
  6
CONTINUOUS
 62
     7
 10
-118.17467
 20
-114.29608
 11
-117.01046
 21
-113.13187
  0
LINE
  8
0
  6
CONTINUOUS
 62
     7
 10
-116.30335
 20
-112.83897
 11
-95.717567
 21
-112.83897
  0
LINE
  8
0
  6
CONTINUOUS
 62
     7
 10
-118.46757
 20
-51.169174
 11
-118.46757
 21
-112.43839
  0
LINE
  8
0
  6
CONTINUOUS
 62
     7
 10
105.74953
 20
-44.838974
 11
105.74953
 21
-118.83897
  0
LINE
  8
0
  6
CONTINUOUS
 62
     7
 10
85.16375
 20
-44.838974
 11
105.74953
 21
-44.838974
  0
LINE
  8
0
  6
CONTINUOUS
 62
     7
 10
71.16375
 20
-42.338974
 11
81.83532
 21
-42.338974
  0
LINE
  8
0
  6
CONTINUOUS
 62
     7
 10
84.749535
 20
-47.054268
 11
84.749535
 21
-116.96609
  0
LINE
  8
0
  6
CONTINUOUS
 62
     7
 10
82.542427
 20
-42.63187
 11
84.456642
 21
-44.546078
  0
LINE
  8
0
  6
CONTINUOUS
 62
     7
 10
82.249535
 20
-45.12402
 11
82.249535
 21
-119.34814
  0
LINE
  8
0
  6
CONTINUOUS
 62
     7
 10
71.16375
 20
-121.33897
 11
81.83532
 21
-121.33897
  0
LINE
  8
0
  6
CONTINUOUS
 62
     7
 10
82.542427
 20
-121.04608
 11
84.456642
 21
-119.13187
  0
LINE
  8
0
  6
CONTINUOUS
 62
     7
 10
85.16375
 20
-118.83897
 11
105.74953
 21
-118.83897
  0
LINE
  8
0
  6
CONTINUOUS
 62
     7
 10
459.52911
 20
51.217888
 11
459.52911
 21
-41.282112
  0
LINE
  8
0
  6
CONTINUOUS
 62
     7
 10
438.39514
 20
51.217888
 11
459.52911
 21
51.217888
  0
LINE
  8
0
  6
CONTINUOUS
 62
     7
 10
437.52911
 20
49.76675
 11
437.52911
 21
-39.817039
  0
LINE
  8
0
  6
CONTINUOUS
 62
     7
 10
848.65692
 20
69.7435
 11
848.65692
 21
-61.256496
  0
LINE
  8
0
  6
CONTINUOUS
 62
     7
 10
828.52295
 20
69.7435
 11
848.65692
 21
69.7435
  0
LINE
  8
0
  6
CONTINUOUS
 62
     7
 10
729.2757
 20
76.2435
 11
823.03809
 21
76.2435
  0
LINE
  8
0
  6
CONTINUOUS
 62
     7
 10
827.65692
 20
67.893829
 11
827.65692
 21
-59.680355
  0
LINE
  8
0
  6
CONTINUOUS
 62
     7
 10
824.33716
 20
75.493523
 11
827.22388
 21
70.493523
  0
LINE
  8
0
  6
CONTINUOUS
 62
     7
 10
823.90411
 20
72.750702
 11
823.90411
 21
-64.861023
  0
LINE
  8
0
  6
CONTINUOUS
 62
     7
 10
729.2757
 20
-67.7565
 11
823.03809
 21
-67.7565
  0
LINE
  8
0
  6
CONTINUOUS
 62
     7
 10
824.33716
 20
-67.006493
 11
827.22388
 21
-62.006496
  0
LINE
  8
0
  6
CONTINUOUS
 62
     7
 10
828.52295
 20
-61.256496
 11
848.65692
 21
-61.256496
  0
LINE
  8
0
  6
CONTINUOUS
 62
     7
 10
-204.89348
 20
102.00612
 11
-184.72191
 21
102.00612
  0
LINE
  8
0
  6
CONTINUOUS
 62
     7
 10
-184.30769
 20
101.19514
 11
-184.30769
 21
64.785919
  0
LINE
  8
0
  6
CONTINUOUS
 62
     7
 10
-184.0148
 20
101.71323
 11
-183.10059
 21
100.79901
  0
LINE
  8
0
  6
CONTINUOUS
 62
     7
 10
-182.80769
 20
99.841629
 11
-182.80769
 21
66.13942
  0
LINE
  8
0
  6
CONTINUOUS
 62
     7
 10
-204.89348
 20
64.006119
 11
-184.72191
 21
64.006119
  0
LINE
  8
0
  6
CONTINUOUS
 62
     7
 10
-184.0148
 20
64.299019
 11
-183.10059
 21
65.213226
  0
LINE
  8
0
  6
CONTINUOUS
 62
     7
 10
-232.30769
 20
99.506119
 11
-232.30769
 21
66.506119
  0
LINE
  8
0
  6
CONTINUOUS
 62
     7
 10
-215.72191
 20
99.506119
 11
-232.30769
 21
99.506119
  0
LINE
  8
0
  6
CONTINUOUS
 62
     7
 10
-215.30769
 20
98.826569
 11
-215.30769
 21
67.378845
  0
LINE
  8
0
  6
CONTINUOUS
 62
     7
 10
-214.60059
 20
100.21323
 11
-215.0148
 21
99.799011
  0
LINE
  8
0
  6
CONTINUOUS
 62
     7
 10
-207.22191
 20
100.50612
 11
-213.89348
 21
100.50612
  0
LINE
  8
0
  6
CONTINUOUS
 62
     7
 10
-214.30769
 20
99.744751
 11
-214.30769
 21
66.460663
  0
LINE
  8
0
  6
CONTINUOUS
 62
     7
 10
-207.22191
 20
65.506119
 11
-213.89348
 21
65.506119
  0
LINE
  8
0
  6
CONTINUOUS
 62
     7
 10
-214.60059
 20
65.799019
 11
-215.0148
 21
66.213234
  0
LINE
  8
0
  6
CONTINUOUS
 62
     7
 10
-215.72191
 20
66.506119
 11
-232.30769
 21
66.506119
  0
LINE
  8
0
  6
CONTINUOUS
 62
     7
 10
-205.30769
 20
101.19514
 11
-205.30769
 21
64.785919
  0
LINE
  8
0
  6
CONTINUOUS
 62
     7
 10
-205.60059
 20
101.71323
 11
-206.5148
 21
100.79901
  0
LINE
  8
0
  6
CONTINUOUS
 62
     7
 10
-206.80769
 20
99.841629
 11
-206.80769
 21
66.13942
  0
LINE
  8
0
  6
CONTINUOUS
 62
     7
 10
-205.60059
 20
64.299019
 11
-206.5148
 21
65.213226
  0
LINE
  8
0
  6
CONTINUOUS
 62
     7
 10
-89.744247
 20
105.00612
 11
-66.57267
 21
105.00612
  0
LINE
  8
0
  6
CONTINUOUS
 62
     7
 10
-66.158463
 20
104.1295
 11
-66.158463
 21
62.040745
  0
LINE
  8
0
  6
CONTINUOUS
 62
     7
 10
-65.865555
 20
104.71322
 11
-64.951347
 21
103.799
  0
LINE
  8
0
  6
CONTINUOUS
 62
     7
 10
-64.658463
 20
102.72652
 11
-64.658463
 21
63.399364
  0
LINE
  8
0
  6
CONTINUOUS
 62
     7
 10
-89.744247
 20
61.006115
 11
-66.57267
 21
61.006115
  0
LINE
  8
0
  6
CONTINUOUS
 62
     7
 10
-65.865562
 20
61.299007
 11
-64.951347
 21
62.213223
  0
LINE
  8
0
  6
CONTINUOUS
 62
     7
 10
-101.57267
 20
102.50612
 11
-118.15846
 21
102.50612
  0
LINE
  8
0
  6
CONTINUOUS
 62
     7
 10
-92.07267
 20
103.50612
 11
-99.744247
 21
103.50612
  0
LINE
  8
0
  6
CONTINUOUS
 62
     7
 10
-101.15846
 20
101.48976
 11
-101.15846
 21
64.274139
  0
LINE
  8
0
  6
CONTINUOUS
 62
     7
 10
-100.45135
 20
103.21323
 11
-100.86556
 21
102.79901
  0
LINE
  8
0
  6
CONTINUOUS
 62
     7
 10
-100.15846
 20
102.52179
 11
-100.15846
 21
63.360592
  0
LINE
  8
0
  6
CONTINUOUS
 62
     7
 10
-92.07267
 20
62.506115
 11
-99.744247
 21
62.506115
  0
LINE
  8
0
  6
CONTINUOUS
 62
     7
 10
-100.45135
 20
62.799007
 11
-100.86556
 21
63.213219
  0
LINE
  8
0
  6
CONTINUOUS
 62
     7
 10
-101.57267
 20
63.506115
 11
-118.15846
 21
63.506115
  0
LINE
  8
0
  6
CONTINUOUS
 62
     7
 10
-90.158463
 20
104.1295
 11
-90.158463
 21
62.040745
  0
LINE
  8
0
  6
CONTINUOUS
 62
     7
 10
-90.451355
 20
104.71323
 11
-91.365562
 21
103.79901
  0
LINE
  8
0
  6
CONTINUOUS
 62
     7
 10
-91.658463
 20
102.72652
 11
-91.658463
 21
63.399364
  0
LINE
  8
0
  6
CONTINUOUS
 62
     7
 10
-90.451347
 20
61.299007
 11
-91.365562
 21
62.213219
  0
LINE
  8
0
  6
CONTINUOUS
 62
     7
 10
-118.15846
 20
102.50612
 11
-118.15846
 21
63.506115
  0
LINE
  8
0
  6
CONTINUOUS
 62
     7
 10
30.68008
 20
107.66209
 11
55.851654
 21
107.66209
  0
LINE
  8
0
  6
CONTINUOUS
 62
     7
 10
56.265865
 20
56.610088
 11
56.265865
 21
106.37756
  0
LINE
  8
0
  6
CONTINUOUS
 62
     7
 10
56.558762
 20
107.3692
 11
57.472973
 21
106.45499
  0
LINE
  8
0
  6
CONTINUOUS
 62
     7
 10
57.765865
 20
105.00188
 11
57.765865
 21
58.0667
  0
LINE
  8
0
  6
CONTINUOUS
 62
     7
 10
30.68008
 20
55.66209
 11
55.851654
 21
55.66209
  0
LINE
  8
0
  6
CONTINUOUS
 62
     7
 10
56.558762
 20
55.954987
 11
57.472973
 21
56.869202
  0
LINE
  8
0
  6
CONTINUOUS
 62
     7
 10
-5.2341347
 20
104.66209
 11
-5.2341347
 21
58.66209
  0
LINE
  8
0
  6
CONTINUOUS
 62
     7
 10
16.351652
 20
104.66209
 11
-5.2341347
 21
104.66209
  0
LINE
  8
0
  6
CONTINUOUS
 62
     7
 10
28.351652
 20
106.16209
 11
18.68008
 21
106.16209
  0
LINE
  8
0
  6
CONTINUOUS
 62
     7
 10
16.765865
 20
102.99051
 11
16.765865
 21
60.210888
  0
LINE
  8
0
  6
CONTINUOUS
 62
     7
 10
17.972975
 20
105.8692
 11
17.058762
 21
104.95499
  0
LINE
  8
0
  6
CONTINUOUS
 62
     7
 10
18.265865
 20
104.33519
 11
18.265865
 21
58.77412
  0
LINE
  8
0
  6
CONTINUOUS
 62
     7
 10
28.351652
 20
57.16209
 11
18.68008
 21
57.16209
  0
LINE
  8
0
  6
CONTINUOUS
 62
     7
 10
16.351652
 20
58.66209
 11
-5.2341347
 21
58.66209
  0
LINE
  8
0
  6
CONTINUOUS
 62
     7
 10
17.972969
 20
57.454983
 11
17.058756
 21
58.369198
  0
LINE
  8
0
  6
CONTINUOUS
 62
     7
 10
30.265865
 20
56.610088
 11
30.265865
 21
106.37756
  0
LINE
  8
0
  6
CONTINUOUS
 62
     7
 10
29.972973
 20
107.36919
 11
29.05876
 21
106.45498
  0
LINE
  8
0
  6
CONTINUOUS
 62
     7
 10
28.765865
 20
105.00188
 11
28.765865
 21
58.0667
  0
LINE
  8
0
  6
CONTINUOUS
 62
     7
 10
29.972971
 20
55.954983
 11
29.058756
 21
56.869198
  0
LINE
  8
0
  6
CONTINUOUS
 62
     7
 10
159.33531
 20
112.91209
 11
192.50688
 21
112.91209
  0
LINE
  8
0
  6
CONTINUOUS
 62
     7
 10
192.9211
 20
111.02968
 11
192.9211
 21
52.090748
  0
LINE
  8
0
  6
CONTINUOUS
 62
     7
 10
193.214
 20
112.6192
 11
193.8782
 21
111.95499
  0
LINE
  8
0
  6
CONTINUOUS
 62
     7
 10
194.1711
 20
109.55621
 11
194.1711
 21
53.380039
  0
LINE
  8
0
  6
CONTINUOUS
 62
     7
 10
159.33531
 20
50.41209
 11
192.50688
 21
50.41209
  0
LINE
  8
0
  6
CONTINUOUS
 62
     7
 10
193.214
 20
50.70499
 11
193.8782
 21
51.369198
  0
LINE
  8
0
  6
CONTINUOUS
 62
     7
 10
124.9211
 20
109.66209
 11
124.9211
 21
53.66209
  0
LINE
  8
0
  6
CONTINUOUS
 62
     7
 10
145.50688
 20
109.66209
 11
124.9211
 21
109.66209
  0
LINE
  8
0
  6
CONTINUOUS
 62
     7
 10
157.25688
 20
111.66209
 11
148.33531
 21
111.66209
  0
LINE
  8
0
  6
CONTINUOUS
 62
     7
 10
145.9211
 20
107.38988
 11
145.9211
 21
54.669331
  0
LINE
  8
0
  6
CONTINUOUS
 62
     7
 10
147.6282
 20
111.3692
 11
146.21399
 21
109.95499
  0
LINE
  8
0
  6
CONTINUOUS
 62
     7
 10
147.9211
 20
109.54134
 11
147.9211
 21
53.380039
  0
LINE
  8
0
  6
CONTINUOUS
 62
     7
 10
157.25688
 20
51.66209
 11
148.33531
 21
51.66209
  0
LINE
  8
0
  6
CONTINUOUS
 62
     7
 10
147.6282
 20
51.954987
 11
146.21399
 21
53.369202
  0
LINE
  8
0
  6
CONTINUOUS
 62
     7
 10
145.50688
 20
53.66209
 11
124.9211
 21
53.66209
  0
LINE
  8
0
  6
CONTINUOUS
 62
     7
 10
158.9211
 20
111.02968
 11
158.9211
 21
52.090748
  0
LINE
  8
0
  6
CONTINUOUS
 62
     7
 10
158.62822
 20
112.6192
 11
157.96399
 21
111.95499
  0
LINE
  8
0
  6
CONTINUOUS
 62
     7
 10
157.6711
 20
109.55621
 11
157.6711
 21
53.380039
  0
LINE
  8
0
  6
CONTINUOUS
 62
     7
 10
158.62822
 20
50.704998
 11
157.964
 21
51.369209
  0
LINE
  8
0
  6
CONTINUOUS
 62
     7
 10
-167.30334
 20
-47.338974
 11
-131.13179
 21
-47.338974
  0
LINE
  8
0
  6
CONTINUOUS
 62
     7
 10
-130.71758
 20
-49.110806
 11
-130.71758
 21
-114.75409
  0
LINE
  8
0
  6
CONTINUOUS
 62
     7
 10
-130.42468
 20
-47.631866
 11
-129.26047
 21
-48.796082
  0
LINE
  8
0
  6
CONTINUOUS
 62
     7
 10
-128.96758
 20
-50.420433
 11
-128.96758
 21
-113.30724
  0
LINE
  8
0
  6
CONTINUOUS
 62
     7
 10
-167.30334
 20
-116.33897
 11
-131.13179
 21
-116.33897
  0
LINE
  8
0
  6
CONTINUOUS
 62
     7
 10
-130.42468
 20
-116.04608
 11
-129.26045
 21
-114.88186
  0
LINE
  8
0
  6
CONTINUOUS
 62
     7
 10
-202.71756
 20
-50.838974
 11
-202.71756
 21
-112.83897
  0
LINE
  8
0
  6
CONTINUOUS
 62
     7
 10
-182.13177
 20
-50.838974
 11
-202.71756
 21
-50.838974
  0
LINE
  8
0
  6
CONTINUOUS
 62
     7
 10
-169.88177
 20
-49.088974
 11
-179.55334
 21
-49.088974
  0
LINE
  8
0
  6
CONTINUOUS
 62
     7
 10
-181.71756
 20
-52.861187
 11
-181.71756
 21
-110.82469
  0
LINE
  8
0
  6
CONTINUOUS
 62
     7
 10
-180.26047
 20
-49.38187
 11
-181.42467
 21
-50.546078
  0
LINE
  8
0
  6
CONTINUOUS
 62
     7
 10
-169.88177
 20
-114.58897
 11
-179.55334
 21
-114.58897
  0
LINE
  8
0
  6
CONTINUOUS
 62
     7
 10
-180.26047
 20
-114.29608
 11
-181.42467
 21
-113.13187
  0
LINE
  8
0
  6
CONTINUOUS
 62
     7
 10
-182.13177
 20
-112.83897
 11
-202.71756
 21
-112.83897
  0
LINE
  8
0
  6
CONTINUOUS
 62
     7
 10
-179.96756
 20
-51.169174
 11
-179.96756
 21
-112.43839
  0
LINE
  8
0
  6
CONTINUOUS
 62
     7
 10
-167.71756
 20
-49.110806
 11
-167.71756
 21
-114.75409
  0
LINE
  8
0
  6
CONTINUOUS
 62
     7
 10
-168.01045
 20
-47.631863
 11
-169.17468
 21
-48.796082
  0
LINE
  8
0
  6
CONTINUOUS
 62
     7
 10
-169.46756
 20
-50.420433
 11
-169.46756
 21
-113.30724
  0
LINE
  8
0
  6
CONTINUOUS
 62
     7
 10
-168.01047
 20
-116.04608
 11
-169.17468
 21
-114.88187
  0
LINE
  8
0
  6
CONTINUOUS
 62
     7
 10
30.663748
 20
-40.838974
 11
68.83532
 21
-40.838974
  0
LINE
  8
0
  6
CONTINUOUS
 62
     7
 10
69.249535
 20
-42.641769
 11
69.249535
 21
-121.32279
  0
LINE
  8
0
  6
CONTINUOUS
 62
     7
 10
69.542427
 20
-41.131866
 11
70.456642
 21
-42.046082
  0
LINE
  8
0
  6
CONTINUOUS
 62
     7
 10
70.749535
 20
-44.507278
 11
70.749535
 21
-119.70174
  0
LINE
  8
0
  6
CONTINUOUS
 62
     7
 10
30.663748
 20
-122.83897
 11
68.83532
 21
-122.83897
  0
LINE
  8
0
  6
CONTINUOUS
 62
     7
 10
69.542427
 20
-122.54608
 11
70.456642
 21
-121.63187
  0
LINE
  8
0
  6
CONTINUOUS
 62
     7
 10
-6.2504644
 20
-44.838974
 11
-6.2504644
 21
-118.83897
  0
LINE
  8
0
  6
CONTINUOUS
 62
     7
 10
14.33532
 20
-44.838974
 11
-6.2504644
 21
-44.838974
  0
LINE
  8
0
  6
CONTINUOUS
 62
     7
 10
28.335321
 20
-42.338974
 11
17.66375
 21
-42.338974
  0
LINE
  8
0
  6
CONTINUOUS
 62
     7
 10
14.749536
 20
-47.054268
 11
14.749536
 21
-116.96609
  0
LINE
  8
0
  6
CONTINUOUS
 62
     7
 10
16.95664
 20
-42.631866
 11
15.042427
 21
-44.546078
  0
LINE
  8
0
  6
CONTINUOUS
 62
     7
 10
17.249535
 20
-45.12402
 11
17.249535
 21
-119.34814
  0
LINE
  8
0
  6
CONTINUOUS
 62
     7
 10
28.335321
 20
-121.33897
 11
17.66375
 21
-121.33897
  0
LINE
  8
0
  6
CONTINUOUS
 62
     7
 10
16.956638
 20
-121.04608
 11
15.04243
 21
-119.13187
  0
LINE
  8
0
  6
CONTINUOUS
 62
     7
 10
14.33532
 20
-118.83897
 11
-6.2504644
 21
-118.83897
  0
LINE
  8
0
  6
CONTINUOUS
 62
     7
 10
30.249535
 20
-42.641769
 11
30.249535
 21
-121.32279
  0
LINE
  8
0
  6
CONTINUOUS
 62
     7
 10
29.956642
 20
-41.131866
 11
29.042429
 21
-42.046082
  0
LINE
  8
0
  6
CONTINUOUS
 62
     7
 10
28.749535
 20
-44.507278
 11
28.749535
 21
-119.70174
  0
LINE
  8
0
  6
CONTINUOUS
 62
     7
 10
29.956642
 20
-122.54608
 11
29.042429
 21
-121.63187
  0
LINE
  8
0
  6
CONTINUOUS
 62
     7
 10
355.42624
 20
56.467888
 11
433.63202
 21
56.467888
  0
LINE
  8
0
  6
CONTINUOUS
 62
     7
 10
438.15045
 20
-41.282112
 11
459.52911
 21
-41.282112
  0
LINE
  8
0
  6
CONTINUOUS
 62
     7
 10
632.46429
 20
57.252415
 11
653.59827
 21
57.252415
  0
LINE
  8
0
  6
CONTINUOUS
 62
     7
 10
544.63971
 20
62.752415
 11
627.55682
 21
62.752415
  0
LINE
  8
0
  6
CONTINUOUS
 62
     7
 10
653.59827
 20
57.252415
 11
653.59827
 21
-47.747585
  0
LINE
  8
0
  6
CONTINUOUS
 62
     7
 10
631.59827
 20
54.968174
 11
631.59827
 21
-45.751827
  0
LINE
  8
0
  6
CONTINUOUS
 62
     7
 10
628.85583
 20
62.002399
 11
631.16522
 21
58.002396
  0
LINE
  8
0
  6
CONTINUOUS
 62
     7
 10
628.42285
 20
60.174198
 11
628.42285
 21
-51.120296
  0
LINE
  8
0
  6
CONTINUOUS
 62
     7
 10
434.93103
 20
55.717884
 11
437.0961
 21
51.967884
  0
LINE
  8
0
  6
CONTINUOUS
 62
     7
 10
434.49802
 20
54.64069
 11
434.49802
 21
-45.021049
  0
LINE
  8
0
  6
CONTINUOUS
 62
     7
 10
355.42624
 20
-46.532112
 11
433.63202
 21
-46.532112
  0
LINE
  8
0
  6
CONTINUOUS
 62
     7
 10
434.93106
 20
-45.782108
 11
437.09613
 21
-42.032112
  0
LINE
  8
0
  6
CONTINUOUS
 62
     7
 10
329.52911
 20
51.217888
 11
329.52911
 21
-41.282112
  0
LINE
  8
0
  6
CONTINUOUS
 62
     7
 10
350.66309
 20
51.217888
 11
329.52911
 21
51.217888
  0
LINE
  8
0
  6
CONTINUOUS
 62
     7
 10
351.52911
 20
49.76675
 11
351.52911
 21
-39.817039
  0
LINE
  8
0
  6
CONTINUOUS
 62
     7
 10
350.90781
 20
-41.282112
 11
329.52911
 21
-41.282112
  0
LINE
  8
0
  6
CONTINUOUS
 62
     7
 10
354.12723
 20
55.717884
 11
351.96216
 21
51.967888
  0
LINE
  8
0
  6
CONTINUOUS
 62
     7
 10
354.56021
 20
54.64069
 11
354.56021
 21
-45.021049
  0
LINE
  8
0
  6
CONTINUOUS
 62
     7
 10
354.1272
 20
-45.782112
 11
351.96213
 21
-42.032112
  0
LINE
  8
0
  6
CONTINUOUS
 62
     7
 10
632.46429
 20
-47.747585
 11
653.59827
 21
-47.747585
  0
LINE
  8
0
  6
CONTINUOUS
 62
     7
 10
544.63971
 20
-53.247585
 11
627.55682
 21
-53.247585
  0
LINE
  8
0
  6
CONTINUOUS
 62
     7
 10
628.8559
 20
-52.497566
 11
631.16528
 21
-48.497589
  0
LINE
  8
0
  6
CONTINUOUS
 62
     7
 10
539.73224
 20
57.252415
 11
518.59827
 21
57.252415
  0
LINE
  8
0
  6
CONTINUOUS
 62
     7
 10
518.59827
 20
57.252415
 11
518.59827
 21
-47.747585
  0
LINE
  8
0
  6
CONTINUOUS
 62
     7
 10
540.59827
 20
54.968174
 11
540.59827
 21
-45.751827
  0
LINE
  8
0
  6
CONTINUOUS
 62
     7
 10
543.3407
 20
62.00243
 11
541.03131
 21
58.002426
  0
LINE
  8
0
  6
CONTINUOUS
 62
     7
 10
543.77368
 20
60.174198
 11
543.77368
 21
-51.120296
  0
LINE
  8
0
  6
CONTINUOUS
 62
     7
 10
539.73224
 20
-47.747585
 11
518.59827
 21
-47.747585
  0
LINE
  8
0
  6
CONTINUOUS
 62
     7
 10
543.3407
 20
-52.497581
 11
541.03131
 21
-48.497608
  0
LINE
  8
0
  6
CONTINUOUS
 62
     7
 10
703.65692
 20
69.7435
 11
703.65692
 21
-61.256496
  0
LINE
  8
0
  6
CONTINUOUS
 62
     7
 10
723.79089
 20
69.7435
 11
703.65692
 21
69.7435
  0
LINE
  8
0
  6
CONTINUOUS
 62
     7
 10
724.65692
 20
67.893829
 11
724.65692
 21
-59.680355
  0
LINE
  8
0
  6
CONTINUOUS
 62
     7
 10
727.97668
 20
75.493523
 11
725.0899
 21
70.4935
  0
LINE
  8
0
  6
CONTINUOUS
 62
     7
 10
728.40967
 20
72.750702
 11
728.40967
 21
-64.861023
  0
LINE
  8
0
  6
CONTINUOUS
 62
     7
 10
727.97668
 20
-67.006493
 11
725.08997
 21
-62.006493
  0
LINE
  8
0
  6
CONTINUOUS
 62
     7
 10
723.79089
 20
-61.256496
 11
703.65692
 21
-61.256496
  0
ARC
  8
0
  6
CONTINUOUS
 62
     7
 10
-224.23836
 20
81.214218
 40
1.8
 50
216.00833
 51
323.99168
  0
ARC
  8
0
  6
CONTINUOUS
 62
     7
 10
-224.23836
 20
81.214218
 40
2.7
 50
216.00833
 51
323.99168
  0
ARC
  8
0
  6
CONTINUOUS
 62
     7
 10
-224.23836
 20
84.814209
 40
1.8
 50
36.00833
 51
143.99168
  0
ARC
  8
0
  6
CONTINUOUS
 62
     7
 10
-224.23836
 20
84.814209
 40
2.7
 50
36.00833
 51
143.99168
  0
ARC
  8
0
  6
CONTINUOUS
 62
     7
 10
-226.71509
 20
83.014221
 40
5.7617307
 50
323.99168
 51
355.52055
  0
ARC
  8
0
  6
CONTINUOUS
 62
     7
 10
-226.71509
 20
83.014221
 40
4.8617306
 50
323.99168
 51
354.68912
  0
ARC
  8
0
  6
CONTINUOUS
 62
     7
 10
-221.76163
 20
83.014221
 40
4.8617306
 50
143.99167
 51
216.00833
  0
ARC
  8
0
  6
CONTINUOUS
 62
     7
 10
-221.76163
 20
83.014221
 40
5.7617307
 50
143.99167
 51
175.52055
  0
ARC
  8
0
  6
CONTINUOUS
 62
     7
 10
-220.07585
 20
83.014221
 40
0.5625
 50
306.8699
 51
53.130098
  0
ARC
  8
0
  6
CONTINUOUS
 62
     7
 10
-223.90086
 20
83.014221
 40
0.5625
 50
126.8699
 51
233.13009
  0
ARC
  8
0
  6
CONTINUOUS
 62
     7
 10
-228.40086
 20
83.014221
 40
0.5625
 50
126.8699
 51
233.13009
  0
ARC
  8
0
  6
CONTINUOUS
 62
     7
 10
-226.71509
 20
83.014221
 40
5.7617307
 50
4.4794524
 51
36.00833
  0
ARC
  8
0
  6
CONTINUOUS
 62
     7
 10
-226.71509
 20
83.014221
 40
4.8617306
 50
5.3108776
 51
36.00833
  0
ARC
  8
0
  6
CONTINUOUS
 62
     7
 10
-221.76163
 20
83.014221
 40
5.7617307
 50
184.47945
 51
216.00833
  0
ARC
  8
0
  6
CONTINUOUS
 62
     7
 10
-110.38182
 20
81.214203
 40
1.8
 50
216.00833
 51
323.99168
  0
ARC
  8
0
  6
CONTINUOUS
 62
     7
 10
-110.38182
 20
81.214203
 40
2.7
 50
216.00833
 51
323.99168
  0
ARC
  8
0
  6
CONTINUOUS
 62
     7
 10
-110.38182
 20
84.814209
 40
1.8
 50
36.00833
 51
143.99168
  0
ARC
  8
0
  6
CONTINUOUS
 62
     7
 10
-110.38182
 20
84.814209
 40
2.7
 50
36.00833
 51
143.99168
  0
ARC
  8
0
  6
CONTINUOUS
 62
     7
 10
-112.85855
 20
83.014206
 40
5.7617307
 50
323.99168
 51
355.52055
  0
ARC
  8
0
  6
CONTINUOUS
 62
     7
 10
-112.85855
 20
83.014206
 40
4.8617306
 50
323.99168
 51
354.68912
  0
ARC
  8
0
  6
CONTINUOUS
 62
     7
 10
-107.90509
 20
83.014206
 40
4.8617306
 50
143.99167
 51
216.00833
  0
ARC
  8
0
  6
CONTINUOUS
 62
     7
 10
-107.90509
 20
83.014206
 40
5.7617307
 50
143.99167
 51
175.52055
  0
ARC
  8
0
  6
CONTINUOUS
 62
     7
 10
-106.21931
 20
83.014206
 40
0.5625
 50
306.8699
 51
53.130098
  0
ARC
  8
0
  6
CONTINUOUS
 62
     7
 10
-110.04433
 20
83.014206
 40
0.5625
 50
126.8699
 51
233.13009
  0
ARC
  8
0
  6
CONTINUOUS
 62
     7
 10
-114.54433
 20
83.014206
 40
0.5625
 50
126.8699
 51
233.13009
  0
ARC
  8
0
  6
CONTINUOUS
 62
     7
 10
-112.85855
 20
83.014206
 40
5.7617307
 50
4.4794524
 51
36.00833
  0
ARC
  8
0
  6
CONTINUOUS
 62
     7
 10
-112.85855
 20
83.014206
 40
4.8617306
 50
5.3108776
 51
36.00833
  0
ARC
  8
0
  6
CONTINUOUS
 62
     7
 10
-107.90509
 20
83.014206
 40
5.7617307
 50
184.47945
 51
216.00833
  0
ARC
  8
0
  6
CONTINUOUS
 62
     7
 10
5.8042612
 20
79.216484
 40
2.4000001
 50
216.00833
 51
323.99168
  0
ARC
  8
0
  6
CONTINUOUS
 62
     7
 10
5.8042612
 20
79.216484
 40
3.5999999
 50
216.00833
 51
323.99168
  0
ARC
  8
0
  6
CONTINUOUS
 62
     7
 10
5.8042612
 20
84.016472
 40
2.4000001
 50
36.00833
 51
143.99168
  0
ARC
  8
0
  6
CONTINUOUS
 62
     7
 10
5.8042612
 20
84.016472
 40
3.5999999
 50
36.00833
 51
143.99168
  0
ARC
  8
0
  6
CONTINUOUS
 62
     7
 10
2.5019543
 20
81.616478
 40
7.6823077
 50
323.99168
 51
355.52055
  0
ARC
  8
0
  6
CONTINUOUS
 62
     7
 10
2.5019543
 20
81.616478
 40
6.4823079
 50
323.99168
 51
354.68912
  0
ARC
  8
0
  6
CONTINUOUS
 62
     7
 10
9.1065683
 20
81.616478
 40
6.4823079
 50
143.99167
 51
216.00833
  0
ARC
  8
0
  6
CONTINUOUS
 62
     7
 10
9.1065683
 20
81.616478
 40
7.6823077
 50
143.99167
 51
175.52055
  0
ARC
  8
0
  6
CONTINUOUS
 62
     7
 10
11.354264
 20
81.616478
 40
0.75
 50
306.8699
 51
53.130098
  0
ARC
  8
0
  6
CONTINUOUS
 62
     7
 10
6.2542582
 20
81.616478
 40
0.75
 50
126.8699
 51
233.13009
  0
ARC
  8
0
  6
CONTINUOUS
 62
     7
 10
0.2542583
 20
81.616478
 40
0.75
 50
126.8699
 51
233.13009
  0
ARC
  8
0
  6
CONTINUOUS
 62
     7
 10
2.5019543
 20
81.616478
 40
6.4823079
 50
5.3108776
 51
36.00833
  0
ARC
  8
0
  6
CONTINUOUS
 62
     7
 10
2.5019543
 20
81.616478
 40
7.6823077
 50
4.4794524
 51
36.00833
  0
ARC
  8
0
  6
CONTINUOUS
 62
     7
 10
9.1065683
 20
81.616478
 40
7.6823077
 50
184.47945
 51
216.00833
  0
ARC
  8
0
  6
CONTINUOUS
 62
     7
 10
134.91931
 20
79.216484
 40
2.4000001
 50
216.00833
 51
323.99168
  0
ARC
  8
0
  6
CONTINUOUS
 62
     7
 10
134.91931
 20
79.216484
 40
3.5999999
 50
216.00833
 51
323.99168
  0
ARC
  8
0
  6
CONTINUOUS
 62
     7
 10
134.91931
 20
84.016487
 40
2.4000001
 50
36.00833
 51
143.99168
  0
ARC
  8
0
  6
CONTINUOUS
 62
     7
 10
134.91931
 20
84.016487
 40
3.5999999
 50
36.00833
 51
143.99168
  0
ARC
  8
0
  6
CONTINUOUS
 62
     7
 10
131.617
 20
81.616478
 40
7.6823077
 50
323.99168
 51
355.52055
  0
ARC
  8
0
  6
CONTINUOUS
 62
     7
 10
131.617
 20
81.616478
 40
6.4823079
 50
323.99168
 51
354.68912
  0
ARC
  8
0
  6
CONTINUOUS
 62
     7
 10
138.22162
 20
81.616478
 40
6.4823079
 50
143.99167
 51
216.00833
  0
ARC
  8
0
  6
CONTINUOUS
 62
     7
 10
138.22162
 20
81.616478
 40
7.6823077
 50
143.99167
 51
175.52055
  0
ARC
  8
0
  6
CONTINUOUS
 62
     7
 10
140.46931
 20
81.616478
 40
0.75
 50
306.8699
 51
53.130098
  0
ARC
  8
0
  6
CONTINUOUS
 62
     7
 10
135.36931
 20
81.616478
 40
0.75
 50
126.8699
 51
233.13009
  0
ARC
  8
0
  6
CONTINUOUS
 62
     7
 10
129.36931
 20
81.616478
 40
0.75
 50
126.8699
 51
233.13009
  0
ARC
  8
0
  6
CONTINUOUS
 62
     7
 10
131.617
 20
81.616478
 40
6.4823079
 50
5.3108776
 51
36.00833
  0
ARC
  8
0
  6
CONTINUOUS
 62
     7
 10
131.617
 20
81.616478
 40
7.6823077
 50
4.4794524
 51
36.00833
  0
ARC
  8
0
  6
CONTINUOUS
 62
     7
 10
138.22162
 20
81.616478
 40
7.6823077
 50
184.47945
 51
216.00833
  0
ARC
  8
0
  6
CONTINUOUS
 62
     7
 10
-192.62315
 20
-84.152176
 40
2.4000001
 50
216.00833
 51
323.99168
  0
ARC
  8
0
  6
CONTINUOUS
 62
     7
 10
-192.62315
 20
-84.152176
 40
3.5999999
 50
216.00833
 51
323.99168
  0
ARC
  8
0
  6
CONTINUOUS
 62
     7
 10
-192.62315
 20
-79.352173
 40
2.4000001
 50
36.00833
 51
143.99168
  0
ARC
  8
0
  6
CONTINUOUS
 62
     7
 10
-192.62315
 20
-79.352173
 40
3.5999999
 50
36.00833
 51
143.99168
  0
ARC
  8
0
  6
CONTINUOUS
 62
     7
 10
-195.92546
 20
-81.752182
 40
7.6823077
 50
323.99168
 51
355.52055
  0
ARC
  8
0
  6
CONTINUOUS
 62
     7
 10
-195.92546
 20
-81.752182
 40
6.4823079
 50
323.99168
 51
354.68912
  0
ARC
  8
0
  6
CONTINUOUS
 62
     7
 10
-189.32085
 20
-81.752182
 40
6.4823079
 50
143.99167
 51
216.00833
  0
ARC
  8
0
  6
CONTINUOUS
 62
     7
 10
-189.32085
 20
-81.752182
 40
7.6823077
 50
143.99167
 51
175.52055
  0
ARC
  8
0
  6
CONTINUOUS
 62
     7
 10
-187.07315
 20
-81.752182
 40
0.75
 50
306.8699
 51
53.130098
  0
ARC
  8
0
  6
CONTINUOUS
 62
     7
 10
-192.17316
 20
-81.752182
 40
0.75
 50
126.8699
 51
233.13009
  0
ARC
  8
0
  6
CONTINUOUS
 62
     7
 10
-198.17316
 20
-81.752182
 40
0.75
 50
126.8699
 51
233.13009
  0
ARC
  8
0
  6
CONTINUOUS
 62
     7
 10
-195.92546
 20
-81.752182
 40
6.4823079
 50
5.3108776
 51
36.00833
  0
ARC
  8
0
  6
CONTINUOUS
 62
     7
 10
-195.92546
 20
-81.752182
 40
7.6823077
 50
4.4794524
 51
36.00833
  0
ARC
  8
0
  6
CONTINUOUS
 62
     7
 10
-189.32085
 20
-81.752182
 40
7.6823077
 50
184.47945
 51
216.00833
  0
ARC
  8
0
  6
CONTINUOUS
 62
     7
 10
3.7810936
 20
-84.752182
 40
3
 50
216.00833
 51
323.99168
  0
ARC
  8
0
  6
CONTINUOUS
 62
     7
 10
3.7810936
 20
-84.752182
 40
4.5
 50
216.00833
 51
323.99168
  0
ARC
  8
0
  6
CONTINUOUS
 62
     7
 10
3.7810936
 20
-78.752182
 40
3
 50
36.00833
 51
143.99168
  0
ARC
  8
0
  6
CONTINUOUS
 62
     7
 10
3.7810936
 20
-78.752182
 40
4.5
 50
36.00833
 51
143.99168
  0
ARC
  8
0
  6
CONTINUOUS
 62
     7
 10
-0.34679034
 20
-81.752182
 40
9.6028843
 50
323.99168
 51
355.52055
  0
ARC
  8
0
  6
CONTINUOUS
 62
     7
 10
-0.34679034
 20
-81.752182
 40
8.1028843
 50
323.99168
 51
354.68912
  0
ARC
  8
0
  6
CONTINUOUS
 62
     7
 10
7.9089775
 20
-81.752182
 40
8.1028843
 50
143.99167
 51
216.00833
  0
ARC
  8
0
  6
CONTINUOUS
 62
     7
 10
7.9089775
 20
-81.752182
 40
9.6028843
 50
143.99167
 51
175.52055
  0
ARC
  8
0
  6
CONTINUOUS
 62
     7
 10
10.718594
 20
-81.752182
 40
0.9375
 50
306.8699
 51
53.130098
  0
ARC
  8
0
  6
CONTINUOUS
 62
     7
 10
4.3435936
 20
-81.752182
 40
0.9375
 50
126.8699
 51
233.13009
  0
ARC
  8
0
  6
CONTINUOUS
 62
     7
 10
-3.1564064
 20
-81.752182
 40
0.9375
 50
126.8699
 51
233.13009
  0
ARC
  8
0
  6
CONTINUOUS
 62
     7
 10
-0.34679034
 20
-81.752182
 40
9.6028843
 50
4.4794524
 51
36.00833
  0
ARC
  8
0
  6
CONTINUOUS
 62
     7
 10
-0.34679034
 20
-81.752182
 40
8.1028843
 50
5.3108776
 51
36.00833
  0
ARC
  8
0
  6
CONTINUOUS
 62
     7
 10
7.9089775
 20
-81.752182
 40
9.6028843
 50
184.47945
 51
216.00833
  0
ARC
  8
0
  6
CONTINUOUS
 62
     7
 10
340.40649
 20
1.9184566
 40
3
 50
216.00833
 51
323.99168
  0
ARC
  8
0
  6
CONTINUOUS
 62
     7
 10
340.40649
 20
1.9184566
 40
4.5
 50
216.00833
 51
323.99168
  0
ARC
  8
0
  6
CONTINUOUS
 62
     7
 10
340.40649
 20
7.9184566
 40
3
 50
36.00833
 51
143.99168
  0
ARC
  8
0
  6
CONTINUOUS
 62
     7
 10
340.40649
 20
7.9184566
 40
4.5
 50
36.00833
 51
143.99168
  0
ARC
  8
0
  6
CONTINUOUS
 62
     7
 10
336.27863
 20
4.9184566
 40
9.6028843
 50
323.99168
 51
355.52055
  0
ARC
  8
0
  6
CONTINUOUS
 62
     7
 10
336.27863
 20
4.9184566
 40
8.1028843
 50
323.99168
 51
354.68912
  0
ARC
  8
0
  6
CONTINUOUS
 62
     7
 10
344.53439
 20
4.9184566
 40
8.1028843
 50
143.99167
 51
216.00833
  0
ARC
  8
0
  6
CONTINUOUS
 62
     7
 10
344.53439
 20
4.9184566
 40
9.6028843
 50
143.99167
 51
175.52055
  0
ARC
  8
0
  6
CONTINUOUS
 62
     7
 10
347.34399
 20
4.9184566
 40
0.9375
 50
306.8699
 51
53.130098
  0
ARC
  8
0
  6
CONTINUOUS
 62
     7
 10
340.96899
 20
4.9184566
 40
0.9375
 50
126.8699
 51
233.13009
  0
ARC
  8
0
  6
CONTINUOUS
 62
     7
 10
333.46899
 20
4.9184566
 40
0.9375
 50
126.8699
 51
233.13009
  0
ARC
  8
0
  6
CONTINUOUS
 62
     7
 10
336.27863
 20
4.9184566
 40
9.6028843
 50
4.4794524
 51
36.00833
  0
ARC
  8
0
  6
CONTINUOUS
 62
     7
 10
336.27863
 20
4.9184566
 40
8.1028843
 50
5.3108776
 51
36.00833
  0
ARC
  8
0
  6
CONTINUOUS
 62
     7
 10
344.53439
 20
4.9184566
 40
9.6028843
 50
184.47945
 51
216.00833
  0
ARC
  8
0
  6
CONTINUOUS
 62
     7
 10
529.87915
 20
1.3184199
 40
3.5999999
 50
216.00833
 51
323.99168
  0
ARC
  8
0
  6
CONTINUOUS
 62
     7
 10
529.87915
 20
1.3184199
 40
5.4000001
 50
216.00833
 51
323.99168
  0
ARC
  8
0
  6
CONTINUOUS
 62
     7
 10
529.87915
 20
8.5184326
 40
3.5999999
 50
36.00833
 51
143.99168
  0
ARC
  8
0
  6
CONTINUOUS
 62
     7
 10
529.87915
 20
8.5184326
 40
5.4000001
 50
36.00833
 51
143.99168
  0
ARC
  8
0
  6
CONTINUOUS
 62
     7
 10
524.92566
 20
4.9184566
 40
11.523461
 50
323.99168
 51
355.52055
  0
ARC
  8
0
  6
CONTINUOUS
 62
     7
 10
524.92566
 20
4.9184566
 40
9.7234612
 50
323.99168
 51
354.68912
  0
ARC
  8
0
  6
CONTINUOUS
 62
     7
 10
534.83258
 20
4.9184566
 40
9.7234612
 50
143.99167
 51
216.00833
  0
ARC
  8
0
  6
CONTINUOUS
 62
     7
 10
534.83258
 20
4.9184566
 40
11.523461
 50
143.99167
 51
175.52055
  0
ARC
  8
0
  6
CONTINUOUS
 62
     7
 10
538.20416
 20
4.9184566
 40
1.125
 50
306.8699
 51
53.130098
  0
ARC
  8
0
  6
CONTINUOUS
 62
     7
 10
530.55414
 20
4.9184566
 40
1.125
 50
126.8699
 51
233.13009
  0
ARC
  8
0
  6
CONTINUOUS
 62
     7
 10
521.55414
 20
4.9184566
 40
1.125
 50
126.8699
 51
233.13009
  0
ARC
  8
0
  6
CONTINUOUS
 62
     7
 10
524.92566
 20
4.9184566
 40
11.523461
 50
4.4794524
 51
36.00833
  0
ARC
  8
0
  6
CONTINUOUS
 62
     7
 10
524.92566
 20
4.9184566
 40
9.7234612
 50
5.3108776
 51
36.00833
  0
ARC
  8
0
  6
CONTINUOUS
 62
     7
 10
534.83258
 20
4.9184566
 40
11.523461
 50
184.47945
 51
216.00833
  0
ARC
  8
0
  6
CONTINUOUS
 62
     7
 10
714.30847
 20
0.74359751
 40
3.5999999
 50
216.00833
 51
323.99168
  0
ARC
  8
0
  6
CONTINUOUS
 62
     7
 10
714.30847
 20
0.74359751
 40
5.4000001
 50
216.00833
 51
323.99168
  0
ARC
  8
0
  6
CONTINUOUS
 62
     7
 10
714.30847
 20
7.9436097
 40
3.5999999
 50
36.00833
 51
143.99168
  0
ARC
  8
0
  6
CONTINUOUS
 62
     7
 10
714.30847
 20
7.9436097
 40
5.4000001
 50
36.00833
 51
143.99168
  0
ARC
  8
0
  6
CONTINUOUS
 62
     7
 10
709.35498
 20
4.3435731
 40
11.523461
 50
323.99168
 51
355.52055
  0
ARC
  8
0
  6
CONTINUOUS
 62
     7
 10
709.35498
 20
4.3435731
 40
9.7234612
 50
323.99168
 51
354.68912
  0
ARC
  8
0
  6
CONTINUOUS
 62
     7
 10
719.2619
 20
4.3435731
 40
9.7234612
 50
143.99167
 51
216.00833
  0
ARC
  8
0
  6
CONTINUOUS
 62
     7
 10
719.2619
 20
4.3435731
 40
11.523461
 50
143.99167
 51
175.52055
  0
ARC
  8
0
  6
CONTINUOUS
 62
     7
 10
722.63348
 20
4.3435731
 40
1.125
 50
306.8699
 51
53.130098
  0
ARC
  8
0
  6
CONTINUOUS
 62
     7
 10
714.98346
 20
4.3435731
 40
1.125
 50
126.8699
 51
233.13009
  0
ARC
  8
0
  6
CONTINUOUS
 62
     7
 10
705.98346
 20
4.3435731
 40
1.125
 50
126.8699
 51
233.13009
  0
ARC
  8
0
  6
CONTINUOUS
 62
     7
 10
709.35498
 20
4.3435731
 40
11.523461
 50
4.4794524
 51
36.00833
  0
ARC
  8
0
  6
CONTINUOUS
 62
     7
 10
709.35498
 20
4.3435731
 40
9.7234612
 50
5.3108776
 51
36.00833
  0
ARC
  8
0
  6
CONTINUOUS
 62
     7
 10
719.2619
 20
4.3435731
 40
11.523461
 50
184.47945
 51
216.00833
  0
ARC
  8
0
  6
CONTINUOUS
 62
     7
 10
-173.89348
 20
100.50612
 40
1
 50
225
 51
270
  0
ARC
  8
0
  6
CONTINUOUS
 62
     7
 10
-175.72191
 20
99.506119
 40
1
 50
45.000001
 51
90.000003
  0
ARC
  8
0
  6
CONTINUOUS
 62
     7
 10
-173.89348
 20
65.506119
 40
1
 50
90.000003
 51
135
  0
ARC
  8
0
  6
CONTINUOUS
 62
     7
 10
-175.72191
 20
66.506119
 40
1
 50
270
 51
315
  0
ARC
  8
0
  6
CONTINUOUS
 62
     7
 10
-54.744244
 20
103.50612
 40
1
 50
225
 51
270
  0
ARC
  8
0
  6
CONTINUOUS
 62
     7
 10
-56.57267
 20
102.50612
 40
1
 50
45.000001
 51
90.000003
  0
ARC
  8
0
  6
CONTINUOUS
 62
     7
 10
-56.57267
 20
63.506115
 40
1
 50
270
 51
315
  0
ARC
  8
0
  6
CONTINUOUS
 62
     7
 10
-54.744244
 20
62.506115
 40
1
 50
90.000003
 51
135
  0
ARC
  8
0
  6
CONTINUOUS
 62
     7
 10
70.180077
 20
105.66209
 40
1
 50
225
 51
270
  0
ARC
  8
0
  6
CONTINUOUS
 62
     7
 10
67.851646
 20
105.16209
 40
1
 50
45.000001
 51
90.000003
  0
ARC
  8
0
  6
CONTINUOUS
 62
     7
 10
67.851646
 20
58.16209
 40
1
 50
270
 51
315
  0
ARC
  8
0
  6
CONTINUOUS
 62
     7
 10
70.180077
 20
57.66209
 40
1
 50
90.000003
 51
135
  0
ARC
  8
0
  6
CONTINUOUS
 62
     7
 10
206.33531
 20
110.66209
 40
1
 50
225
 51
270
  0
ARC
  8
0
  6
CONTINUOUS
 62
     7
 10
203.50688
 20
110.66209
 40
1
 50
45.000001
 51
90.000003
  0
ARC
  8
0
  6
CONTINUOUS
 62
     7
 10
203.50688
 20
52.66209
 40
1
 50
270
 51
315
  0
ARC
  8
0
  6
CONTINUOUS
 62
     7
 10
206.33531
 20
52.66209
 40
1
 50
90.000003
 51
135
  0
ARC
  8
0
  6
CONTINUOUS
 62
     7
 10
-116.30335
 20
-49.838974
 40
1
 50
225
 51
270
  0
ARC
  8
0
  6
CONTINUOUS
 62
     7
 10
-118.88178
 20
-50.088974
 40
1
 50
45.000001
 51
90.000003
  0
ARC
  8
0
  6
CONTINUOUS
 62
     7
 10
-118.88178
 20
-113.58897
 40
1
 50
270
 51
315
  0
ARC
  8
0
  6
CONTINUOUS
 62
     7
 10
-116.30335
 20
-113.83897
 40
1
 50
90.000003
 51
135
  0
ARC
  8
0
  6
CONTINUOUS
 62
     7
 10
85.16375
 20
-43.838974
 40
1
 50
225
 51
270
  0
ARC
  8
0
  6
CONTINUOUS
 62
     7
 10
81.83532
 20
-43.338974
 40
1
 50
45.000001
 51
90.000003
  0
ARC
  8
0
  6
CONTINUOUS
 62
     7
 10
81.83532
 20
-120.33897
 40
1
 50
270
 51
315
  0
ARC
  8
0
  6
CONTINUOUS
 62
     7
 10
85.16375
 20
-119.83897
 40
1
 50
90.000003
 51
135
  0
ARC
  8
0
  6
CONTINUOUS
 62
     7
 10
828.52295
 20
71.2435
 40
1.5
 50
210
 51
270
  0
ARC
  8
0
  6
CONTINUOUS
 62
     7
 10
823.03809
 20
74.7435
 40
1.5
 50
30.000001
 51
90.000003
  0
ARC
  8
0
  6
CONTINUOUS
 62
     7
 10
823.03809
 20
-66.2565
 40
1.5
 50
270
 51
330
  0
ARC
  8
0
  6
CONTINUOUS
 62
     7
 10
828.52295
 20
-62.756496
 40
1.5
 50
90.000003
 51
150
  0
ARC
  8
0
  6
CONTINUOUS
 62
     7
 10
-184.72191
 20
101.00612
 40
1
 50
45.000001
 51
90.000003
  0
ARC
  8
0
  6
CONTINUOUS
 62
     7
 10
-182.39348
 20
101.50612
 40
1
 50
225
 51
270
  0
ARC
  8
0
  6
CONTINUOUS
 62
     7
 10
-184.72191
 20
65.006119
 40
1
 50
270
 51
315
  0
ARC
  8
0
  6
CONTINUOUS
 62
     7
 10
-182.39348
 20
64.506119
 40
1
 50
90.000003
 51
135
  0
ARC
  8
0
  6
CONTINUOUS
 62
     7
 10
-207.22191
 20
64.506119
 40
1
 50
45.000001
 51
90.000003
  0
ARC
  8
0
  6
CONTINUOUS
 62
     7
 10
-215.72191
 20
100.50612
 40
1
 50
270
 51
315
  0
ARC
  8
0
  6
CONTINUOUS
 62
     7
 10
-213.89348
 20
99.506119
 40
1
 50
90.000003
 51
135
  0
ARC
  8
0
  6
CONTINUOUS
 62
     7
 10
-215.72191
 20
65.506119
 40
1
 50
45.000001
 51
90.000003
  0
ARC
  8
0
  6
CONTINUOUS
 62
     7
 10
-213.89348
 20
66.506119
 40
1
 50
225
 51
270
  0
ARC
  8
0
  6
CONTINUOUS
 62
     7
 10
-204.89348
 20
101.00612
 40
1
 50
90.000003
 51
135
  0
ARC
  8
0
  6
CONTINUOUS
 62
     7
 10
-207.22191
 20
101.50612
 40
1
 50
270
 51
315
  0
ARC
  8
0
  6
CONTINUOUS
 62
     7
 10
-204.89348
 20
65.006119
 40
1
 50
225
 51
270
  0
ARC
  8
0
  6
CONTINUOUS
 62
     7
 10
-64.244247
 20
104.50612
 40
1
 50
225
 51
270
  0
ARC
  8
0
  6
CONTINUOUS
 62
     7
 10
-66.57267
 20
104.00612
 40
1
 50
45.000001
 51
90.000003
  0
ARC
  8
0
  6
CONTINUOUS
 62
     7
 10
-66.57267
 20
62.006115
 40
1
 50
270
 51
315
  0
ARC
  8
0
  6
CONTINUOUS
 62
     7
 10
-64.244247
 20
61.506115
 40
1
 50
90.000003
 51
135
  0
ARC
  8
0
  6
CONTINUOUS
 62
     7
 10
-92.07267
 20
61.506115
 40
1
 50
45.000001
 51
90.000003
  0
ARC
  8
0
  6
CONTINUOUS
 62
     7
 10
-101.57267
 20
103.50612
 40
1
 50
270
 51
315
  0
ARC
  8
0
  6
CONTINUOUS
 62
     7
 10
-99.744247
 20
102.50612
 40
1
 50
90.000003
 51
135
  0
ARC
  8
0
  6
CONTINUOUS
 62
     7
 10
-99.744247
 20
63.506115
 40
1
 50
225
 51
270
  0
ARC
  8
0
  6
CONTINUOUS
 62
     7
 10
-101.57267
 20
62.506115
 40
1
 50
45.000001
 51
90.000003
  0
ARC
  8
0
  6
CONTINUOUS
 62
     7
 10
-92.07267
 20
104.50612
 40
1
 50
270
 51
315
  0
ARC
  8
0
  6
CONTINUOUS
 62
     7
 10
-89.744247
 20
104.00612
 40
1
 50
90.000003
 51
135
  0
ARC
  8
0
  6
CONTINUOUS
 62
     7
 10
-89.744247
 20
62.006115
 40
1
 50
225
 51
270
  0
ARC
  8
0
  6
CONTINUOUS
 62
     7
 10
58.18008
 20
107.16209
 40
1
 50
225
 51
270
  0
ARC
  8
0
  6
CONTINUOUS
 62
     7
 10
55.851654
 20
106.66209
 40
1
 50
45.000001
 51
90.000003
  0
ARC
  8
0
  6
CONTINUOUS
 62
     7
 10
55.851654
 20
56.66209
 40
1
 50
270
 51
315
  0
ARC
  8
0
  6
CONTINUOUS
 62
     7
 10
58.18008
 20
56.16209
 40
1
 50
90.000003
 51
135
  0
ARC
  8
0
  6
CONTINUOUS
 62
     7
 10
28.351652
 20
56.16209
 40
1
 50
45.000001
 51
90.000003
  0
ARC
  8
0
  6
CONTINUOUS
 62
     7
 10
16.351652
 20
105.66209
 40
1
 50
270
 51
315
  0
ARC
  8
0
  6
CONTINUOUS
 62
     7
 10
18.68008
 20
105.16209
 40
1
 50
90.000003
 51
135
  0
ARC
  8
0
  6
CONTINUOUS
 62
     7
 10
18.68008
 20
58.16209
 40
1
 50
225
 51
270
  0
ARC
  8
0
  6
CONTINUOUS
 62
     7
 10
16.351652
 20
57.66209
 40
1
 50
45.000001
 51
90.000003
  0
ARC
  8
0
  6
CONTINUOUS
 62
     7
 10
28.351652
 20
107.16209
 40
1
 50
270
 51
315
  0
ARC
  8
0
  6
CONTINUOUS
 62
     7
 10
30.68008
 20
106.66209
 40
1
 50
90.000003
 51
135
  0
ARC
  8
0
  6
CONTINUOUS
 62
     7
 10
30.68008
 20
56.66209
 40
1
 50
225
 51
270
  0
ARC
  8
0
  6
CONTINUOUS
 62
     7
 10
194.58531
 20
112.66209
 40
1
 50
225
 51
270
  0
ARC
  8
0
  6
CONTINUOUS
 62
     7
 10
192.50688
 20
111.91209
 40
1
 50
45.000001
 51
90.000003
  0
ARC
  8
0
  6
CONTINUOUS
 62
     7
 10
192.50688
 20
51.41209
 40
1
 50
270
 51
315
  0
ARC
  8
0
  6
CONTINUOUS
 62
     7
 10
194.58531
 20
50.66209
 40
1
 50
90.000003
 51
135
  0
ARC
  8
0
  6
CONTINUOUS
 62
     7
 10
157.25688
 20
50.66209
 40
1
 50
45.000001
 51
90.000003
  0
ARC
  8
0
  6
CONTINUOUS
 62
     7
 10
159.33531
 20
111.91209
 40
1
 50
90.000003
 51
135
  0
ARC
  8
0
  6
CONTINUOUS
 62
     7
 10
159.33531
 20
51.41209
 40
1
 50
225
 51
270
  0
ARC
  8
0
  6
CONTINUOUS
 62
     7
 10
145.50688
 20
110.66209
 40
1
 50
270
 51
315
  0
ARC
  8
0
  6
CONTINUOUS
 62
     7
 10
148.33531
 20
110.66209
 40
1
 50
90.000003
 51
135
  0
ARC
  8
0
  6
CONTINUOUS
 62
     7
 10
148.33531
 20
52.66209
 40
1
 50
225
 51
270
  0
ARC
  8
0
  6
CONTINUOUS
 62
     7
 10
145.50688
 20
52.66209
 40
1
 50
45.000001
 51
90.000003
  0
ARC
  8
0
  6
CONTINUOUS
 62
     7
 10
157.25688
 20
112.66209
 40
1
 50
270
 51
315
  0
ARC
  8
0
  6
CONTINUOUS
 62
     7
 10
-128.55336
 20
-48.088974
 40
1
 50
225
 51
270
  0
ARC
  8
0
  6
CONTINUOUS
 62
     7
 10
-131.13179
 20
-48.338974
 40
1
 50
45.000001
 51
90.000003
  0
ARC
  8
0
  6
CONTINUOUS
 62
     7
 10
-131.13179
 20
-115.33897
 40
1
 50
270
 51
315
  0
ARC
  8
0
  6
CONTINUOUS
 62
     7
 10
-128.55336
 20
-115.58897
 40
1
 50
90.000003
 51
135
  0
ARC
  8
0
  6
CONTINUOUS
 62
     7
 10
-169.88177
 20
-115.58897
 40
1
 50
45.000001
 51
90.000003
  0
ARC
  8
0
  6
CONTINUOUS
 62
     7
 10
-167.30334
 20
-115.33897
 40
1
 50
225
 51
270
  0
ARC
  8
0
  6
CONTINUOUS
 62
     7
 10
-167.30334
 20
-48.338974
 40
1
 50
90.000003
 51
135
  0
ARC
  8
0
  6
CONTINUOUS
 62
     7
 10
-182.13177
 20
-49.838974
 40
1
 50
270
 51
315
  0
ARC
  8
0
  6
CONTINUOUS
 62
     7
 10
-179.55334
 20
-50.088974
 40
1
 50
90.000003
 51
135
  0
ARC
  8
0
  6
CONTINUOUS
 62
     7
 10
-179.55334
 20
-113.58897
 40
1
 50
225
 51
270
  0
ARC
  8
0
  6
CONTINUOUS
 62
     7
 10
-182.13177
 20
-113.83897
 40
1
 50
45.000001
 51
90.000003
  0
ARC
  8
0
  6
CONTINUOUS
 62
     7
 10
-169.88177
 20
-48.088974
 40
1
 50
270
 51
315
  0
ARC
  8
0
  6
CONTINUOUS
 62
     7
 10
71.16375
 20
-41.338974
 40
1
 50
225
 51
270
  0
ARC
  8
0
  6
CONTINUOUS
 62
     7
 10
68.83532
 20
-41.838974
 40
1
 50
45.000001
 51
90.000003
  0
ARC
  8
0
  6
CONTINUOUS
 62
     7
 10
68.83532
 20
-121.83897
 40
1
 50
270
 51
315
  0
ARC
  8
0
  6
CONTINUOUS
 62
     7
 10
71.16375
 20
-122.33897
 40
1
 50
90.000003
 51
135
  0
ARC
  8
0
  6
CONTINUOUS
 62
     7
 10
28.335321
 20
-122.33897
 40
1
 50
45.000001
 51
90.000003
  0
ARC
  8
0
  6
CONTINUOUS
 62
     7
 10
14.33532
 20
-43.838974
 40
1
 50
270
 51
315
  0
ARC
  8
0
  6
CONTINUOUS
 62
     7
 10
17.66375
 20
-43.338974
 40
1
 50
90.000003
 51
135
  0
ARC
  8
0
  6
CONTINUOUS
 62
     7
 10
17.66375
 20
-120.33897
 40
1
 50
225
 51
270
  0
ARC
  8
0
  6
CONTINUOUS
 62
     7
 10
14.33532
 20
-119.83897
 40
1
 50
45.000001
 51
90.000003
  0
ARC
  8
0
  6
CONTINUOUS
 62
     7
 10
28.335321
 20
-41.338974
 40
1
 50
270
 51
315
  0
ARC
  8
0
  6
CONTINUOUS
 62
     7
 10
30.663748
 20
-41.838974
 40
1
 50
90.000003
 51
135
  0
ARC
  8
0
  6
CONTINUOUS
 62
     7
 10
30.663748
 20
-121.83897
 40
1
 50
225
 51
270
  0
ARC
  8
0
  6
CONTINUOUS
 62
     7
 10
632.46429
 20
58.752415
 40
1.5
 50
210
 51
270
  0
ARC
  8
0
  6
CONTINUOUS
 62
     7
 10
627.55682
 20
61.252415
 40
1.5
 50
30.000001
 51
90.000003
  0
ARC
  8
0
  6
CONTINUOUS
 62
     7
 10
438.39514
 20
52.717888
 40
1.5
 50
210
 51
270
  0
ARC
  8
0
  6
CONTINUOUS
 62
     7
 10
433.63202
 20
54.967888
 40
1.5
 50
30.000001
 51
90.000003
  0
ARC
  8
0
  6
CONTINUOUS
 62
     7
 10
433.63202
 20
-45.032112
 40
1.5
 50
270
 51
330
  0
ARC
  8
0
  6
CONTINUOUS
 62
     7
 10
438.39514
 20
-42.782112
 40
1.5
 50
90.000003
 51
150
  0
ARC
  8
0
  6
CONTINUOUS
 62
     7
 10
355.42624
 20
54.967888
 40
1.5
 50
90.000003
 51
150
  0
ARC
  8
0
  6
CONTINUOUS
 62
     7
 10
350.66309
 20
-42.782112
 40
1.5
 50
30.000001
 51
90.000003
  0
ARC
  8
0
  6
CONTINUOUS
 62
     7
 10
355.42624
 20
-45.032112
 40
1.5
 50
210
 51
270
  0
ARC
  8
0
  6
CONTINUOUS
 62
     7
 10
350.66309
 20
52.717888
 40
1.5
 50
270
 51
330
  0
ARC
  8
0
  6
CONTINUOUS
 62
     7
 10
632.46429
 20
-49.247585
 40
1.5
 50
90.000003
 51
150
  0
ARC
  8
0
  6
CONTINUOUS
 62
     7
 10
627.55682
 20
-51.747585
 40
1.5
 50
270
 51
330
  0
ARC
  8
0
  6
CONTINUOUS
 62
     7
 10
544.63971
 20
-51.747585
 40
1.5
 50
210
 51
270
  0
ARC
  8
0
  6
CONTINUOUS
 62
     7
 10
539.73224
 20
58.752415
 40
1.5
 50
270
 51
330
  0
ARC
  8
0
  6
CONTINUOUS
 62
     7
 10
544.63971
 20
61.252415
 40
1.5
 50
90.000003
 51
150
  0
ARC
  8
0
  6
CONTINUOUS
 62
     7
 10
539.73224
 20
-49.247585
 40
1.5
 50
30.000001
 51
90.000003
  0
ARC
  8
0
  6
CONTINUOUS
 62
     7
 10
723.79089
 20
71.2435
 40
1.5
 50
270
 51
330
  0
ARC
  8
0
  6
CONTINUOUS
 62
     7
 10
729.2757
 20
-66.2565
 40
1.5
 50
210
 51
270
  0
ARC
  8
0
  6
CONTINUOUS
 62
     7
 10
729.2757
 20
74.7435
 40
1.5
 50
90.000003
 51
150
  0
ARC
  8
0
  6
CONTINUOUS
 62
     7
 10
723.79089
 20
-62.756496
 40
1.5
 50
30.000001
 51
90.000003
  0
TEXT
  8
0
  6
CONTINUOUS
 62
     7
 10
-112.48413
 20
180.52132
 40
10
 41
0.84326416
  1
ＲＣＦ－ＭＫ－Ｓ（ソケット）
  0
TEXT
  8
0
  6
CONTINUOUS
 62
     7
 10
-201.5205
 20
105.75134
 40
10
 41
0.85534224
  1
１／２
  0
TEXT
  8
0
  6
CONTINUOUS
 62
     7
 10
-86.747753
 20
113.53448
 40
10
 41
0.85534224
  1
３／４
  0
TEXT
  8
0
  6
CONTINUOUS
 62
     7
 10
39.658154
 20
113.23228
 40
10
 41
0.90036056
  1
１
  0
TEXT
  8
0
  6
CONTINUOUS
 62
     7
 10
167.17324
 20
119.29945
 40
10
 41
0.85124967
  1
１１／４
  0
TEXT
  8
0
  6
CONTINUOUS
 62
     7
 10
-155.94782
 20
-41.555183
 40
10
 41
0.85124967
  1
１１／２
  0
TEXT
  8
0
  6
CONTINUOUS
 62
     7
 10
46.120239
 20
-35.477192
 40
10
 41
0.90036056
  1
２
  0
TEXT
  8
0
  6
CONTINUOUS
 62
     7
 10
385.4434
 20
63.401077
 40
10
 41
0.85124967
  1
２１／２
  0
TEXT
  8
0
  6
CONTINUOUS
 62
     7
 10
583.65751
 20
76.471527
 40
10
 41
0.90036056
  1
３
  0
TEXT
  8
0
  6
CONTINUOUS
 62
     7
 10
770.29942
 20
86.412338
 40
10
 41
0.90036056
  1
４
  0
ENDSEC
  0
EOF
