  0
SECTION
  2
HEADER
  9
$EXTMAX
 10
297.25922
 20
211.66544
  9
$EXTMIN
 10
-297.25922
 20
-210.82214
  0
ENDSEC
  0
SECTION
  2
TABLES
  0
TABLE
  2
LTYPE
 70
    22
  0
LTYPE
  2
CONTINUOUS
 70
    64
  3
Solid line
 72
    65
 73
     0
 40
0.000000
  0
LTYPE
  2
DASHED
 70
    64
  3
__ __ __ __ __ __ __ __ __ __ __ __ __ __ __
 72
    65
 73
     2
 40
3.500000
 49
2.000000
 49
-1.500000
  0
LTYPE
  2
CENTER
 70
    64
  3
____ _ ____ _ ____ _ ____ _ ____ _ ____ _ ____
 72
    65
 73
     4
 40
17.500000
 49
13.000000
 49
-1.500000
 49
1.500000
 49
-1.500000
  0
LTYPE
  2
PHANTOM
 70
    64
  3
_____ _ _ _____ _ _ _____ _ _ _____ _ _ ____  
 72
    65
 73
     6
 40
15.500000
 49
8.000000
 49
-1.500000
 49
1.500000
 49
-1.500000
 49
1.500000
 49
-1.500000
  0
LTYPE
  2
DOT
 70
    64
  3
. . . . . . . . . . . . . . . . . . . . . . . .
 72
    65
 73
     2
 40
0.25
 49
0.0
 49
-0.25
  0
ENDTAB
  0
TABLE
  2
LAYER
 70
     1
  0
LAYER
  2
0
 70
     0
 62
     7
  6
CONTINUOUS
  0
ENDTAB
  0
TABLE
  2
STYLE
 70
     1
  0
STYLE
  2
STANDARD
 70
     0
 40
0.000000
 41
1.000000
 50
0.000000
 71
     0
 42
0.200000
  3
txt
  4
BIGFONT
  0
ENDTAB
  0
TABLE
  2
VIEW
 70
     0
  0
ENDTAB
  0
ENDSEC
  0
SECTION
  2
BLOCKS
  0
ENDSEC
  0
SECTION
  2
ENTITIES
  0
POINT
  8
0
  6
CONTINUOUS
 62
     7
 10
-210.17738
 20
85.435921
  0
POINT
  8
0
  6
CONTINUOUS
 62
     7
 10
-95.714775
 20
82.184799
  0
POINT
  8
0
  6
CONTINUOUS
 62
     7
 10
26.124922
 20
80.560997
  0
POINT
  8
0
  6
CONTINUOUS
 62
     7
 10
162.48468
 20
77.316925
  0
POINT
  8
0
  6
CONTINUOUS
 62
     7
 10
102.313
 20
-115.72264
  0
POINT
  8
0
  6
CONTINUOUS
 62
     7
 10
-43.828987
 20
-110.03934
  0
POINT
  8
0
  6
CONTINUOUS
 62
     7
 10
-181.44603
 20
-110.03934
  0
POINT
  8
0
  6
CONTINUOUS
 62
     7
 10
-206.8017
 20
-323.70883
  0
POINT
  8
0
  6
CONTINUOUS
 62
     7
 10
-38.332458
 20
-322.08505
  0
POINT
  8
0
  6
CONTINUOUS
 62
     7
 10
141.09743
 20
-319.64935
  0
POINT
  8
0
  6
CONTINUOUS
 62
     7
 10
33.857758
 20
-516.17249
  0
POINT
  8
0
  6
CONTINUOUS
 62
     7
 10
-146.38403
 20
-521.04388
  0
POINT
  8
0
  6
CONTINUOUS
 62
     7
 10
428.73013
 20
109.09815
  0
POINT
  8
0
  6
CONTINUOUS
 62
     7
 10
625.67072
 20
103.8464
  0
POINT
  8
0
  6
CONTINUOUS
 62
     7
 10
519.08441
 20
-87.372826
  0
POINT
  8
0
  6
CONTINUOUS
 62
     7
 10
731.85724
 20
-89.240196
  0
POINT
  8
0
  6
CONTINUOUS
 62
     7
 10
437.45126
 20
-393.1871
  0
POINT
  8
0
  6
CONTINUOUS
 62
     7
 10
705.96039
 20
-401.36505
  0
POINT
  8
0
  6
CONTINUOUS
 62
     7
 10
731.5694
 20
-176.81004
  0
POINT
  8
0
  6
CONTINUOUS
 62
     7
 10
21.480701
 20
-321.91592
  0
POINT
  8
0
  6
CONTINUOUS
 62
     7
 10
205.72302
 20
-319.61447
  0
POINT
  8
0
  6
CONTINUOUS
 62
     7
 10
-168.83089
 20
85.515862
  0
POINT
  8
0
  6
CONTINUOUS
 62
     7
 10
72.384483
 20
80.619102
  0
POINT
  8
0
  6
CONTINUOUS
 62
     7
 10
213.35002
 20
77.482391
  0
POINT
  8
0
  6
CONTINUOUS
 62
     7
 10
9.852397
 20
-109.95363
  0
POINT
  8
0
  6
CONTINUOUS
 62
     7
 10
-50.38876
 20
82.230606
  0
POINT
  8
0
  6
CONTINUOUS
 62
     7
 10
-124.28378
 20
-109.88782
  0
POINT
  8
0
  6
CONTINUOUS
 62
     7
 10
161.31404
 20
-115.63261
  0
POINT
  8
0
  6
CONTINUOUS
 62
     7
 10
519.01654
 20
-175.4381
  0
POINT
  8
0
  6
CONTINUOUS
 62
     7
 10
-144.25374
 20
-323.2655
  0
POINT
  8
0
  6
CONTINUOUS
 62
     7
 10
-77.203331
 20
-520.93372
  0
POINT
  8
0
  6
CONTINUOUS
 62
     7
 10
104.44179
 20
-516.13513
  0
POINT
  8
0
  6
CONTINUOUS
 62
     7
 10
625.78424
 20
19.902876
  0
POINT
  8
0
  6
CONTINUOUS
 62
     7
 10
428.66489
 20
28.982546
  0
POINT
  8
0
  6
CONTINUOUS
 62
     7
 10
437.31854
 20
-488.05185
  0
POINT
  8
0
  6
CONTINUOUS
 62
     7
 10
705.92126
 20
-511.51349
  0
LINE
  8
0
  6
CONTINUOUS
 62
     7
 10
871
 20
-210
 11
871
 21
-610
  0
LINE
  8
0
  6
CONTINUOUS
 62
     7
 10
297
 20
-210
 11
871
 21
-210
  0
LINE
  8
0
  6
CONTINUOUS
 62
     7
 10
297
 20
-210
 11
297
 21
-610
  0
LINE
  8
0
  6
CONTINUOUS
 62
     7
 10
297
 20
-610
 11
871
 21
-610
  0
LINE
  8
0
  6
CENTER
 62
     7
 10
-240.45377
 20
85.435921
 11
-151.64305
 21
85.435921
  0
LINE
  8
0
  6
CENTER
 62
     7
 10
-210.17738
 20
139.9334
 11
-210.17738
 21
31.611246
  0
LINE
  8
0
  6
CENTER
 62
     7
 10
-95.714775
 20
147.33429
 11
-95.714775
 21
16.809462
  0
LINE
  8
0
  6
CENTER
 62
     7
 10
-127.42196
 20
82.184799
 11
-38.611248
 21
82.184799
  0
LINE
  8
0
  6
CENTER
 62
     7
 10
26.124922
 20
146.66148
 11
26.124922
 21
12.099803
  0
LINE
  8
0
  6
CENTER
 62
     7
 10
-3.625212
 20
80.560997
 11
89.222343
 21
80.560997
  0
LINE
  8
0
  6
CENTER
 62
     7
 10
162.48468
 20
148.6799
 11
162.48468
 21
7.3901443
  0
LINE
  8
0
  6
CENTER
 62
     7
 10
126.22681
 20
77.316925
 11
230.51212
 21
77.316925
  0
LINE
  8
0
  6
CENTER
 62
     7
 10
-220.44626
 20
-110.03934
 11
-105.39602
 21
-110.03934
  0
LINE
  8
0
  6
CENTER
 62
     7
 10
-181.44603
 20
-36.819389
 11
-181.44603
 21
-183.49162
  0
LINE
  8
0
  6
CENTER
 62
     7
 10
-43.828987
 20
-38.837814
 11
-43.828987
 21
-182.81882
  0
LINE
  8
0
  6
CENTER
 62
     7
 10
-85.884575
 20
-110.03934
 11
24.455999
 21
-110.03934
  0
LINE
  8
0
  6
CENTER
 62
     7
 10
71.313034
 20
-115.72264
 11
182.56596
 21
-115.72264
  0
LINE
  8
0
  6
CENTER
 62
     7
 10
102.313
 20
-41.529049
 11
102.313
 21
-190.2197
  0
LINE
  8
0
  6
CENTER
 62
     7
 10
-206.8017
 20
-244.24019
 11
-206.8017
 21
-401.67737
  0
LINE
  8
0
  6
CENTER
 62
     7
 10
-237.80167
 20
-323.70883
 11
-118.00264
 21
-323.70883
  0
LINE
  8
0
  6
CENTER
 62
     7
 10
-38.332458
 20
-249.62267
 11
-38.332458
 21
-394.27646
  0
LINE
  8
0
  6
CENTER
 62
     7
 10
-75.832428
 20
-322.08505
 11
38.761715
 21
-322.08505
  0
LINE
  8
0
  6
CENTER
 62
     7
 10
141.09743
 20
-241.54897
 11
141.09743
 21
-396.29489
  0
LINE
  8
0
  6
CENTER
 62
     7
 10
103.59743
 20
-319.64935
 11
227.14807
 21
-319.64935
  0
LINE
  8
0
  6
CENTER
 62
     7
 10
-146.38403
 20
-440.30048
 11
-146.38403
 21
-601.10168
  0
LINE
  8
0
  6
CENTER
 62
     7
 10
-57.039928
 20
-521.04388
 11
-183.88402
 21
-521.04388
  0
LINE
  8
0
  6
CENTER
 62
     7
 10
33.857758
 20
-430.20834
 11
33.857758
 21
-600.42889
  0
LINE
  8
0
  6
CENTER
 62
     7
 10
126.63676
 20
-516.17249
 11
-3.6422389
 21
-516.17249
  0
LINE
  8
0
  6
CONTINUOUS
 62
     7
 10
-287
 20
200
 11
-287
 21
-200
  0
LINE
  8
0
  6
CONTINUOUS
 62
     7
 10
-287
 20
-200
 11
287
 21
-200
  0
LINE
  8
0
  6
CONTINUOUS
 62
     7
 10
-287
 20
200
 11
287
 21
200
  0
LINE
  8
0
  6
CONTINUOUS
 62
     7
 10
287
 20
200
 11
287
 21
-200
  0
LINE
  8
0
  6
CONTINUOUS
 62
     7
 10
297
 20
200
 11
297
 21
-200
  0
LINE
  8
0
  6
CONTINUOUS
 62
     7
 10
297
 20
-200
 11
871
 21
-200
  0
LINE
  8
0
  6
CONTINUOUS
 62
     7
 10
297
 20
200
 11
871
 21
200
  0
LINE
  8
0
  6
CONTINUOUS
 62
     7
 10
871
 20
200
 11
871
 21
-200
  0
LINE
  8
0
  6
CENTER
 62
     7
 10
428.73013
 20
6.5365143
 11
428.73013
 21
158.85042
  0
LINE
  8
0
  6
CENTER
 62
     7
 10
526.32001
 20
109.09815
 11
326.66138
 21
109.09815
  0
LINE
  8
0
  6
CENTER
 62
     7
 10
625.67072
 20
-0.28109676
 11
625.67072
 21
157.96277
  0
LINE
  8
0
  6
CENTER
 62
     7
 10
715.2652
 20
103.8464
 11
537.03339
 21
103.8464
  0
LINE
  8
0
  6
CENTER
 62
     7
 10
616.70142
 20
-87.372826
 11
417.04282
 21
-87.372826
  0
LINE
  8
0
  6
CENTER
 62
     7
 10
519.08441
 20
-193.79855
 11
519.08441
 21
-33.256458
  0
LINE
  8
0
  6
CENTER
 62
     7
 10
731.85724
 20
-194.77251
 11
731.85724
 21
-35.123833
  0
LINE
  8
0
  6
CENTER
 62
     7
 10
838.27374
 20
-89.240196
 11
629.36267
 21
-89.240196
  0
LINE
  8
0
  6
CENTER
 62
     7
 10
437.45126
 20
-506.43472
 11
437.45126
 21
-339.07074
  0
LINE
  8
0
  6
CENTER
 62
     7
 10
549.49927
 20
-393.1871
 11
322.57019
 21
-393.1871
  0
LINE
  8
0
  6
CENTER
 62
     7
 10
705.96039
 20
-534.67908
 11
705.96039
 21
-332.84064
  0
LINE
  8
0
  6
CENTER
 62
     7
 10
828.04736
 20
-401.36505
 11
578.71759
 21
-401.36505
  0
LINE
  8
0
  6
CONTINUOUS
 62
     7
 10
-287
 20
-210
 11
-287
 21
-610
  0
LINE
  8
0
  6
CONTINUOUS
 62
     7
 10
-287
 20
-210
 11
287
 21
-210
  0
LINE
  8
0
  6
CONTINUOUS
 62
     7
 10
287
 20
-210
 11
287
 21
-610
  0
LINE
  8
0
  6
CONTINUOUS
 62
     7
 10
-287
 20
-610
 11
287
 21
-610
  0
LINE
  8
0
  6
CONTINUOUS
 62
     7
 10
-42.714771
 20
98.684799
 11
-42.714771
 21
65.684799
  0
LINE
  8
0
  6
CONTINUOUS
 62
     7
 10
-59.300556
 20
98.684799
 11
-42.714771
 21
98.684799
  0
LINE
  8
0
  6
CONTINUOUS
 62
     7
 10
-59.714771
 20
98.005264
 11
-59.714771
 21
66.557541
  0
LINE
  8
0
  6
CONTINUOUS
 62
     7
 10
-60.421886
 20
99.391914
 11
-60.007675
 21
98.977707
  0
LINE
  8
0
  6
CONTINUOUS
 62
     7
 10
-67.214775
 20
99.684799
 11
-61.128986
 21
99.684799
  0
LINE
  8
0
  6
CONTINUOUS
 62
     7
 10
-60.714771
 20
98.923447
 11
-60.714771
 21
65.639359
  0
LINE
  8
0
  6
CONTINUOUS
 62
     7
 10
-67.214767
 20
64.684799
 11
-61.128986
 21
64.684799
  0
LINE
  8
0
  6
CONTINUOUS
 62
     7
 10
-60.421906
 20
64.977715
 11
-60.007683
 21
65.391937
  0
LINE
  8
0
  6
CONTINUOUS
 62
     7
 10
-59.300556
 20
65.684799
 11
-42.714771
 21
65.684799
  0
LINE
  8
0
  6
CONTINUOUS
 62
     7
 10
30.667542
 20
-302.58505
 11
30.667542
 21
-341.58505
  0
LINE
  8
0
  6
CONTINUOUS
 62
     7
 10
14.081757
 20
-302.58505
 11
30.667542
 21
-302.58505
  0
LINE
  8
0
  6
CONTINUOUS
 62
     7
 10
6.1675415
 20
-301.58505
 11
12.253326
 21
-301.58505
  0
LINE
  8
0
  6
CONTINUOUS
 62
     7
 10
13.667542
 20
-303.60141
 11
13.667542
 21
-340.81702
  0
LINE
  8
0
  6
CONTINUOUS
 62
     7
 10
12.960438
 20
-301.87796
 11
13.37465
 21
-302.29218
  0
LINE
  8
0
  6
CONTINUOUS
 62
     7
 10
12.667542
 20
-302.56937
 11
12.667542
 21
-341.73056
  0
LINE
  8
0
  6
CONTINUOUS
 62
     7
 10
6.1675415
 20
-342.58505
 11
12.253326
 21
-342.58505
  0
LINE
  8
0
  6
CONTINUOUS
 62
     7
 10
12.960438
 20
-342.29214
 11
13.37465
 21
-341.87793
  0
LINE
  8
0
  6
CONTINUOUS
 62
     7
 10
14.081757
 20
-341.58505
 11
30.667542
 21
-341.58505
  0
LINE
  8
0
  6
CONTINUOUS
 62
     7
 10
-153.44603
 20
-176.03934
 11
-209.44603
 21
-176.03934
  0
LINE
  8
0
  6
CONTINUOUS
 62
     7
 10
-153.44603
 20
-155.45355
 11
-153.44603
 21
-176.03934
  0
LINE
  8
0
  6
CONTINUOUS
 62
     7
 10
-151.44603
 20
-138.53934
 11
-151.44603
 21
-152.62512
  0
LINE
  8
0
  6
CONTINUOUS
 62
     7
 10
-155.71825
 20
-155.03934
 11
-208.4388
 21
-155.03934
  0
LINE
  8
0
  6
CONTINUOUS
 62
     7
 10
-151.73891
 20
-153.33228
 11
-153.15312
 21
-154.74649
  0
LINE
  8
0
  6
CONTINUOUS
 62
     7
 10
-153.56679
 20
-153.03934
 11
-209.72809
 21
-153.03934
  0
LINE
  8
0
  6
CONTINUOUS
 62
     7
 10
-211.15314
 20
-153.33228
 11
-209.73892
 21
-154.74648
  0
LINE
  8
0
  6
CONTINUOUS
 62
     7
 10
-209.44603
 20
-155.45355
 11
-209.44603
 21
-176.03934
  0
LINE
  8
0
  6
CONTINUOUS
 62
     7
 10
-175.8017
 20
-394.70883
 11
-237.8017
 21
-394.70883
  0
LINE
  8
0
  6
CONTINUOUS
 62
     7
 10
-175.8017
 20
-374.12305
 11
-175.8017
 21
-394.70883
  0
LINE
  8
0
  6
CONTINUOUS
 62
     7
 10
-174.0517
 20
-358.70883
 11
-174.0517
 21
-371.54462
  0
LINE
  8
0
  6
CONTINUOUS
 62
     7
 10
-177.8239
 20
-373.70883
 11
-235.7874
 21
-373.70883
  0
LINE
  8
0
  6
CONTINUOUS
 62
     7
 10
-174.34457
 20
-372.25177
 11
-175.50879
 21
-373.41599
  0
LINE
  8
0
  6
CONTINUOUS
 62
     7
 10
-239.2588
 20
-372.25174
 11
-238.09459
 21
-373.41595
  0
LINE
  8
0
  6
CONTINUOUS
 62
     7
 10
-237.8017
 20
-374.12305
 11
-237.8017
 21
-394.70883
  0
LINE
  8
0
  6
CONTINUOUS
 62
     7
 10
-176.1319
 20
-371.95883
 11
-237.40109
 21
-371.95883
  0
LINE
  8
0
  6
CONTINUOUS
 62
     7
 10
70.857758
 20
-594.17249
 11
-3.1422389
 21
-594.17249
  0
LINE
  8
0
  6
CONTINUOUS
 62
     7
 10
70.857758
 20
-573.58667
 11
70.857758
 21
-594.17249
  0
LINE
  8
0
  6
CONTINUOUS
 62
     7
 10
73.357758
 20
-554.92249
 11
73.357758
 21
-570.25824
  0
LINE
  8
0
  6
CONTINUOUS
 62
     7
 10
68.642456
 20
-573.17249
 11
-1.2693788
 21
-573.17249
  0
LINE
  8
0
  6
CONTINUOUS
 62
     7
 10
73.06488
 20
-570.96539
 11
71.150658
 21
-572.87964
  0
LINE
  8
0
  6
CONTINUOUS
 62
     7
 10
70.572723
 20
-570.67249
 11
-3.6514246
 21
-570.67249
  0
LINE
  8
0
  6
CONTINUOUS
 62
     7
 10
-5.3493724
 20
-570.96539
 11
-3.4351261
 21
-572.87964
  0
LINE
  8
0
  6
CONTINUOUS
 62
     7
 10
-3.1422389
 20
-573.58673
 11
-3.1422389
 21
-594.17249
  0
LINE
  8
0
  6
CONTINUOUS
 62
     7
 10
483.70129
 20
-498.1871
 11
391.20129
 21
-498.1871
  0
LINE
  8
0
  6
CONTINUOUS
 62
     7
 10
483.70129
 20
-477.05313
 11
483.70129
 21
-498.1871
  0
LINE
  8
0
  6
CONTINUOUS
 62
     7
 10
482.25015
 20
-476.1871
 11
392.66632
 21
-476.1871
  0
LINE
  8
0
  6
CONTINUOUS
 62
     7
 10
488.95129
 20
-456.1871
 11
488.95129
 21
-472.29001
  0
LINE
  8
0
  6
CONTINUOUS
 62
     7
 10
391.20129
 20
-476.80844
 11
391.20129
 21
-498.1871
  0
LINE
  8
0
  6
CONTINUOUS
 62
     7
 10
488.20126
 20
-473.58905
 11
484.45126
 21
-475.75412
  0
LINE
  8
0
  6
CONTINUOUS
 62
     7
 10
487.12408
 20
-473.15604
 11
387.46234
 21
-473.15604
  0
LINE
  8
0
  6
CONTINUOUS
 62
     7
 10
385.95129
 20
-456.1871
 11
385.95129
 21
-472.29001
  0
LINE
  8
0
  6
CONTINUOUS
 62
     7
 10
386.70129
 20
-473.58905
 11
390.45132
 21
-475.75412
  0
LINE
  8
0
  6
CONTINUOUS
 62
     7
 10
487.12408
 20
-451.15604
 11
387.46234
 21
-451.15604
  0
LINE
  8
0
  6
CONTINUOUS
 62
     7
 10
758.46039
 20
-501.23108
 11
758.46039
 21
-522.36505
  0
LINE
  8
0
  6
CONTINUOUS
 62
     7
 10
763.96039
 20
-478.36505
 11
763.96039
 21
-496.32361
  0
LINE
  8
0
  6
CONTINUOUS
 62
     7
 10
758.46039
 20
-522.36505
 11
653.46039
 21
-522.36505
  0
LINE
  8
0
  6
CONTINUOUS
 62
     7
 10
756.17609
 20
-500.36505
 11
655.45612
 21
-500.36505
  0
LINE
  8
0
  6
CONTINUOUS
 62
     7
 10
763.21033
 20
-497.62259
 11
759.21033
 21
-499.93198
  0
LINE
  8
0
  6
CONTINUOUS
 62
     7
 10
761.38214
 20
-497.18958
 11
650.08765
 21
-497.18958
  0
LINE
  8
0
  6
CONTINUOUS
 62
     7
 10
653.46039
 20
-501.23108
 11
653.46039
 21
-522.36505
  0
LINE
  8
0
  6
CONTINUOUS
 62
     7
 10
647.96039
 20
-478.36505
 11
647.96039
 21
-496.32361
  0
LINE
  8
0
  6
CONTINUOUS
 62
     7
 10
648.71039
 20
-497.62262
 11
652.71033
 21
-499.93201
  0
LINE
  8
0
  6
CONTINUOUS
 62
     7
 10
761.38214
 20
-474.18954
 11
650.08765
 21
-474.18954
  0
LINE
  8
0
  6
CONTINUOUS
 62
     7
 10
759.83075
 20
-471.68954
 11
656.99475
 21
-471.68954
  0
LINE
  8
0
  6
CONTINUOUS
 62
     7
 10
592.96039
 20
-466.86505
 11
592.96039
 21
-335.86505
  0
LINE
  8
0
  6
CONTINUOUS
 62
     7
 10
613.09436
 20
-466.86505
 11
592.96039
 21
-466.86505
  0
LINE
  8
0
  6
CONTINUOUS
 62
     7
 10
642.96039
 20
-473.36505
 11
618.57922
 21
-473.36505
  0
LINE
  8
0
  6
CONTINUOUS
 62
     7
 10
613.96039
 20
-465.01538
 11
613.96039
 21
-337.44122
  0
LINE
  8
0
  6
CONTINUOUS
 62
     7
 10
617.28015
 20
-472.61511
 11
614.39343
 21
-467.61511
  0
LINE
  8
0
  6
CONTINUOUS
 62
     7
 10
617.7132
 20
-469.87225
 11
617.7132
 21
-332.26056
  0
LINE
  8
0
  6
CONTINUOUS
 62
     7
 10
642.0918
 20
-329.36505
 11
618.57916
 21
-329.36505
  0
LINE
  8
0
  6
CONTINUOUS
 62
     7
 10
617.28015
 20
-330.11505
 11
614.39337
 21
-335.11505
  0
LINE
  8
0
  6
CONTINUOUS
 62
     7
 10
613.09436
 20
-335.86505
 11
592.96039
 21
-335.86505
  0
LINE
  8
0
  6
CONTINUOUS
 62
     7
 10
642.7132
 20
-469.87225
 11
642.7132
 21
-332.26056
  0
LINE
  8
0
  6
CONTINUOUS
 62
     7
 10
645.2132
 20
-468.23309
 11
645.2132
 21
-333.1604
  0
LINE
  8
0
  6
CONTINUOUS
 62
     7
 10
643.15253
 20
-329.80438
 11
644.77386
 21
-331.42572
  0
LINE
  8
0
  6
CONTINUOUS
 62
     7
 10
-190.67738
 20
36.435917
 11
-229.67738
 21
36.435917
  0
LINE
  8
0
  6
CONTINUOUS
 62
     7
 10
-190.67738
 20
53.021702
 11
-190.67738
 21
36.435917
  0
LINE
  8
0
  6
CONTINUOUS
 62
     7
 10
-189.67738
 20
64.435921
 11
-189.67738
 21
54.850132
  0
LINE
  8
0
  6
CONTINUOUS
 62
     7
 10
-191.69376
 20
53.435917
 11
-228.90936
 21
53.435917
  0
LINE
  8
0
  6
CONTINUOUS
 62
     7
 10
-189.97028
 20
54.143021
 11
-190.38449
 21
53.728809
  0
LINE
  8
0
  6
CONTINUOUS
 62
     7
 10
-190.66171
 20
54.435917
 11
-229.82291
 21
54.435917
  0
LINE
  8
0
  6
CONTINUOUS
 62
     7
 10
-230.38446
 20
54.143021
 11
-229.97026
 21
53.728809
  0
LINE
  8
0
  6
CONTINUOUS
 62
     7
 10
-229.67738
 20
53.021702
 11
-229.67738
 21
36.435917
  0
LINE
  8
0
  6
CONTINUOUS
 62
     7
 10
81.124916
 20
100.061
 11
81.124916
 21
61.060993
  0
LINE
  8
0
  6
CONTINUOUS
 62
     7
 10
64.539131
 20
100.061
 11
81.124916
 21
100.061
  0
LINE
  8
0
  6
CONTINUOUS
 62
     7
 10
54.12492
 20
101.061
 11
62.710705
 21
101.061
  0
LINE
  8
0
  6
CONTINUOUS
 62
     7
 10
64.124916
 20
99.044632
 11
64.124916
 21
61.829014
  0
LINE
  8
0
  6
CONTINUOUS
 62
     7
 10
63.417816
 20
100.7681
 11
63.832027
 21
100.35389
  0
LINE
  8
0
  6
CONTINUOUS
 62
     7
 10
63.12492
 20
100.07668
 11
63.12492
 21
60.915478
  0
LINE
  8
0
  6
CONTINUOUS
 62
     7
 10
54.124931
 20
60.060993
 11
62.710705
 21
60.060993
  0
LINE
  8
0
  6
CONTINUOUS
 62
     7
 10
63.417816
 20
60.353912
 11
63.832027
 21
60.768124
  0
LINE
  8
0
  6
CONTINUOUS
 62
     7
 10
64.539131
 20
61.060993
 11
81.124916
 21
61.060993
  0
LINE
  8
0
  6
CONTINUOUS
 62
     7
 10
222.48468
 20
96.816933
 11
222.48468
 21
57.816921
  0
LINE
  8
0
  6
CONTINUOUS
 62
     7
 10
205.8989
 20
96.816933
 11
222.48468
 21
96.816933
  0
LINE
  8
0
  6
CONTINUOUS
 62
     7
 10
196.98468
 20
97.816933
 11
204.07047
 21
97.816933
  0
LINE
  8
0
  6
CONTINUOUS
 62
     7
 10
205.48468
 20
95.80056
 11
205.48468
 21
58.584942
  0
LINE
  8
0
  6
CONTINUOUS
 62
     7
 10
204.77757
 20
97.52404
 11
205.19179
 21
97.109833
  0
LINE
  8
0
  6
CONTINUOUS
 62
     7
 10
204.48468
 20
96.832603
 11
204.48468
 21
57.671406
  0
LINE
  8
0
  6
CONTINUOUS
 62
     7
 10
196.98468
 20
56.816921
 11
204.07047
 21
56.816921
  0
LINE
  8
0
  6
CONTINUOUS
 62
     7
 10
204.77757
 20
57.109852
 11
205.19179
 21
57.524063
  0
LINE
  8
0
  6
CONTINUOUS
 62
     7
 10
205.8989
 20
57.816921
 11
222.48468
 21
57.816921
  0
LINE
  8
0
  6
CONTINUOUS
 62
     7
 10
19.171015
 20
-90.53933
 11
19.171015
 21
-129.53934
  0
LINE
  8
0
  6
CONTINUOUS
 62
     7
 10
2.5852294
 20
-90.53933
 11
19.171015
 21
-90.53933
  0
LINE
  8
0
  6
CONTINUOUS
 62
     7
 10
-6.0789857
 20
-89.53933
 11
0.75679934
 21
-89.53933
  0
LINE
  8
0
  6
CONTINUOUS
 62
     7
 10
2.1710143
 20
-91.555702
 11
2.1710143
 21
-128.77132
  0
LINE
  8
0
  6
CONTINUOUS
 62
     7
 10
1.4639105
 20
-89.832222
 11
1.8781229
 21
-90.246437
  0
LINE
  8
0
  6
CONTINUOUS
 62
     7
 10
1.1710144
 20
-90.523659
 11
1.1710144
 21
-129.68484
  0
LINE
  8
0
  6
CONTINUOUS
 62
     7
 10
-6.0789857
 20
-130.53934
 11
0.75679934
 21
-130.53934
  0
LINE
  8
0
  6
CONTINUOUS
 62
     7
 10
1.4639105
 20
-130.24643
 11
1.8781229
 21
-129.83221
  0
LINE
  8
0
  6
CONTINUOUS
 62
     7
 10
2.5852294
 20
-129.53934
 11
19.171015
 21
-129.53934
  0
LINE
  8
0
  6
CONTINUOUS
 62
     7
 10
-160.17738
 20
101.93592
 11
-160.17738
 21
68.935921
  0
LINE
  8
0
  6
CONTINUOUS
 62
     7
 10
-176.76317
 20
101.93592
 11
-160.17738
 21
101.93592
  0
LINE
  8
0
  6
CONTINUOUS
 62
     7
 10
-177.17738
 20
101.25639
 11
-177.17738
 21
69.808662
  0
LINE
  8
0
  6
CONTINUOUS
 62
     7
 10
-177.88449
 20
102.64304
 11
-177.47028
 21
102.22882
  0
LINE
  8
0
  6
CONTINUOUS
 62
     7
 10
-186.17738
 20
102.93592
 11
-178.5916
 21
102.93592
  0
LINE
  8
0
  6
CONTINUOUS
 62
     7
 10
-178.17738
 20
102.17457
 11
-178.17738
 21
68.89048
  0
LINE
  8
0
  6
CONTINUOUS
 62
     7
 10
-186.17738
 20
67.935921
 11
-178.5916
 21
67.935921
  0
LINE
  8
0
  6
CONTINUOUS
 62
     7
 10
-177.88452
 20
68.228821
 11
-177.47029
 21
68.643044
  0
LINE
  8
0
  6
CONTINUOUS
 62
     7
 10
-176.76317
 20
68.935921
 11
-160.17738
 21
68.935921
  0
LINE
  8
0
  6
CONTINUOUS
 62
     7
 10
-72.714767
 20
24.184797
 11
-118.71478
 21
24.184797
  0
LINE
  8
0
  6
CONTINUOUS
 62
     7
 10
-72.714767
 20
45.77058
 11
-72.714767
 21
24.184797
  0
LINE
  8
0
  6
CONTINUOUS
 62
     7
 10
-71.214767
 20
60.684795
 11
-71.214767
 21
48.09901
  0
LINE
  8
0
  6
CONTINUOUS
 62
     7
 10
-74.38636
 20
46.184795
 11
-117.16598
 21
46.184795
  0
LINE
  8
0
  6
CONTINUOUS
 62
     7
 10
-71.507652
 20
47.391899
 11
-72.421875
 21
46.477676
  0
LINE
  8
0
  6
CONTINUOUS
 62
     7
 10
-73.041672
 20
47.684795
 11
-118.60275
 21
47.684795
  0
LINE
  8
0
  6
CONTINUOUS
 62
     7
 10
-120.21478
 20
116.27058
 11
-120.21478
 21
48.09901
  0
LINE
  8
0
  6
CONTINUOUS
 62
     7
 10
-118.71478
 20
45.77058
 11
-118.71478
 21
24.184797
  0
LINE
  8
0
  6
CONTINUOUS
 62
     7
 10
-119.92188
 20
47.391884
 11
-119.00765
 21
46.477657
  0
LINE
  8
0
  6
CONTINUOUS
 62
     7
 10
-113.44603
 20
-87.03933
 11
-113.44603
 21
-133.03934
  0
LINE
  8
0
  6
CONTINUOUS
 62
     7
 10
-135.03181
 20
-87.03933
 11
-113.44603
 21
-87.03933
  0
LINE
  8
0
  6
CONTINUOUS
 62
     7
 10
-147.44603
 20
-85.53933
 11
-137.36024
 21
-85.53933
  0
LINE
  8
0
  6
CONTINUOUS
 62
     7
 10
-135.44603
 20
-88.710922
 11
-135.44603
 21
-131.49054
  0
LINE
  8
0
  6
CONTINUOUS
 62
     7
 10
-136.65312
 20
-85.832199
 11
-135.73889
 21
-86.746422
  0
LINE
  8
0
  6
CONTINUOUS
 62
     7
 10
-136.94603
 20
-87.366234
 11
-136.94603
 21
-132.92731
  0
LINE
  8
0
  6
CONTINUOUS
 62
     7
 10
-147.44603
 20
-134.53934
 11
-137.36024
 21
-134.53934
  0
LINE
  8
0
  6
CONTINUOUS
 62
     7
 10
-135.03181
 20
-133.03934
 11
-113.44603
 21
-133.03934
  0
LINE
  8
0
  6
CONTINUOUS
 62
     7
 10
-136.65311
 20
-134.24643
 11
-135.73888
 21
-133.33221
  0
LINE
  8
0
  6
CONTINUOUS
 62
     7
 10
173.313
 20
-92.722633
 11
173.313
 21
-138.72264
  0
LINE
  8
0
  6
CONTINUOUS
 62
     7
 10
151.72722
 20
-92.722633
 11
173.313
 21
-92.722633
  0
LINE
  8
0
  6
CONTINUOUS
 62
     7
 10
140.063
 20
-91.222633
 11
149.39879
 21
-91.222633
  0
LINE
  8
0
  6
CONTINUOUS
 62
     7
 10
151.313
 20
-94.394226
 11
151.313
 21
-137.17384
  0
LINE
  8
0
  6
CONTINUOUS
 62
     7
 10
150.1059
 20
-91.515511
 11
151.02013
 21
-92.429741
  0
LINE
  8
0
  6
CONTINUOUS
 62
     7
 10
149.813
 20
-93.049538
 11
149.813
 21
-138.61061
  0
LINE
  8
0
  6
CONTINUOUS
 62
     7
 10
140.063
 20
-140.22264
 11
149.39879
 21
-140.22264
  0
LINE
  8
0
  6
CONTINUOUS
 62
     7
 10
151.72722
 20
-138.72264
 11
173.313
 21
-138.72264
  0
LINE
  8
0
  6
CONTINUOUS
 62
     7
 10
150.10591
 20
-139.92975
 11
151.02014
 21
-139.01552
  0
LINE
  8
0
  6
CONTINUOUS
 62
     7
 10
218.09743
 20
-296.64935
 11
218.09743
 21
-342.64935
  0
LINE
  8
0
  6
CONTINUOUS
 62
     7
 10
196.51164
 20
-296.64935
 11
218.09743
 21
-296.64935
  0
LINE
  8
0
  6
CONTINUOUS
 62
     7
 10
186.59743
 20
-295.14935
 11
194.18321
 21
-295.14935
  0
LINE
  8
0
  6
CONTINUOUS
 62
     7
 10
196.09743
 20
-298.32092
 11
196.09743
 21
-341.10056
  0
LINE
  8
0
  6
CONTINUOUS
 62
     7
 10
194.89032
 20
-295.44223
 11
195.80455
 21
-296.35645
  0
LINE
  8
0
  6
CONTINUOUS
 62
     7
 10
194.59743
 20
-296.97626
 11
194.59743
 21
-342.53732
  0
LINE
  8
0
  6
CONTINUOUS
 62
     7
 10
186.59743
 20
-344.14935
 11
194.18321
 21
-344.14935
  0
LINE
  8
0
  6
CONTINUOUS
 62
     7
 10
196.51164
 20
-342.64935
 11
218.09743
 21
-342.64935
  0
LINE
  8
0
  6
CONTINUOUS
 62
     7
 10
194.89034
 20
-343.85645
 11
195.80457
 21
-342.94223
  0
LINE
  8
0
  6
CONTINUOUS
 62
     7
 10
-229.67738
 20
134.43593
 11
-190.67738
 21
134.43593
  0
LINE
  8
0
  6
CONTINUOUS
 62
     7
 10
-229.6774
 20
117.85013
 11
-229.6774
 21
134.43591
  0
LINE
  8
0
  6
CONTINUOUS
 62
     7
 10
-230.6774
 20
54.850132
 11
-230.6774
 21
116.0217
  0
LINE
  8
0
  6
CONTINUOUS
 62
     7
 10
-228.66101
 20
117.43593
 11
-191.4454
 21
117.43593
  0
LINE
  8
0
  6
CONTINUOUS
 62
     7
 10
-230.38451
 20
116.72881
 11
-229.97029
 21
117.14303
  0
LINE
  8
0
  6
CONTINUOUS
 62
     7
 10
-229.69305
 20
116.43593
 11
-190.53186
 21
116.43593
  0
LINE
  8
0
  6
CONTINUOUS
 62
     7
 10
-189.67738
 20
106.43592
 11
-189.67738
 21
116.02171
  0
LINE
  8
0
  6
CONTINUOUS
 62
     7
 10
-189.97031
 20
116.72881
 11
-190.38451
 21
117.14302
  0
LINE
  8
0
  6
CONTINUOUS
 62
     7
 10
-190.67738
 20
117.85014
 11
-190.67738
 21
134.43593
  0
LINE
  8
0
  6
CONTINUOUS
 62
     7
 10
648.67072
 20
9.8464003
 11
602.67072
 21
9.8464003
  0
LINE
  8
0
  6
CONTINUOUS
 62
     7
 10
648.67072
 20
30.269049
 11
648.67072
 21
9.8464003
  0
LINE
  8
0
  6
CONTINUOUS
 62
     7
 10
-118.71478
 20
140.1848
 11
-72.714775
 21
140.1848
  0
LINE
  8
0
  6
CONTINUOUS
 62
     7
 10
-118.71478
 20
118.59901
 11
-118.71478
 21
140.1848
  0
LINE
  8
0
  6
CONTINUOUS
 62
     7
 10
-117.04319
 20
118.1848
 11
-74.263573
 21
118.1848
  0
LINE
  8
0
  6
CONTINUOUS
 62
     7
 10
-119.9219
 20
116.97769
 11
-119.00768
 21
117.89191
  0
LINE
  8
0
  6
CONTINUOUS
 62
     7
 10
-118.38788
 20
116.6848
 11
-72.826805
 21
116.6848
  0
LINE
  8
0
  6
CONTINUOUS
 62
     7
 10
-71.214775
 20
103.6848
 11
-71.214775
 21
116.27058
  0
LINE
  8
0
  6
CONTINUOUS
 62
     7
 10
-72.714775
 20
118.59901
 11
-72.714775
 21
140.1848
  0
LINE
  8
0
  6
CONTINUOUS
 62
     7
 10
-71.50766
 20
116.97771
 11
-72.421883
 21
117.89193
  0
LINE
  8
0
  6
CONTINUOUS
 62
     7
 10
3.1249132
 20
140.561
 11
49.12492
 21
140.561
  0
LINE
  8
0
  6
CONTINUOUS
 62
     7
 10
3.1249132
 20
118.9752
 11
3.1249132
 21
140.56099
  0
LINE
  8
0
  6
CONTINUOUS
 62
     7
 10
1.6249133
 20
44.475208
 11
1.6249133
 21
116.64677
  0
LINE
  8
0
  6
CONTINUOUS
 62
     7
 10
4.7965059
 20
118.561
 11
47.576122
 21
118.561
  0
LINE
  8
0
  6
CONTINUOUS
 62
     7
 10
1.9177909
 20
117.3539
 11
2.8320146
 21
118.26813
  0
LINE
  8
0
  6
CONTINUOUS
 62
     7
 10
3.4518175
 20
117.061
 11
49.01289
 21
117.061
  0
LINE
  8
0
  6
CONTINUOUS
 62
     7
 10
50.62492
 20
104.561
 11
50.62492
 21
116.64679
  0
LINE
  8
0
  6
CONTINUOUS
 62
     7
 10
49.12492
 20
118.97522
 11
49.12492
 21
140.561
  0
LINE
  8
0
  6
CONTINUOUS
 62
     7
 10
50.332024
 20
117.35391
 11
49.417801
 21
118.26814
  0
LINE
  8
0
  6
CONTINUOUS
 62
     7
 10
49.124928
 20
20.560995
 11
3.1249213
 21
20.560995
  0
LINE
  8
0
  6
CONTINUOUS
 62
     7
 10
49.124931
 20
42.146778
 11
49.124931
 21
20.560995
  0
LINE
  8
0
  6
CONTINUOUS
 62
     7
 10
50.624931
 20
56.560993
 11
50.624931
 21
44.475208
  0
LINE
  8
0
  6
CONTINUOUS
 62
     7
 10
47.453335
 20
42.560993
 11
4.6737194
 21
42.560993
  0
LINE
  8
0
  6
CONTINUOUS
 62
     7
 10
50.33205
 20
43.768093
 11
49.417828
 21
42.85387
  0
LINE
  8
0
  6
CONTINUOUS
 62
     7
 10
48.798023
 20
44.060993
 11
3.2369514
 21
44.060993
  0
LINE
  8
0
  6
CONTINUOUS
 62
     7
 10
3.1249213
 20
42.146778
 11
3.1249213
 21
20.560995
  0
LINE
  8
0
  6
CONTINUOUS
 62
     7
 10
1.9178178
 20
43.768082
 11
2.8320417
 21
42.853859
  0
LINE
  8
0
  6
CONTINUOUS
 62
     7
 10
-132.8017
 20
-295.70883
 11
-132.8017
 21
-351.70883
  0
LINE
  8
0
  6
CONTINUOUS
 62
     7
 10
-153.38748
 20
-295.70883
 11
-132.8017
 21
-295.70883
  0
LINE
  8
0
  6
CONTINUOUS
 62
     7
 10
-169.0517
 20
-293.70883
 11
-156.21591
 21
-293.70883
  0
LINE
  8
0
  6
CONTINUOUS
 62
     7
 10
-153.8017
 20
-297.98105
 11
-153.8017
 21
-350.7016
  0
LINE
  8
0
  6
CONTINUOUS
 62
     7
 10
-155.50876
 20
-294.00171
 11
-154.09454
 21
-295.41592
  0
LINE
  8
0
  6
CONTINUOUS
 62
     7
 10
-155.8017
 20
-295.82959
 11
-155.8017
 21
-351.99088
  0
LINE
  8
0
  6
CONTINUOUS
 62
     7
 10
-169.0517
 20
-353.70883
 11
-156.21591
 21
-353.70883
  0
LINE
  8
0
  6
CONTINUOUS
 62
     7
 10
-155.50877
 20
-353.41592
 11
-154.09456
 21
-352.00171
  0
LINE
  8
0
  6
CONTINUOUS
 62
     7
 10
-153.38748
 20
-351.70883
 11
-132.8017
 21
-351.70883
  0
LINE
  8
0
  6
CONTINUOUS
 62
     7
 10
134.48468
 20
141.31693
 11
190.48468
 21
141.31693
  0
LINE
  8
0
  6
CONTINUOUS
 62
     7
 10
134.48468
 20
120.73114
 11
134.48468
 21
141.31693
  0
LINE
  8
0
  6
CONTINUOUS
 62
     7
 10
132.48468
 20
36.731136
 11
132.48468
 21
117.90271
  0
LINE
  8
0
  6
CONTINUOUS
 62
     7
 10
136.7569
 20
120.31693
 11
189.47745
 21
120.31693
  0
LINE
  8
0
  6
CONTINUOUS
 62
     7
 10
132.77756
 20
118.60986
 11
134.19177
 21
120.02408
  0
LINE
  8
0
  6
CONTINUOUS
 62
     7
 10
134.60544
 20
118.31693
 11
190.76674
 21
118.31693
  0
LINE
  8
0
  6
CONTINUOUS
 62
     7
 10
192.48468
 20
102.31693
 11
192.48468
 21
117.90271
  0
LINE
  8
0
  6
CONTINUOUS
 62
     7
 10
192.19179
 20
118.60986
 11
190.77757
 21
120.02408
  0
LINE
  8
0
  6
CONTINUOUS
 62
     7
 10
190.48468
 20
120.73114
 11
190.48468
 21
141.31693
  0
LINE
  8
0
  6
CONTINUOUS
 62
     7
 10
-209.44603
 20
-44.039337
 11
-153.44603
 21
-44.039337
  0
LINE
  8
0
  6
CONTINUOUS
 62
     7
 10
-209.44603
 20
-64.625122
 11
-209.44603
 21
-44.039337
  0
LINE
  8
0
  6
CONTINUOUS
 62
     7
 10
-211.44603
 20
-152.62512
 11
-211.44603
 21
-67.453552
  0
LINE
  8
0
  6
CONTINUOUS
 62
     7
 10
-207.17381
 20
-65.039337
 11
-154.45326
 21
-65.039337
  0
LINE
  8
0
  6
CONTINUOUS
 62
     7
 10
-211.15315
 20
-66.746391
 11
-209.73894
 21
-65.332176
  0
LINE
  8
0
  6
CONTINUOUS
 62
     7
 10
-209.32527
 20
-67.039337
 11
-153.16397
 21
-67.039337
  0
LINE
  8
0
  6
CONTINUOUS
 62
     7
 10
-151.44603
 20
-81.53933
 11
-151.44603
 21
-67.453552
  0
LINE
  8
0
  6
CONTINUOUS
 62
     7
 10
-151.73892
 20
-66.746399
 11
-153.15312
 21
-65.332184
  0
LINE
  8
0
  6
CONTINUOUS
 62
     7
 10
-153.44603
 20
-64.625122
 11
-153.44603
 21
-44.039337
  0
LINE
  8
0
  6
CONTINUOUS
 62
     7
 10
190.48468
 20
13.316922
 11
134.48468
 21
13.316922
  0
LINE
  8
0
  6
CONTINUOUS
 62
     7
 10
190.48468
 20
33.902706
 11
190.48468
 21
13.316922
  0
LINE
  8
0
  6
CONTINUOUS
 62
     7
 10
192.48468
 20
52.316921
 11
192.48468
 21
36.731136
  0
LINE
  8
0
  6
CONTINUOUS
 62
     7
 10
188.21246
 20
34.316921
 11
135.49191
 21
34.316921
  0
LINE
  8
0
  6
CONTINUOUS
 62
     7
 10
192.1918
 20
36.023998
 11
190.77759
 21
34.609783
  0
LINE
  8
0
  6
CONTINUOUS
 62
     7
 10
190.36392
 20
36.316921
 11
134.20262
 21
36.316921
  0
LINE
  8
0
  6
CONTINUOUS
 62
     7
 10
132.77756
 20
36.023991
 11
134.19177
 21
34.609779
  0
LINE
  8
0
  6
CONTINUOUS
 62
     7
 10
134.48468
 20
33.902706
 11
134.48468
 21
13.316922
  0
LINE
  8
0
  6
CONTINUOUS
 62
     7
 10
114.85776
 20
-485.17249
 11
114.85776
 21
-547.17249
  0
LINE
  8
0
  6
CONTINUOUS
 62
     7
 10
94.271973
 20
-485.17249
 11
114.85776
 21
-485.17249
  0
LINE
  8
0
  6
CONTINUOUS
 62
     7
 10
79.357758
 20
-483.42249
 11
91.693542
 21
-483.42249
  0
LINE
  8
0
  6
CONTINUOUS
 62
     7
 10
93.857758
 20
-487.1947
 11
93.857758
 21
-545.1582
  0
LINE
  8
0
  6
CONTINUOUS
 62
     7
 10
92.400673
 20
-483.71536
 11
93.564896
 21
-484.87958
  0
LINE
  8
0
  6
CONTINUOUS
 62
     7
 10
79.357758
 20
-548.92249
 11
91.693542
 21
-548.92249
  0
LINE
  8
0
  6
CONTINUOUS
 62
     7
 10
92.40065
 20
-548.62958
 11
93.564873
 21
-547.46539
  0
LINE
  8
0
  6
CONTINUOUS
 62
     7
 10
94.271973
 20
-547.17249
 11
114.85776
 21
-547.17249
  0
LINE
  8
0
  6
CONTINUOUS
 62
     7
 10
92.107758
 20
-485.50269
 11
92.107758
 21
-546.77185
  0
LINE
  8
0
  6
CONTINUOUS
 62
     7
 10
-74.828987
 20
-46.039337
 11
-12.828985
 21
-46.039337
  0
LINE
  8
0
  6
CONTINUOUS
 62
     7
 10
-74.828987
 20
-66.625122
 11
-74.828987
 21
-46.039337
  0
LINE
  8
0
  6
CONTINUOUS
 62
     7
 10
-76.578987
 20
-150.87512
 11
-76.578987
 21
-69.203552
  0
LINE
  8
0
  6
CONTINUOUS
 62
     7
 10
-72.806786
 20
-67.039337
 11
-14.843283
 21
-67.039337
  0
LINE
  8
0
  6
CONTINUOUS
 62
     7
 10
-76.286118
 20
-68.496407
 11
-75.121895
 21
-67.332184
  0
LINE
  8
0
  6
CONTINUOUS
 62
     7
 10
-11.078985
 20
-84.53933
 11
-11.078985
 21
-69.203552
  0
LINE
  8
0
  6
CONTINUOUS
 62
     7
 10
-11.371881
 20
-68.496422
 11
-12.536099
 21
-67.332207
  0
LINE
  8
0
  6
CONTINUOUS
 62
     7
 10
-12.828985
 20
-66.625122
 11
-12.828985
 21
-46.039337
  0
LINE
  8
0
  6
CONTINUOUS
 62
     7
 10
-74.498787
 20
-68.789337
 11
-13.229589
 21
-68.789337
  0
LINE
  8
0
  6
CONTINUOUS
 62
     7
 10
71.312996
 20
-48.722641
 11
133.313
 21
-48.722641
  0
LINE
  8
0
  6
CONTINUOUS
 62
     7
 10
71.312996
 20
-69.308426
 11
71.312996
 21
-48.722641
  0
LINE
  8
0
  6
CONTINUOUS
 62
     7
 10
69.562996
 20
-159.55843
 11
69.562996
 21
-71.886856
  0
LINE
  8
0
  6
CONTINUOUS
 62
     7
 10
73.335197
 20
-69.722641
 11
131.29871
 21
-69.722641
  0
LINE
  8
0
  6
CONTINUOUS
 62
     7
 10
69.855873
 20
-71.179703
 11
71.020088
 21
-70.01548
  0
LINE
  8
0
  6
CONTINUOUS
 62
     7
 10
135.063
 20
-86.222633
 11
135.063
 21
-71.886856
  0
LINE
  8
0
  6
CONTINUOUS
 62
     7
 10
134.77011
 20
-71.179726
 11
133.60588
 21
-70.015511
  0
LINE
  8
0
  6
CONTINUOUS
 62
     7
 10
133.313
 20
-69.308426
 11
133.313
 21
-48.722641
  0
LINE
  8
0
  6
CONTINUOUS
 62
     7
 10
71.643196
 20
-71.472641
 11
132.9124
 21
-71.472641
  0
LINE
  8
0
  6
CONTINUOUS
 62
     7
 10
-237.8017
 20
-252.70883
 11
-175.8017
 21
-252.70883
  0
LINE
  8
0
  6
CONTINUOUS
 62
     7
 10
-237.8017
 20
-273.29462
 11
-237.8017
 21
-252.70883
  0
LINE
  8
0
  6
CONTINUOUS
 62
     7
 10
-239.5517
 20
-371.54462
 11
-239.5517
 21
-275.87305
  0
LINE
  8
0
  6
CONTINUOUS
 62
     7
 10
-235.7795
 20
-273.70883
 11
-177.81599
 21
-273.70883
  0
LINE
  8
0
  6
CONTINUOUS
 62
     7
 10
-239.25882
 20
-275.16589
 11
-238.0946
 21
-274.00168
  0
LINE
  8
0
  6
CONTINUOUS
 62
     7
 10
-174.0517
 20
-288.70883
 11
-174.0517
 21
-275.87305
  0
LINE
  8
0
  6
CONTINUOUS
 62
     7
 10
-174.34459
 20
-275.16592
 11
-175.5088
 21
-274.00171
  0
LINE
  8
0
  6
CONTINUOUS
 62
     7
 10
-175.8017
 20
-273.29462
 11
-175.8017
 21
-252.70883
  0
LINE
  8
0
  6
CONTINUOUS
 62
     7
 10
-237.4715
 20
-275.45883
 11
-176.2023
 21
-275.45883
  0
LINE
  8
0
  6
CONTINUOUS
 62
     7
 10
-12.828985
 20
-174.03934
 11
-74.828987
 21
-174.03934
  0
LINE
  8
0
  6
CONTINUOUS
 62
     7
 10
-12.828985
 20
-153.45355
 11
-12.828985
 21
-174.03934
  0
LINE
  8
0
  6
CONTINUOUS
 62
     7
 10
-11.078985
 20
-135.53934
 11
-11.078985
 21
-150.87512
  0
LINE
  8
0
  6
CONTINUOUS
 62
     7
 10
-14.851187
 20
-153.03934
 11
-72.81469
 21
-153.03934
  0
LINE
  8
0
  6
CONTINUOUS
 62
     7
 10
-11.371864
 20
-151.58228
 11
-12.536083
 21
-152.74649
  0
LINE
  8
0
  6
CONTINUOUS
 62
     7
 10
-76.286087
 20
-151.58224
 11
-75.121864
 21
-152.74646
  0
LINE
  8
0
  6
CONTINUOUS
 62
     7
 10
-74.828987
 20
-153.45355
 11
-74.828987
 21
-174.03934
  0
LINE
  8
0
  6
CONTINUOUS
 62
     7
 10
-13.159185
 20
-151.28934
 11
-74.428383
 21
-151.28934
  0
LINE
  8
0
  6
CONTINUOUS
 62
     7
 10
133.313
 20
-182.72264
 11
71.312996
 21
-182.72264
  0
LINE
  8
0
  6
CONTINUOUS
 62
     7
 10
133.313
 20
-162.13686
 11
133.313
 21
-182.72264
  0
LINE
  8
0
  6
CONTINUOUS
 62
     7
 10
135.063
 20
-145.22264
 11
135.063
 21
-159.55843
  0
LINE
  8
0
  6
CONTINUOUS
 62
     7
 10
131.2908
 20
-161.72264
 11
73.327293
 21
-161.72264
  0
LINE
  8
0
  6
CONTINUOUS
 62
     7
 10
134.77013
 20
-160.26558
 11
133.60591
 21
-161.42979
  0
LINE
  8
0
  6
CONTINUOUS
 62
     7
 10
69.855896
 20
-160.26556
 11
71.020119
 21
-161.42978
  0
LINE
  8
0
  6
CONTINUOUS
 62
     7
 10
71.312996
 20
-162.13686
 11
71.312996
 21
-182.72264
  0
LINE
  8
0
  6
CONTINUOUS
 62
     7
 10
132.9828
 20
-159.97264
 11
71.7136
 21
-159.97264
  0
LINE
  8
0
  6
CONTINUOUS
 62
     7
 10
-66.384033
 20
-493.04388
 11
-66.384033
 21
-549.04388
  0
LINE
  8
0
  6
CONTINUOUS
 62
     7
 10
-86.969818
 20
-493.04388
 11
-66.384033
 21
-493.04388
  0
LINE
  8
0
  6
CONTINUOUS
 62
     7
 10
-100.88403
 20
-491.04388
 11
-89.798248
 21
-491.04388
  0
LINE
  8
0
  6
CONTINUOUS
 62
     7
 10
-87.384033
 20
-495.3161
 11
-87.384033
 21
-548.03662
  0
LINE
  8
0
  6
CONTINUOUS
 62
     7
 10
-89.091095
 20
-491.33676
 11
-87.67688
 21
-492.75098
  0
LINE
  8
0
  6
CONTINUOUS
 62
     7
 10
-89.384033
 20
-493.16464
 11
-89.384033
 21
-549.32593
  0
LINE
  8
0
  6
CONTINUOUS
 62
     7
 10
-100.88403
 20
-551.04388
 11
-89.798248
 21
-551.04388
  0
LINE
  8
0
  6
CONTINUOUS
 62
     7
 10
-89.091095
 20
-550.75098
 11
-87.67688
 21
-549.33679
  0
LINE
  8
0
  6
CONTINUOUS
 62
     7
 10
-86.969818
 20
-549.04388
 11
-66.384033
 21
-549.04388
  0
LINE
  8
0
  6
CONTINUOUS
 62
     7
 10
768.85724
 20
-187.2402
 11
694.85724
 21
-187.2402
  0
LINE
  8
0
  6
CONTINUOUS
 62
     7
 10
768.85724
 20
-166.81763
 11
768.85724
 21
-187.2402
  0
LINE
  8
0
  6
CONTINUOUS
 62
     7
 10
767.492
 20
-166.2402
 11
696.9397
 21
-166.2402
  0
LINE
  8
0
  6
CONTINUOUS
 62
     7
 10
-75.332458
 20
-255.08505
 11
-1.3324585
 21
-255.08505
  0
LINE
  8
0
  6
CONTINUOUS
 62
     7
 10
-75.332458
 20
-275.67084
 11
-75.332458
 21
-255.08505
  0
LINE
  8
0
  6
CONTINUOUS
 62
     7
 10
-77.832458
 20
-365.17084
 11
-77.832458
 21
-278.99927
  0
LINE
  8
0
  6
CONTINUOUS
 62
     7
 10
-73.117157
 20
-276.08505
 11
-3.2053223
 21
-276.08505
  0
LINE
  8
0
  6
CONTINUOUS
 62
     7
 10
-77.539581
 20
-278.29211
 11
-75.625374
 21
-276.3779
  0
LINE
  8
0
  6
CONTINUOUS
 62
     7
 10
-75.047424
 20
-278.58505
 11
-0.82327271
 21
-278.58505
  0
LINE
  8
0
  6
CONTINUOUS
 62
     7
 10
1.1675415
 20
-296.58505
 11
1.1675415
 21
-278.99927
  0
LINE
  8
0
  6
CONTINUOUS
 62
     7
 10
0.87465835
 20
-278.29214
 11
-1.0395881
 21
-276.3779
  0
LINE
  8
0
  6
CONTINUOUS
 62
     7
 10
-1.3324585
 20
-275.67084
 11
-1.3324585
 21
-255.08505
  0
LINE
  8
0
  6
CONTINUOUS
 62
     7
 10
104.09743
 20
-249.64935
 11
178.09743
 21
-249.64935
  0
LINE
  8
0
  6
CONTINUOUS
 62
     7
 10
104.09743
 20
-270.23514
 11
104.09743
 21
-249.64935
  0
LINE
  8
0
  6
CONTINUOUS
 62
     7
 10
101.59743
 20
-365.73514
 11
101.59743
 21
-273.56357
  0
LINE
  8
0
  6
CONTINUOUS
 62
     7
 10
106.31273
 20
-270.64935
 11
176.22456
 21
-270.64935
  0
LINE
  8
0
  6
CONTINUOUS
 62
     7
 10
101.8903
 20
-272.85641
 11
103.8045
 21
-270.9422
  0
LINE
  8
0
  6
CONTINUOUS
 62
     7
 10
104.38246
 20
-273.14935
 11
178.60661
 21
-273.14935
  0
LINE
  8
0
  6
CONTINUOUS
 62
     7
 10
180.59743
 20
-289.14935
 11
180.59743
 21
-273.56357
  0
LINE
  8
0
  6
CONTINUOUS
 62
     7
 10
180.30453
 20
-272.85645
 11
178.39029
 21
-270.9422
  0
LINE
  8
0
  6
CONTINUOUS
 62
     7
 10
178.09743
 20
-270.23514
 11
178.09743
 21
-249.64935
  0
LINE
  8
0
  6
CONTINUOUS
 62
     7
 10
-183.38403
 20
-447.04388
 11
-109.38403
 21
-447.04388
  0
LINE
  8
0
  6
CONTINUOUS
 62
     7
 10
-183.38403
 20
-467.62967
 11
-183.38403
 21
-447.04388
  0
LINE
  8
0
  6
CONTINUOUS
 62
     7
 10
-185.88403
 20
-571.1297
 11
-185.88403
 21
-470.9581
  0
LINE
  8
0
  6
CONTINUOUS
 62
     7
 10
-181.16873
 20
-468.04388
 11
-111.2569
 21
-468.04388
  0
LINE
  8
0
  6
CONTINUOUS
 62
     7
 10
-185.59117
 20
-470.25095
 11
-183.67697
 21
-468.33673
  0
LINE
  8
0
  6
CONTINUOUS
 62
     7
 10
-183.099
 20
-470.54388
 11
-108.87485
 21
-470.54388
  0
LINE
  8
0
  6
CONTINUOUS
 62
     7
 10
-106.88403
 20
-485.04388
 11
-106.88403
 21
-470.9581
  0
LINE
  8
0
  6
CONTINUOUS
 62
     7
 10
-107.17693
 20
-470.25098
 11
-109.09118
 21
-468.33673
  0
LINE
  8
0
  6
CONTINUOUS
 62
     7
 10
-109.38403
 20
-467.62967
 11
-109.38403
 21
-447.04388
  0
LINE
  8
0
  6
CONTINUOUS
 62
     7
 10
-3.1422389
 20
-438.17249
 11
70.857758
 21
-438.17249
  0
LINE
  8
0
  6
CONTINUOUS
 62
     7
 10
-3.1422389
 20
-458.75827
 11
-3.1422389
 21
-438.17249
  0
LINE
  8
0
  6
CONTINUOUS
 62
     7
 10
-5.6422386
 20
-570.2583
 11
-5.6422386
 21
-462.0867
  0
LINE
  8
0
  6
CONTINUOUS
 62
     7
 10
-0.92693728
 20
-459.17249
 11
68.984894
 21
-459.17249
  0
LINE
  8
0
  6
CONTINUOUS
 62
     7
 10
-5.3493724
 20
-461.37955
 11
-3.4351475
 21
-459.46533
  0
LINE
  8
0
  6
CONTINUOUS
 62
     7
 10
-2.8572047
 20
-461.67249
 11
71.366943
 21
-461.67249
  0
LINE
  8
0
  6
CONTINUOUS
 62
     7
 10
73.357758
 20
-477.42249
 11
73.357758
 21
-462.0867
  0
LINE
  8
0
  6
CONTINUOUS
 62
     7
 10
73.06488
 20
-461.37958
 11
71.150635
 21
-459.46533
  0
LINE
  8
0
  6
CONTINUOUS
 62
     7
 10
70.857758
 20
-458.75827
 11
70.857758
 21
-438.17249
  0
LINE
  8
0
  6
CONTINUOUS
 62
     7
 10
178.09743
 20
-389.64935
 11
104.09743
 21
-389.64935
  0
LINE
  8
0
  6
CONTINUOUS
 62
     7
 10
178.09743
 20
-369.06357
 11
178.09743
 21
-389.64935
  0
LINE
  8
0
  6
CONTINUOUS
 62
     7
 10
180.59743
 20
-350.14935
 11
180.59743
 21
-365.73514
  0
LINE
  8
0
  6
CONTINUOUS
 62
     7
 10
175.88213
 20
-368.64935
 11
105.97029
 21
-368.64935
  0
LINE
  8
0
  6
CONTINUOUS
 62
     7
 10
180.30455
 20
-366.44229
 11
178.39034
 21
-368.35651
  0
LINE
  8
0
  6
CONTINUOUS
 62
     7
 10
177.81239
 20
-366.14935
 11
103.58824
 21
-366.14935
  0
LINE
  8
0
  6
CONTINUOUS
 62
     7
 10
101.8903
 20
-366.44226
 11
103.80455
 21
-368.35651
  0
LINE
  8
0
  6
CONTINUOUS
 62
     7
 10
104.09743
 20
-369.06357
 11
104.09743
 21
-389.64935
  0
LINE
  8
0
  6
CONTINUOUS
 62
     7
 10
-1.3324585
 20
-389.08505
 11
-75.332458
 21
-389.08505
  0
LINE
  8
0
  6
CONTINUOUS
 62
     7
 10
-1.3324585
 20
-368.49927
 11
-1.3324585
 21
-389.08505
  0
LINE
  8
0
  6
CONTINUOUS
 62
     7
 10
1.1675415
 20
-347.58505
 11
1.1675415
 21
-365.17084
  0
LINE
  8
0
  6
CONTINUOUS
 62
     7
 10
-3.54776
 20
-368.08505
 11
-73.459595
 21
-368.08505
  0
LINE
  8
0
  6
CONTINUOUS
 62
     7
 10
0.87466913
 20
-365.87799
 11
-1.0395557
 21
-367.79221
  0
LINE
  8
0
  6
CONTINUOUS
 62
     7
 10
-1.6174927
 20
-365.58505
 11
-75.841644
 21
-365.58505
  0
LINE
  8
0
  6
CONTINUOUS
 62
     7
 10
-77.539574
 20
-365.87796
 11
-75.625328
 21
-367.79221
  0
LINE
  8
0
  6
CONTINUOUS
 62
     7
 10
-75.332458
 20
-368.49927
 11
-75.332458
 21
-389.08505
  0
LINE
  8
0
  6
CONTINUOUS
 62
     7
 10
-109.38403
 20
-595.04388
 11
-183.38403
 21
-595.04388
  0
LINE
  8
0
  6
CONTINUOUS
 62
     7
 10
-109.38403
 20
-574.45807
 11
-109.38403
 21
-595.04388
  0
LINE
  8
0
  6
CONTINUOUS
 62
     7
 10
-106.88403
 20
-557.04388
 11
-106.88403
 21
-571.12964
  0
LINE
  8
0
  6
CONTINUOUS
 62
     7
 10
-111.59933
 20
-574.04388
 11
-181.51117
 21
-574.04388
  0
LINE
  8
0
  6
CONTINUOUS
 62
     7
 10
-107.17691
 20
-571.83685
 11
-109.09112
 21
-573.75104
  0
LINE
  8
0
  6
CONTINUOUS
 62
     7
 10
-109.66907
 20
-571.54388
 11
-183.89322
 21
-571.54388
  0
LINE
  8
0
  6
CONTINUOUS
 62
     7
 10
-185.59113
 20
-571.83679
 11
-183.67688
 21
-573.75104
  0
LINE
  8
0
  6
CONTINUOUS
 62
     7
 10
-183.38403
 20
-574.45813
 11
-183.38403
 21
-595.04388
  0
LINE
  8
0
  6
CONTINUOUS
 62
     7
 10
550.08441
 20
-185.37283
 11
488.08441
 21
-185.37283
  0
LINE
  8
0
  6
CONTINUOUS
 62
     7
 10
550.08441
 20
-164.95024
 11
550.08441
 21
-185.37283
  0
LINE
  8
0
  6
CONTINUOUS
 62
     7
 10
518.73016
 20
155.34819
 11
518.73016
 21
62.848186
  0
LINE
  8
0
  6
CONTINUOUS
 62
     7
 10
497.59616
 20
155.34819
 11
518.73016
 21
155.34819
  0
LINE
  8
0
  6
CONTINUOUS
 62
     7
 10
496.73013
 20
153.89705
 11
496.73013
 21
64.31321
  0
LINE
  8
0
  6
CONTINUOUS
 62
     7
 10
472.32034
 20
160.59819
 11
492.83304
 21
160.59819
  0
LINE
  8
0
  6
CONTINUOUS
 62
     7
 10
497.35147
 20
62.848186
 11
518.73016
 21
62.848186
  0
LINE
  8
0
  6
CONTINUOUS
 62
     7
 10
494.13208
 20
159.84816
 11
496.29715
 21
156.09816
  0
LINE
  8
0
  6
CONTINUOUS
 62
     7
 10
493.69907
 20
158.77098
 11
493.69907
 21
59.109234
  0
LINE
  8
0
  6
CONTINUOUS
 62
     7
 10
475.23013
 20
57.598186
 11
492.83304
 21
57.598186
  0
LINE
  8
0
  6
CONTINUOUS
 62
     7
 10
494.13208
 20
58.348206
 11
496.29715
 21
62.098217
  0
LINE
  8
0
  6
CONTINUOUS
 62
     7
 10
471.69907
 20
158.77098
 11
471.69907
 21
59.109234
  0
LINE
  8
0
  6
CONTINUOUS
 62
     7
 10
388.88254
 20
158.09819
 11
468.57773
 21
158.09819
  0
LINE
  8
0
  6
CONTINUOUS
 62
     7
 10
471.2597
 20
160.1588
 11
469.6384
 21
158.53748
  0
LINE
  8
0
  6
CONTINUOUS
 62
     7
 10
469.19907
 20
157.23503
 11
469.19907
 21
61.071087
  0
LINE
  8
0
  6
CONTINUOUS
 62
     7
 10
338.73013
 20
62.848125
 11
338.73013
 21
155.34813
  0
LINE
  8
0
  6
CONTINUOUS
 62
     7
 10
359.86411
 20
62.848125
 11
338.73013
 21
62.848125
  0
LINE
  8
0
  6
CONTINUOUS
 62
     7
 10
360.73013
 20
64.299263
 11
360.73013
 21
153.8831
  0
LINE
  8
0
  6
CONTINUOUS
 62
     7
 10
382.23013
 20
57.598125
 11
364.62723
 21
57.598125
  0
LINE
  8
0
  6
CONTINUOUS
 62
     7
 10
360.1088
 20
155.34813
 11
338.73013
 21
155.34813
  0
LINE
  8
0
  6
CONTINUOUS
 62
     7
 10
363.32822
 20
58.348156
 11
361.16315
 21
62.098148
  0
LINE
  8
0
  6
CONTINUOUS
 62
     7
 10
363.7612
 20
59.425335
 11
363.7612
 21
159.08708
  0
LINE
  8
0
  6
CONTINUOUS
 62
     7
 10
385.7612
 20
160.59813
 11
364.62723
 21
160.59813
  0
LINE
  8
0
  6
CONTINUOUS
 62
     7
 10
363.32819
 20
159.84814
 11
361.16312
 21
156.09813
  0
LINE
  8
0
  6
CONTINUOUS
 62
     7
 10
385.7612
 20
59.425335
 11
385.7612
 21
159.08708
  0
LINE
  8
0
  6
CONTINUOUS
 62
     7
 10
388.2612
 20
60.961285
 11
388.2612
 21
157.12523
  0
LINE
  8
0
  6
CONTINUOUS
 62
     7
 10
386.20056
 20
160.15883
 11
387.8219
 21
158.53751
  0
LINE
  8
0
  6
CONTINUOUS
 62
     7
 10
684.53674
 20
156.34639
 11
705.67072
 21
156.34639
  0
LINE
  8
0
  6
CONTINUOUS
 62
     7
 10
658.11652
 20
161.84639
 11
679.62927
 21
161.84639
  0
LINE
  8
0
  6
CONTINUOUS
 62
     7
 10
705.67072
 20
156.34639
 11
705.67072
 21
51.346401
  0
LINE
  8
0
  6
CONTINUOUS
 62
     7
 10
683.67072
 20
154.06209
 11
683.67072
 21
53.342129
  0
LINE
  8
0
  6
CONTINUOUS
 62
     7
 10
680.92822
 20
161.09634
 11
683.23761
 21
157.09636
  0
LINE
  8
0
  6
CONTINUOUS
 62
     7
 10
680.49524
 20
159.26814
 11
680.49524
 21
47.97366
  0
LINE
  8
0
  6
CONTINUOUS
 62
     7
 10
684.53674
 20
51.346401
 11
705.67072
 21
51.346401
  0
LINE
  8
0
  6
CONTINUOUS
 62
     7
 10
656.67072
 20
45.846401
 11
679.62927
 21
45.846401
  0
LINE
  8
0
  6
CONTINUOUS
 62
     7
 10
680.92834
 20
46.596413
 11
683.23773
 21
50.596386
  0
LINE
  8
0
  6
CONTINUOUS
 62
     7
 10
657.49518
 20
159.26814
 11
657.49518
 21
48.490765
  0
LINE
  8
0
  6
CONTINUOUS
 62
     7
 10
657.05591
 20
161.40704
 11
655.43457
 21
159.78572
  0
LINE
  8
0
  6
CONTINUOUS
 62
     7
 10
596.96747
 20
159.34639
 11
654.37396
 21
159.34639
  0
LINE
  8
0
  6
CONTINUOUS
 62
     7
 10
654.99518
 20
157.71675
 11
654.99518
 21
48.906261
  0
LINE
  8
0
  6
CONTINUOUS
 62
     7
 10
802.72327
 20
-36.740196
 11
823.85724
 21
-36.740196
  0
LINE
  8
0
  6
CONTINUOUS
 62
     7
 10
776.3031
 20
-31.240196
 11
797.8158
 21
-31.240196
  0
LINE
  8
0
  6
CONTINUOUS
 62
     7
 10
823.85724
 20
-36.740196
 11
823.85724
 21
-141.7402
  0
LINE
  8
0
  6
CONTINUOUS
 62
     7
 10
801.85724
 20
-39.024498
 11
801.85724
 21
-139.74448
  0
LINE
  8
0
  6
CONTINUOUS
 62
     7
 10
799.11481
 20
-31.990227
 11
801.42419
 21
-35.9902
  0
LINE
  8
0
  6
CONTINUOUS
 62
     7
 10
798.68176
 20
-33.818443
 11
798.68176
 21
-145.11295
  0
LINE
  8
0
  6
CONTINUOUS
 62
     7
 10
802.72327
 20
-141.7402
 11
823.85724
 21
-141.7402
  0
LINE
  8
0
  6
CONTINUOUS
 62
     7
 10
778.35724
 20
-147.2402
 11
797.8158
 21
-147.2402
  0
LINE
  8
0
  6
CONTINUOUS
 62
     7
 10
799.11481
 20
-146.4902
 11
801.42419
 21
-142.49022
  0
LINE
  8
0
  6
CONTINUOUS
 62
     7
 10
775.68176
 20
-33.818443
 11
775.68176
 21
-145.54149
  0
LINE
  8
0
  6
CONTINUOUS
 62
     7
 10
775.24243
 20
-31.679541
 11
773.62115
 21
-33.300873
  0
LINE
  8
0
  6
CONTINUOUS
 62
     7
 10
691.15399
 20
-33.740196
 11
772.56042
 21
-33.740196
  0
LINE
  8
0
  6
CONTINUOUS
 62
     7
 10
773.18176
 20
-35.369835
 11
773.18176
 21
-143.94897
  0
LINE
  8
0
  6
CONTINUOUS
 62
     7
 10
585.95044
 20
-34.872826
 11
607.08441
 21
-34.872826
  0
LINE
  8
0
  6
CONTINUOUS
 62
     7
 10
559.53027
 20
-29.372826
 11
581.04297
 21
-29.372826
  0
LINE
  8
0
  6
CONTINUOUS
 62
     7
 10
607.08441
 20
-34.872826
 11
607.08441
 21
-139.87283
  0
LINE
  8
0
  6
CONTINUOUS
 62
     7
 10
585.08441
 20
-37.157127
 11
585.08441
 21
-137.87711
  0
LINE
  8
0
  6
CONTINUOUS
 62
     7
 10
582.34192
 20
-30.122873
 11
584.65131
 21
-34.122849
  0
LINE
  8
0
  6
CONTINUOUS
 62
     7
 10
581.90894
 20
-31.951073
 11
581.90894
 21
-143.24557
  0
LINE
  8
0
  6
CONTINUOUS
 62
     7
 10
585.95044
 20
-139.87283
 11
607.08441
 21
-139.87283
  0
LINE
  8
0
  6
CONTINUOUS
 62
     7
 10
558.58441
 20
-145.37283
 11
581.04297
 21
-145.37283
  0
LINE
  8
0
  6
CONTINUOUS
 62
     7
 10
582.34204
 20
-144.62285
 11
584.65143
 21
-140.62288
  0
LINE
  8
0
  6
CONTINUOUS
 62
     7
 10
558.90894
 20
-31.951073
 11
558.90894
 21
-144.39957
  0
LINE
  8
0
  6
CONTINUOUS
 62
     7
 10
558.4696
 20
-29.812185
 11
556.84827
 21
-31.433516
  0
LINE
  8
0
  6
CONTINUOUS
 62
     7
 10
482.3812
 20
-31.872826
 11
555.7876
 21
-31.872826
  0
LINE
  8
0
  6
CONTINUOUS
 62
     7
 10
556.40894
 20
-33.502464
 11
556.40894
 21
-142.94669
  0
LINE
  8
0
  6
CONTINUOUS
 62
     7
 10
518.31726
 20
-340.6871
 11
539.45129
 21
-340.6871
  0
LINE
  8
0
  6
CONTINUOUS
 62
     7
 10
491.89709
 20
-335.1871
 11
513.40979
 21
-335.1871
  0
LINE
  8
0
  6
CONTINUOUS
 62
     7
 10
539.45129
 20
-340.6871
 11
539.45129
 21
-445.6871
  0
LINE
  8
0
  6
CONTINUOUS
 62
     7
 10
517.45129
 20
-342.97141
 11
517.45129
 21
-443.69138
  0
LINE
  8
0
  6
CONTINUOUS
 62
     7
 10
514.7088
 20
-335.93719
 11
517.01819
 21
-339.93716
  0
LINE
  8
0
  6
CONTINUOUS
 62
     7
 10
514.27576
 20
-337.76535
 11
514.27576
 21
-449.05984
  0
LINE
  8
0
  6
CONTINUOUS
 62
     7
 10
518.31726
 20
-445.6871
 11
539.45129
 21
-445.6871
  0
LINE
  8
0
  6
CONTINUOUS
 62
     7
 10
493.95129
 20
-451.1871
 11
513.40979
 21
-451.1871
  0
LINE
  8
0
  6
CONTINUOUS
 62
     7
 10
514.70886
 20
-450.4371
 11
517.01825
 21
-446.43713
  0
LINE
  8
0
  6
CONTINUOUS
 62
     7
 10
491.27576
 20
-337.76535
 11
491.27576
 21
-449.05984
  0
LINE
  8
0
  6
CONTINUOUS
 62
     7
 10
490.83646
 20
-335.62643
 11
489.21512
 21
-337.24777
  0
LINE
  8
0
  6
CONTINUOUS
 62
     7
 10
386.74805
 20
-337.6871
 11
488.15448
 21
-337.6871
  0
LINE
  8
0
  6
CONTINUOUS
 62
     7
 10
488.77576
 20
-339.31674
 11
488.77576
 21
-442.15274
  0
LINE
  8
0
  6
CONTINUOUS
 62
     7
 10
566.80469
 20
51.346401
 11
545.67072
 21
51.346401
  0
LINE
  8
0
  6
CONTINUOUS
 62
     7
 10
594.67072
 20
45.846401
 11
571.71216
 21
45.846401
  0
LINE
  8
0
  6
CONTINUOUS
 62
     7
 10
545.67072
 20
51.346401
 11
545.67072
 21
156.34639
  0
LINE
  8
0
  6
CONTINUOUS
 62
     7
 10
567.67072
 20
53.630703
 11
567.67072
 21
154.35068
  0
LINE
  8
0
  6
CONTINUOUS
 62
     7
 10
570.41321
 20
46.596447
 11
568.10376
 21
50.596436
  0
LINE
  8
0
  6
CONTINUOUS
 62
     7
 10
570.84619
 20
48.424648
 11
570.84619
 21
159.71915
  0
LINE
  8
0
  6
CONTINUOUS
 62
     7
 10
566.80469
 20
156.34641
 11
545.67072
 21
156.34641
  0
LINE
  8
0
  6
CONTINUOUS
 62
     7
 10
593.84613
 20
161.84641
 11
571.71216
 21
161.84641
  0
LINE
  8
0
  6
CONTINUOUS
 62
     7
 10
570.41315
 20
161.09641
 11
568.10376
 21
157.09644
  0
LINE
  8
0
  6
CONTINUOUS
 62
     7
 10
593.84625
 20
47.45203
 11
593.84625
 21
159.71915
  0
LINE
  8
0
  6
CONTINUOUS
 62
     7
 10
596.34625
 20
48.490765
 11
596.34625
 21
152.81204
  0
LINE
  8
0
  6
CONTINUOUS
 62
     7
 10
594.28546
 20
161.40709
 11
595.9068
 21
159.78577
  0
LINE
  8
0
  6
CONTINUOUS
 62
     7
 10
452.21838
 20
-139.87282
 11
431.08441
 21
-139.87282
  0
LINE
  8
0
  6
CONTINUOUS
 62
     7
 10
479.58441
 20
-145.37282
 11
457.12585
 21
-145.37282
  0
LINE
  8
0
  6
CONTINUOUS
 62
     7
 10
431.08441
 20
-139.87283
 11
431.08441
 21
-34.872826
  0
LINE
  8
0
  6
CONTINUOUS
 62
     7
 10
453.08441
 20
-137.58852
 11
453.08441
 21
-36.868553
  0
LINE
  8
0
  6
CONTINUOUS
 62
     7
 10
455.82687
 20
-144.62277
 11
453.51749
 21
-140.6228
  0
LINE
  8
0
  6
CONTINUOUS
 62
     7
 10
456.25989
 20
-142.79457
 11
456.25989
 21
-31.500084
  0
LINE
  8
0
  6
CONTINUOUS
 62
     7
 10
452.21838
 20
-34.872826
 11
431.08441
 21
-34.872826
  0
LINE
  8
0
  6
CONTINUOUS
 62
     7
 10
479.25986
 20
-29.372826
 11
457.12585
 21
-29.372826
  0
LINE
  8
0
  6
CONTINUOUS
 62
     7
 10
455.82684
 20
-30.122822
 11
453.51746
 21
-34.122799
  0
LINE
  8
0
  6
CONTINUOUS
 62
     7
 10
479.25992
 20
-144.32008
 11
479.25992
 21
-31.500084
  0
LINE
  8
0
  6
CONTINUOUS
 62
     7
 10
479.69919
 20
-29.81212
 11
481.32053
 21
-31.433451
  0
LINE
  8
0
  6
CONTINUOUS
 62
     7
 10
660.99121
 20
-141.74019
 11
639.85724
 21
-141.74019
  0
LINE
  8
0
  6
CONTINUOUS
 62
     7
 10
685.35724
 20
-147.24019
 11
665.89868
 21
-147.24019
  0
LINE
  8
0
  6
CONTINUOUS
 62
     7
 10
639.85724
 20
-141.7402
 11
639.85724
 21
-36.740196
  0
LINE
  8
0
  6
CONTINUOUS
 62
     7
 10
661.85724
 20
-139.45589
 11
661.85724
 21
-38.735924
  0
LINE
  8
0
  6
CONTINUOUS
 62
     7
 10
664.59973
 20
-146.49013
 11
662.29034
 21
-142.49016
  0
LINE
  8
0
  6
CONTINUOUS
 62
     7
 10
665.03271
 20
-144.66194
 11
665.03271
 21
-33.367455
  0
LINE
  8
0
  6
CONTINUOUS
 62
     7
 10
660.99121
 20
-36.740196
 11
639.85724
 21
-36.740196
  0
LINE
  8
0
  6
CONTINUOUS
 62
     7
 10
688.03265
 20
-31.240196
 11
665.89868
 21
-31.240196
  0
LINE
  8
0
  6
CONTINUOUS
 62
     7
 10
664.59967
 20
-31.990196
 11
662.29028
 21
-35.990173
  0
LINE
  8
0
  6
CONTINUOUS
 62
     7
 10
688.03278
 20
-144.64137
 11
688.03278
 21
-33.367455
  0
LINE
  8
0
  6
CONTINUOUS
 62
     7
 10
690.53278
 20
-143.94897
 11
690.53278
 21
-40.274559
  0
LINE
  8
0
  6
CONTINUOUS
 62
     7
 10
688.47198
 20
-31.679476
 11
690.09332
 21
-33.300808
  0
LINE
  8
0
  6
CONTINUOUS
 62
     7
 10
356.58524
 20
-445.6871
 11
335.45126
 21
-445.6871
  0
LINE
  8
0
  6
CONTINUOUS
 62
     7
 10
380.95129
 20
-451.1871
 11
361.49271
 21
-451.1871
  0
LINE
  8
0
  6
CONTINUOUS
 62
     7
 10
335.45126
 20
-445.6871
 11
335.45126
 21
-340.6871
  0
LINE
  8
0
  6
CONTINUOUS
 62
     7
 10
357.45126
 20
-443.4028
 11
357.45126
 21
-342.68283
  0
LINE
  8
0
  6
CONTINUOUS
 62
     7
 10
360.19373
 20
-450.43704
 11
357.88434
 21
-446.43704
  0
LINE
  8
0
  6
CONTINUOUS
 62
     7
 10
360.62674
 20
-448.60886
 11
360.62674
 21
-337.31436
  0
LINE
  8
0
  6
CONTINUOUS
 62
     7
 10
356.58524
 20
-340.6871
 11
335.45126
 21
-340.6871
  0
LINE
  8
0
  6
CONTINUOUS
 62
     7
 10
383.62671
 20
-335.1871
 11
361.49271
 21
-335.1871
  0
LINE
  8
0
  6
CONTINUOUS
 62
     7
 10
360.1937
 20
-335.9371
 11
357.88431
 21
-339.93707
  0
LINE
  8
0
  6
CONTINUOUS
 62
     7
 10
383.62677
 20
-448.60886
 11
383.62677
 21
-337.31436
  0
LINE
  8
0
  6
CONTINUOUS
 62
     7
 10
384.06604
 20
-335.6264
 11
385.68738
 21
-337.24774
  0
LINE
  8
0
  6
CONTINUOUS
 62
     7
 10
818.96039
 20
-335.86505
 11
818.96039
 21
-466.86505
  0
LINE
  8
0
  6
CONTINUOUS
 62
     7
 10
798.82642
 20
-335.86505
 11
818.96039
 21
-335.86505
  0
LINE
  8
0
  6
CONTINUOUS
 62
     7
 10
769.82898
 20
-329.36505
 11
793.34155
 21
-329.36505
  0
LINE
  8
0
  6
CONTINUOUS
 62
     7
 10
797.96039
 20
-337.71472
 11
797.96039
 21
-465.28888
  0
LINE
  8
0
  6
CONTINUOUS
 62
     7
 10
794.64063
 20
-330.11502
 11
797.5274
 21
-335.11502
  0
LINE
  8
0
  6
CONTINUOUS
 62
     7
 10
794.20764
 20
-332.85785
 11
794.20764
 21
-470.46954
  0
LINE
  8
0
  6
CONTINUOUS
 62
     7
 10
768.96039
 20
-473.36505
 11
793.34155
 21
-473.36505
  0
LINE
  8
0
  6
CONTINUOUS
 62
     7
 10
794.64063
 20
-472.61505
 11
797.5274
 21
-467.61505
  0
LINE
  8
0
  6
CONTINUOUS
 62
     7
 10
798.82642
 20
-466.86505
 11
818.96039
 21
-466.86505
  0
LINE
  8
0
  6
CONTINUOUS
 62
     7
 10
645.83447
 20
-331.86505
 11
766.0863
 21
-331.86505
  0
LINE
  8
0
  6
CONTINUOUS
 62
     7
 10
769.20764
 20
-332.85785
 11
769.20764
 21
-470.46954
  0
LINE
  8
0
  6
CONTINUOUS
 62
     7
 10
768.76825
 20
-329.80438
 11
767.14691
 21
-331.42569
  0
LINE
  8
0
  6
CONTINUOUS
 62
     7
 10
766.70764
 20
-334.49701
 11
766.70764
 21
-469.5697
  0
LINE
  8
0
  6
CONTINUOUS
 62
     7
 10
386.12677
 20
-339.31674
 11
386.12677
 21
-442.15274
  0
LINE
  8
0
  6
CONTINUOUS
 62
     7
 10
388.63849
 20
-448.65607
 11
482.91843
 21
-448.65607
  0
LINE
  8
0
  6
CONTINUOUS
 62
     7
 10
773.35724
 20
-152.2402
 11
773.35724
 21
-163.06485
  0
LINE
  8
0
  6
CONTINUOUS
 62
     7
 10
772.85724
 20
-163.93086
 11
769.35724
 21
-165.95158
  0
LINE
  8
0
  6
CONTINUOUS
 62
     7
 10
771.46985
 20
-163.6422
 11
692.76208
 21
-163.6422
  0
LINE
  8
0
  6
CONTINUOUS
 62
     7
 10
771.42975
 20
-146.6422
 11
691.59052
 21
-146.6422
  0
LINE
  8
0
  6
CONTINUOUS
 62
     7
 10
770.16199
 20
-145.1422
 11
692.69836
 21
-145.1422
  0
LINE
  8
0
  6
CONTINUOUS
 62
     7
 10
690.85724
 20
-163.93089
 11
694.35724
 21
-165.95161
  0
LINE
  8
0
  6
CONTINUOUS
 62
     7
 10
690.35724
 20
-152.24019
 11
690.35724
 21
-163.06485
  0
LINE
  8
0
  6
CONTINUOUS
 62
     7
 10
694.85724
 20
-166.81763
 11
694.85724
 21
-187.2402
  0
LINE
  8
0
  6
CONTINUOUS
 62
     7
 10
651.67072
 20
40.846401
 11
651.67072
 21
33.155796
  0
LINE
  8
0
  6
CONTINUOUS
 62
     7
 10
651.17072
 20
32.289757
 11
649.17072
 21
31.135063
  0
LINE
  8
0
  6
CONTINUOUS
 62
     7
 10
650.41956
 20
32.578445
 11
600.86273
 21
32.578445
  0
LINE
  8
0
  6
CONTINUOUS
 62
     7
 10
647.81732
 20
30.846399
 11
603.50549
 21
30.846399
  0
LINE
  8
0
  6
CONTINUOUS
 62
     7
 10
602.67072
 20
30.269049
 11
602.67072
 21
9.8464003
  0
LINE
  8
0
  6
CONTINUOUS
 62
     7
 10
599.67072
 20
40.846401
 11
599.67072
 21
33.155796
  0
LINE
  8
0
  6
CONTINUOUS
 62
     7
 10
600.17072
 20
32.28978
 11
602.17072
 21
31.135088
  0
LINE
  8
0
  6
CONTINUOUS
 62
     7
 10
553.58441
 20
-150.37283
 11
553.58441
 21
-161.77483
  0
LINE
  8
0
  6
CONTINUOUS
 62
     7
 10
553.08441
 20
-162.64084
 11
550.58441
 21
-164.08421
  0
LINE
  8
0
  6
CONTINUOUS
 62
     7
 10
650.41956
 20
45.578445
 11
600.86273
 21
45.578445
  0
LINE
  8
0
  6
CONTINUOUS
 62
     7
 10
650.35883
 20
46.828445
 11
600.70721
 21
46.828445
  0
LINE
  8
0
  6
CONTINUOUS
 62
     7
 10
551.69141
 20
-162.35217
 11
486.24066
 21
-162.35217
  0
LINE
  8
0
  6
CONTINUOUS
 62
     7
 10
552.89734
 20
-147.35217
 11
485.44382
 21
-147.35217
  0
LINE
  8
0
  6
CONTINUOUS
 62
     7
 10
551.95294
 20
-145.85217
 11
485.44382
 21
-145.85217
  0
LINE
  8
0
  6
CONTINUOUS
 62
     7
 10
548.85693
 20
-164.37289
 11
489.07513
 21
-164.37289
  0
LINE
  8
0
  6
CONTINUOUS
 62
     7
 10
488.08441
 20
-164.95024
 11
488.08441
 21
-185.37283
  0
LINE
  8
0
  6
CONTINUOUS
 62
     7
 10
484.58441
 20
-150.37282
 11
484.58441
 21
-161.77483
  0
LINE
  8
0
  6
CONTINUOUS
 62
     7
 10
485.08441
 20
-162.64084
 11
487.58438
 21
-164.08421
  0
LINE
  8
0
  6
CONTINUOUS
 62
     7
 10
465.73013
 20
18.098154
 11
391.73013
 21
18.098154
  0
LINE
  8
0
  6
CONTINUOUS
 62
     7
 10
465.73013
 20
38.520737
 11
465.73013
 21
18.098154
  0
LINE
  8
0
  6
CONTINUOUS
 62
     7
 10
464.36493
 20
39.098156
 11
393.81262
 21
39.098156
  0
LINE
  8
0
  6
CONTINUOUS
 62
     7
 10
470.23013
 20
52.598186
 11
470.23013
 21
42.27351
  0
LINE
  8
0
  6
CONTINUOUS
 62
     7
 10
469.73013
 20
41.407501
 11
466.23016
 21
39.38678
  0
LINE
  8
0
  6
CONTINUOUS
 62
     7
 10
468.34271
 20
41.696163
 11
389.63501
 21
41.696163
  0
LINE
  8
0
  6
CONTINUOUS
 62
     7
 10
468.30264
 20
58.696163
 11
390.23181
 21
58.696163
  0
LINE
  8
0
  6
CONTINUOUS
 62
     7
 10
467.03485
 20
60.196163
 11
391.42542
 21
60.196163
  0
LINE
  8
0
  6
CONTINUOUS
 62
     7
 10
387.73013
 20
41.407497
 11
391.23013
 21
39.386761
  0
LINE
  8
0
  6
CONTINUOUS
 62
     7
 10
387.23013
 20
52.598125
 11
387.23013
 21
42.27351
  0
LINE
  8
0
  6
CONTINUOUS
 62
     7
 10
391.73013
 20
38.520737
 11
391.73013
 21
18.098154
  0
LINE
  8
0
  6
CONTINUOUS
 62
     7
 10
481.75989
 20
-33.254032
 11
481.75989
 21
-143.73535
  0
LINE
  8
0
  6
CONTINUOUS
 62
     7
 10
732.3194
 20
-169.31004
 11
732.3194
 21
-171.36438
  0
LINE
  8
0
  6
CONTINUOUS
 62
     7
 10
730.8194
 20
-169.31004
 11
730.8194
 21
-171.36438
  0
LINE
  8
0
  6
CONTINUOUS
 62
     7
 10
730.8194
 20
-182.25572
 11
730.8194
 21
-184.31004
  0
LINE
  8
0
  6
CONTINUOUS
 62
     7
 10
732.3194
 20
-182.25572
 11
732.3194
 21
-184.31004
  0
LINE
  8
0
  6
CONTINUOUS
 62
     7
 10
730.8194
 20
-172.86983
 11
730.8194
 21
-176.81004
  0
LINE
  8
0
  6
CONTINUOUS
 62
     7
 10
732.3194
 20
-172.86983
 11
732.3194
 21
-176.81004
  0
LINE
  8
0
  6
CONTINUOUS
 62
     7
 10
16.980701
 20
-321.46594
 11
18.213306
 21
-321.46594
  0
LINE
  8
0
  6
CONTINUOUS
 62
     7
 10
16.980701
 20
-322.36594
 11
18.213306
 21
-322.36594
  0
LINE
  8
0
  6
CONTINUOUS
 62
     7
 10
24.748096
 20
-322.36594
 11
25.980701
 21
-322.36594
  0
LINE
  8
0
  6
CONTINUOUS
 62
     7
 10
24.748096
 20
-321.46594
 11
25.980701
 21
-321.46594
  0
LINE
  8
0
  6
CONTINUOUS
 62
     7
 10
19.116566
 20
-322.36594
 11
21.480701
 21
-322.36594
  0
LINE
  8
0
  6
CONTINUOUS
 62
     7
 10
19.116566
 20
-321.46594
 11
21.480701
 21
-321.46594
  0
LINE
  8
0
  6
CONTINUOUS
 62
     7
 10
199.72302
 20
-319.01447
 11
201.36649
 21
-319.01447
  0
LINE
  8
0
  6
CONTINUOUS
 62
     7
 10
199.72302
 20
-320.21448
 11
201.36649
 21
-320.21448
  0
LINE
  8
0
  6
CONTINUOUS
 62
     7
 10
210.07956
 20
-320.21448
 11
211.72302
 21
-320.21448
  0
LINE
  8
0
  6
CONTINUOUS
 62
     7
 10
210.07956
 20
-319.01447
 11
211.72302
 21
-319.01447
  0
LINE
  8
0
  6
CONTINUOUS
 62
     7
 10
202.57085
 20
-320.21448
 11
205.72302
 21
-320.21448
  0
LINE
  8
0
  6
CONTINUOUS
 62
     7
 10
202.57085
 20
-319.01447
 11
205.72302
 21
-319.01447
  0
LINE
  8
0
  6
CONTINUOUS
 62
     7
 10
-173.33089
 20
85.965843
 11
-172.09828
 21
85.965843
  0
LINE
  8
0
  6
CONTINUOUS
 62
     7
 10
-173.33089
 20
85.065849
 11
-172.09828
 21
85.065849
  0
LINE
  8
0
  6
CONTINUOUS
 62
     7
 10
-165.56349
 20
85.065849
 11
-164.33089
 21
85.065849
  0
LINE
  8
0
  6
CONTINUOUS
 62
     7
 10
-165.56349
 20
85.965843
 11
-164.33089
 21
85.965843
  0
LINE
  8
0
  6
CONTINUOUS
 62
     7
 10
-171.19502
 20
85.065849
 11
-168.83089
 21
85.065849
  0
LINE
  8
0
  6
CONTINUOUS
 62
     7
 10
-171.19502
 20
85.965843
 11
-168.83089
 21
85.965843
  0
LINE
  8
0
  6
CONTINUOUS
 62
     7
 10
67.884483
 20
81.069084
 11
69.117088
 21
81.069084
  0
LINE
  8
0
  6
CONTINUOUS
 62
     7
 10
67.884483
 20
80.16909
 11
69.117088
 21
80.16909
  0
LINE
  8
0
  6
CONTINUOUS
 62
     7
 10
75.651878
 20
80.16909
 11
76.884483
 21
80.16909
  0
LINE
  8
0
  6
CONTINUOUS
 62
     7
 10
75.651878
 20
81.069084
 11
76.884483
 21
81.069084
  0
LINE
  8
0
  6
CONTINUOUS
 62
     7
 10
70.020348
 20
80.16909
 11
72.384483
 21
80.16909
  0
LINE
  8
0
  6
CONTINUOUS
 62
     7
 10
70.020348
 20
81.069084
 11
72.384483
 21
81.069084
  0
LINE
  8
0
  6
CONTINUOUS
 62
     7
 10
208.85002
 20
77.932373
 11
210.08263
 21
77.932373
  0
LINE
  8
0
  6
CONTINUOUS
 62
     7
 10
208.85002
 20
77.032379
 11
210.08263
 21
77.032379
  0
LINE
  8
0
  6
CONTINUOUS
 62
     7
 10
216.61742
 20
77.032379
 11
217.85002
 21
77.032379
  0
LINE
  8
0
  6
CONTINUOUS
 62
     7
 10
216.61742
 20
77.932373
 11
217.85002
 21
77.932373
  0
LINE
  8
0
  6
CONTINUOUS
 62
     7
 10
210.98589
 20
77.032379
 11
213.35002
 21
77.032379
  0
LINE
  8
0
  6
CONTINUOUS
 62
     7
 10
210.98589
 20
77.932373
 11
213.35002
 21
77.932373
  0
LINE
  8
0
  6
CONTINUOUS
 62
     7
 10
5.352397
 20
-109.50365
 11
6.5850019
 21
-109.50365
  0
LINE
  8
0
  6
CONTINUOUS
 62
     7
 10
5.352397
 20
-110.40364
 11
6.5850019
 21
-110.40364
  0
LINE
  8
0
  6
CONTINUOUS
 62
     7
 10
13.119792
 20
-110.40364
 11
14.352397
 21
-110.40364
  0
LINE
  8
0
  6
CONTINUOUS
 62
     7
 10
13.119792
 20
-109.50365
 11
14.352397
 21
-109.50365
  0
LINE
  8
0
  6
CONTINUOUS
 62
     7
 10
7.4882612
 20
-110.40364
 11
9.852397
 21
-110.40364
  0
LINE
  8
0
  6
CONTINUOUS
 62
     7
 10
7.4882612
 20
-109.50365
 11
9.852397
 21
-109.50365
  0
LINE
  8
0
  6
CONTINUOUS
 62
     7
 10
-54.88876
 20
82.680588
 11
-53.656155
 21
82.680588
  0
LINE
  8
0
  6
CONTINUOUS
 62
     7
 10
-54.88876
 20
81.780594
 11
-53.656155
 21
81.780594
  0
LINE
  8
0
  6
CONTINUOUS
 62
     7
 10
-47.121365
 20
81.780594
 11
-45.88876
 21
81.780594
  0
LINE
  8
0
  6
CONTINUOUS
 62
     7
 10
-47.121365
 20
82.680588
 11
-45.88876
 21
82.680588
  0
LINE
  8
0
  6
CONTINUOUS
 62
     7
 10
-52.752895
 20
81.780594
 11
-50.38876
 21
81.780594
  0
LINE
  8
0
  6
CONTINUOUS
 62
     7
 10
-52.752895
 20
82.680588
 11
-50.38876
 21
82.680588
  0
LINE
  8
0
  6
CONTINUOUS
 62
     7
 10
-130.28377
 20
-109.28781
 11
-128.6403
 21
-109.28781
  0
LINE
  8
0
  6
CONTINUOUS
 62
     7
 10
-130.28377
 20
-110.48782
 11
-128.6403
 21
-110.48782
  0
LINE
  8
0
  6
CONTINUOUS
 62
     7
 10
-119.92724
 20
-110.48782
 11
-118.28378
 21
-110.48782
  0
LINE
  8
0
  6
CONTINUOUS
 62
     7
 10
-119.92724
 20
-109.28781
 11
-118.28378
 21
-109.28781
  0
LINE
  8
0
  6
CONTINUOUS
 62
     7
 10
-127.43595
 20
-110.48782
 11
-124.28378
 21
-110.48782
  0
LINE
  8
0
  6
CONTINUOUS
 62
     7
 10
-127.43595
 20
-109.28781
 11
-124.28378
 21
-109.28781
  0
LINE
  8
0
  6
CONTINUOUS
 62
     7
 10
155.31404
 20
-115.0326
 11
156.9575
 21
-115.0326
  0
LINE
  8
0
  6
CONTINUOUS
 62
     7
 10
155.31404
 20
-116.23261
 11
156.9575
 21
-116.23261
  0
LINE
  8
0
  6
CONTINUOUS
 62
     7
 10
165.67058
 20
-116.23261
 11
167.31404
 21
-116.23261
  0
LINE
  8
0
  6
CONTINUOUS
 62
     7
 10
165.67058
 20
-115.0326
 11
167.31404
 21
-115.0326
  0
LINE
  8
0
  6
CONTINUOUS
 62
     7
 10
158.16187
 20
-116.23261
 11
161.31404
 21
-116.23261
  0
LINE
  8
0
  6
CONTINUOUS
 62
     7
 10
158.16187
 20
-115.0326
 11
161.31404
 21
-115.0326
  0
LINE
  8
0
  6
CONTINUOUS
 62
     7
 10
519.61652
 20
-169.4381
 11
519.61652
 21
-171.08156
  0
LINE
  8
0
  6
CONTINUOUS
 62
     7
 10
518.4165
 20
-169.4381
 11
518.4165
 21
-171.08156
  0
LINE
  8
0
  6
CONTINUOUS
 62
     7
 10
518.4165
 20
-179.79463
 11
518.4165
 21
-181.4381
  0
LINE
  8
0
  6
CONTINUOUS
 62
     7
 10
519.61652
 20
-179.79463
 11
519.61652
 21
-181.4381
  0
LINE
  8
0
  6
CONTINUOUS
 62
     7
 10
518.4165
 20
-172.28592
 11
518.4165
 21
-175.4381
  0
LINE
  8
0
  6
CONTINUOUS
 62
     7
 10
519.61652
 20
-172.28592
 11
519.61652
 21
-175.4381
  0
LINE
  8
0
  6
CONTINUOUS
 62
     7
 10
-150.25374
 20
-322.6655
 11
-148.61028
 21
-322.6655
  0
LINE
  8
0
  6
CONTINUOUS
 62
     7
 10
-150.25374
 20
-323.86551
 11
-148.61028
 21
-323.86551
  0
LINE
  8
0
  6
CONTINUOUS
 62
     7
 10
-139.8972
 20
-323.86551
 11
-138.25374
 21
-323.86551
  0
LINE
  8
0
  6
CONTINUOUS
 62
     7
 10
-139.8972
 20
-322.6655
 11
-138.25374
 21
-322.6655
  0
LINE
  8
0
  6
CONTINUOUS
 62
     7
 10
-147.40591
 20
-323.86551
 11
-144.25374
 21
-323.86551
  0
LINE
  8
0
  6
CONTINUOUS
 62
     7
 10
-147.40591
 20
-322.6655
 11
-144.25374
 21
-322.6655
  0
LINE
  8
0
  6
CONTINUOUS
 62
     7
 10
-83.203331
 20
-520.33368
 11
-81.559868
 21
-520.33368
  0
LINE
  8
0
  6
CONTINUOUS
 62
     7
 10
-83.203331
 20
-521.53369
 11
-81.559868
 21
-521.53369
  0
LINE
  8
0
  6
CONTINUOUS
 62
     7
 10
-72.846794
 20
-521.53369
 11
-71.203331
 21
-521.53369
  0
LINE
  8
0
  6
CONTINUOUS
 62
     7
 10
-72.846794
 20
-520.33368
 11
-71.203331
 21
-520.33368
  0
LINE
  8
0
  6
CONTINUOUS
 62
     7
 10
-80.355507
 20
-521.53369
 11
-77.203331
 21
-521.53369
  0
LINE
  8
0
  6
CONTINUOUS
 62
     7
 10
-80.355507
 20
-520.33368
 11
-77.203331
 21
-520.33368
  0
LINE
  8
0
  6
CONTINUOUS
 62
     7
 10
98.441788
 20
-515.53516
 11
100.08525
 21
-515.53516
  0
LINE
  8
0
  6
CONTINUOUS
 62
     7
 10
98.441788
 20
-516.73517
 11
100.08525
 21
-516.73517
  0
LINE
  8
0
  6
CONTINUOUS
 62
     7
 10
108.79832
 20
-516.73517
 11
110.44179
 21
-516.73517
  0
LINE
  8
0
  6
CONTINUOUS
 62
     7
 10
108.79832
 20
-515.53516
 11
110.44179
 21
-515.53516
  0
LINE
  8
0
  6
CONTINUOUS
 62
     7
 10
101.28961
 20
-516.73517
 11
104.44179
 21
-516.73517
  0
LINE
  8
0
  6
CONTINUOUS
 62
     7
 10
101.28961
 20
-515.53516
 11
104.44179
 21
-515.53516
  0
LINE
  8
0
  6
CONTINUOUS
 62
     7
 10
626.38428
 20
25.902876
 11
626.38428
 21
24.259413
  0
LINE
  8
0
  6
CONTINUOUS
 62
     7
 10
625.18427
 20
25.902876
 11
625.18427
 21
24.259413
  0
LINE
  8
0
  6
CONTINUOUS
 62
     7
 10
625.18427
 20
15.54634
 11
625.18427
 21
13.902877
  0
LINE
  8
0
  6
CONTINUOUS
 62
     7
 10
626.38428
 20
15.54634
 11
626.38428
 21
13.902877
  0
LINE
  8
0
  6
CONTINUOUS
 62
     7
 10
625.18427
 20
23.055052
 11
625.18427
 21
19.902876
  0
LINE
  8
0
  6
CONTINUOUS
 62
     7
 10
626.38428
 20
23.055052
 11
626.38428
 21
19.902876
  0
LINE
  8
0
  6
CONTINUOUS
 62
     7
 10
429.41489
 20
36.482544
 11
429.41489
 21
34.428215
  0
LINE
  8
0
  6
CONTINUOUS
 62
     7
 10
427.91489
 20
36.482544
 11
427.91489
 21
34.428215
  0
LINE
  8
0
  6
CONTINUOUS
 62
     7
 10
427.91489
 20
23.536875
 11
427.91489
 21
21.482546
  0
LINE
  8
0
  6
CONTINUOUS
 62
     7
 10
429.41489
 20
23.536875
 11
429.41489
 21
21.482546
  0
LINE
  8
0
  6
CONTINUOUS
 62
     7
 10
427.91489
 20
32.92276
 11
427.91489
 21
28.982546
  0
LINE
  8
0
  6
CONTINUOUS
 62
     7
 10
429.41489
 20
32.92276
 11
429.41489
 21
28.982546
  0
LINE
  8
0
  6
CONTINUOUS
 62
     7
 10
438.06854
 20
-480.55185
 11
438.06854
 21
-482.6062
  0
LINE
  8
0
  6
CONTINUOUS
 62
     7
 10
436.56854
 20
-480.55185
 11
436.56854
 21
-482.6062
  0
LINE
  8
0
  6
CONTINUOUS
 62
     7
 10
436.56854
 20
-493.49753
 11
436.56854
 21
-495.55185
  0
LINE
  8
0
  6
CONTINUOUS
 62
     7
 10
438.06854
 20
-493.49753
 11
438.06854
 21
-495.55185
  0
LINE
  8
0
  6
CONTINUOUS
 62
     7
 10
436.56854
 20
-484.11163
 11
436.56854
 21
-488.05185
  0
LINE
  8
0
  6
CONTINUOUS
 62
     7
 10
438.06854
 20
-484.11163
 11
438.06854
 21
-488.05185
  0
LINE
  8
0
  6
CONTINUOUS
 62
     7
 10
706.67126
 20
-504.01349
 11
706.67126
 21
-506.06781
  0
LINE
  8
0
  6
CONTINUOUS
 62
     7
 10
705.17126
 20
-504.01349
 11
705.17126
 21
-506.06781
  0
LINE
  8
0
  6
CONTINUOUS
 62
     7
 10
705.17126
 20
-516.95917
 11
705.17126
 21
-519.01349
  0
LINE
  8
0
  6
CONTINUOUS
 62
     7
 10
706.67126
 20
-516.95917
 11
706.67126
 21
-519.01349
  0
LINE
  8
0
  6
CONTINUOUS
 62
     7
 10
705.17126
 20
-507.57327
 11
705.17126
 21
-511.51349
  0
LINE
  8
0
  6
CONTINUOUS
 62
     7
 10
706.67126
 20
-507.57327
 11
706.67126
 21
-511.51349
  0
ARC
  8
0
  6
CONTINUOUS
 62
     7
 10
-61.128986
 20
65.684799
 40
1
 50
270
 51
315
  0
ARC
  8
0
  6
CONTINUOUS
 62
     7
 10
-59.300556
 20
99.684799
 40
1
 50
225
 51
270
  0
ARC
  8
0
  6
CONTINUOUS
 62
     7
 10
-61.128986
 20
98.684799
 40
1
 50
45.000001
 51
90.000003
  0
ARC
  8
0
  6
CONTINUOUS
 62
     7
 10
-59.300556
 20
64.684799
 40
1
 50
90.000003
 51
135
  0
ARC
  8
0
  6
CONTINUOUS
 62
     7
 10
14.081757
 20
-342.58505
 40
1
 50
90.000003
 51
135
  0
ARC
  8
0
  6
CONTINUOUS
 62
     7
 10
14.081757
 20
-301.58505
 40
1
 50
225
 51
270
  0
ARC
  8
0
  6
CONTINUOUS
 62
     7
 10
12.253326
 20
-302.58505
 40
1
 50
45.000001
 51
90.000003
  0
ARC
  8
0
  6
CONTINUOUS
 62
     7
 10
12.253326
 20
-341.58505
 40
1
 50
270
 51
315
  0
ARC
  8
0
  6
CONTINUOUS
 62
     7
 10
-210.44603
 20
-155.45355
 40
1
 50
2.5044785E-006
 51
45.000001
  0
ARC
  8
0
  6
CONTINUOUS
 62
     7
 10
-152.44603
 20
-155.45355
 40
1
 50
135
 51
179.99999
  0
ARC
  8
0
  6
CONTINUOUS
 62
     7
 10
-152.44603
 20
-152.62512
 40
1
 50
315
 51
2.5044785E-006
  0
ARC
  8
0
  6
CONTINUOUS
 62
     7
 10
-210.44603
 20
-152.62512
 40
1
 50
179.99999
 51
225
  0
ARC
  8
0
  6
CONTINUOUS
 62
     7
 10
-238.8017
 20
-374.12305
 40
1
 50
2.5044785E-006
 51
45.000001
  0
ARC
  8
0
  6
CONTINUOUS
 62
     7
 10
-174.8017
 20
-374.12305
 40
1
 50
135
 51
179.99999
  0
ARC
  8
0
  6
CONTINUOUS
 62
     7
 10
-175.0517
 20
-371.54462
 40
1
 50
315
 51
2.5044785E-006
  0
ARC
  8
0
  6
CONTINUOUS
 62
     7
 10
-238.5517
 20
-371.54462
 40
1
 50
179.99999
 51
225
  0
ARC
  8
0
  6
CONTINUOUS
 62
     7
 10
-4.1422386
 20
-573.58673
 40
1
 50
2.5044817E-006
 51
45.000001
  0
ARC
  8
0
  6
CONTINUOUS
 62
     7
 10
71.857758
 20
-573.58667
 40
1
 50
135
 51
179.99999
  0
ARC
  8
0
  6
CONTINUOUS
 62
     7
 10
72.357758
 20
-570.25824
 40
1
 50
315
 51
2.5044817E-006
  0
ARC
  8
0
  6
CONTINUOUS
 62
     7
 10
-4.6422386
 20
-570.2583
 40
1
 50
179.99999
 51
225
  0
ARC
  8
0
  6
CONTINUOUS
 62
     7
 10
485.20129
 20
-477.05313
 40
1.5
 50
120
 51
179.99999
  0
ARC
  8
0
  6
CONTINUOUS
 62
     7
 10
487.45129
 20
-472.29001
 40
1.5
 50
300
 51
2.5044817E-006
  0
ARC
  8
0
  6
CONTINUOUS
 62
     7
 10
387.45129
 20
-472.29001
 40
1.5
 50
179.99999
 51
240.00001
  0
ARC
  8
0
  6
CONTINUOUS
 62
     7
 10
389.70129
 20
-477.05313
 40
1.5
 50
2.5044817E-006
 51
59.999995
  0
ARC
  8
0
  6
CONTINUOUS
 62
     7
 10
759.96039
 20
-501.23108
 40
1.5
 50
120
 51
179.99999
  0
ARC
  8
0
  6
CONTINUOUS
 62
     7
 10
762.46039
 20
-496.32361
 40
1.5
 50
300
 51
2.5044796E-006
  0
ARC
  8
0
  6
CONTINUOUS
 62
     7
 10
651.96039
 20
-501.23108
 40
1.5
 50
2.5044796E-006
 51
59.999995
  0
ARC
  8
0
  6
CONTINUOUS
 62
     7
 10
649.46039
 20
-496.32361
 40
1.5
 50
179.99999
 51
240.00001
  0
ARC
  8
0
  6
CONTINUOUS
 62
     7
 10
642.0918
 20
-330.86505
 40
1.5
 50
45.000001
 51
89.999996
  0
ARC
  8
0
  6
CONTINUOUS
 62
     7
 10
613.09436
 20
-468.36505
 40
1.5
 50
30.000004
 51
89.999996
  0
ARC
  8
0
  6
CONTINUOUS
 62
     7
 10
618.57922
 20
-471.86505
 40
1.5
 50
210
 51
270
  0
ARC
  8
0
  6
CONTINUOUS
 62
     7
 10
618.57916
 20
-330.86505
 40
1.5
 50
89.999996
 51
150
  0
ARC
  8
0
  6
CONTINUOUS
 62
     7
 10
613.09436
 20
-334.36505
 40
1.5
 50
270
 51
330
  0
ARC
  8
0
  6
CONTINUOUS
 62
     7
 10
645.83447
 20
-330.36505
 40
1.5
 50
225
 51
270
  0
ARC
  8
0
  6
CONTINUOUS
 62
     7
 10
-229.67738
 20
54.850132
 40
1
 50
179.99999
 51
225
  0
ARC
  8
0
  6
CONTINUOUS
 62
     7
 10
-230.67738
 20
53.021702
 40
1
 50
2.5044789E-006
 51
45.000001
  0
ARC
  8
0
  6
CONTINUOUS
 62
     7
 10
-189.67738
 20
53.021702
 40
1
 50
135
 51
179.99999
  0
ARC
  8
0
  6
CONTINUOUS
 62
     7
 10
-190.67738
 20
54.850132
 40
1
 50
315
 51
2.5044789E-006
  0
ARC
  8
0
  6
CONTINUOUS
 62
     7
 10
62.710705
 20
61.060993
 40
1
 50
270
 51
315
  0
ARC
  8
0
  6
CONTINUOUS
 62
     7
 10
64.539131
 20
60.060993
 40
1
 50
90.000003
 51
135
  0
ARC
  8
0
  6
CONTINUOUS
 62
     7
 10
64.539131
 20
101.061
 40
1
 50
225
 51
270
  0
ARC
  8
0
  6
CONTINUOUS
 62
     7
 10
62.710705
 20
100.061
 40
1
 50
45.000001
 51
90.000003
  0
ARC
  8
0
  6
CONTINUOUS
 62
     7
 10
204.07047
 20
57.816921
 40
1
 50
270
 51
315
  0
ARC
  8
0
  6
CONTINUOUS
 62
     7
 10
205.8989
 20
56.816921
 40
1
 50
90.000003
 51
135
  0
ARC
  8
0
  6
CONTINUOUS
 62
     7
 10
205.8989
 20
97.816933
 40
1
 50
225
 51
270
  0
ARC
  8
0
  6
CONTINUOUS
 62
     7
 10
204.07047
 20
96.816933
 40
1
 50
45.000001
 51
90.000003
  0
ARC
  8
0
  6
CONTINUOUS
 62
     7
 10
0.75679934
 20
-129.53934
 40
1
 50
270
 51
315
  0
ARC
  8
0
  6
CONTINUOUS
 62
     7
 10
2.5852294
 20
-130.53934
 40
1
 50
90.000003
 51
135
  0
ARC
  8
0
  6
CONTINUOUS
 62
     7
 10
2.5852294
 20
-89.53933
 40
1
 50
225
 51
270
  0
ARC
  8
0
  6
CONTINUOUS
 62
     7
 10
0.75679934
 20
-90.53933
 40
1
 50
45.000001
 51
90.000003
  0
ARC
  8
0
  6
CONTINUOUS
 62
     7
 10
-176.76317
 20
67.935921
 40
1
 50
90.000003
 51
135
  0
ARC
  8
0
  6
CONTINUOUS
 62
     7
 10
-178.5916
 20
68.935921
 40
1
 50
270
 51
315
  0
ARC
  8
0
  6
CONTINUOUS
 62
     7
 10
-176.76317
 20
102.93592
 40
1
 50
225
 51
270
  0
ARC
  8
0
  6
CONTINUOUS
 62
     7
 10
-178.5916
 20
101.93592
 40
1
 50
45.000001
 51
90.000003
  0
ARC
  8
0
  6
CONTINUOUS
 62
     7
 10
-119.21478
 20
48.09901
 40
1
 50
179.99999
 51
225
  0
ARC
  8
0
  6
CONTINUOUS
 62
     7
 10
-119.71478
 20
45.77058
 40
1
 50
2.5044789E-006
 51
45.000001
  0
ARC
  8
0
  6
CONTINUOUS
 62
     7
 10
-71.714767
 20
45.77058
 40
1
 50
135
 51
179.99999
  0
ARC
  8
0
  6
CONTINUOUS
 62
     7
 10
-72.214767
 20
48.09901
 40
1
 50
315
 51
2.5044789E-006
  0
ARC
  8
0
  6
CONTINUOUS
 62
     7
 10
-137.36024
 20
-133.53934
 40
1
 50
270
 51
315
  0
ARC
  8
0
  6
CONTINUOUS
 62
     7
 10
-135.03181
 20
-134.03934
 40
1
 50
90.000003
 51
135
  0
ARC
  8
0
  6
CONTINUOUS
 62
     7
 10
-135.03181
 20
-86.03933
 40
1
 50
225
 51
270
  0
ARC
  8
0
  6
CONTINUOUS
 62
     7
 10
-137.36024
 20
-86.53933
 40
1
 50
45.000001
 51
90.000003
  0
ARC
  8
0
  6
CONTINUOUS
 62
     7
 10
149.39879
 20
-139.22264
 40
1
 50
270
 51
315
  0
ARC
  8
0
  6
CONTINUOUS
 62
     7
 10
151.72722
 20
-139.72264
 40
1
 50
90.000003
 51
135
  0
ARC
  8
0
  6
CONTINUOUS
 62
     7
 10
151.72722
 20
-91.722633
 40
1
 50
225
 51
270
  0
ARC
  8
0
  6
CONTINUOUS
 62
     7
 10
149.39879
 20
-92.222633
 40
1
 50
45.000001
 51
90.000003
  0
ARC
  8
0
  6
CONTINUOUS
 62
     7
 10
194.18321
 20
-343.14935
 40
1
 50
270
 51
315
  0
ARC
  8
0
  6
CONTINUOUS
 62
     7
 10
196.51164
 20
-343.64935
 40
1
 50
90.000003
 51
135
  0
ARC
  8
0
  6
CONTINUOUS
 62
     7
 10
196.51164
 20
-295.64935
 40
1
 50
225
 51
270
  0
ARC
  8
0
  6
CONTINUOUS
 62
     7
 10
194.18321
 20
-296.14935
 40
1
 50
45.000001
 51
90.000003
  0
ARC
  8
0
  6
CONTINUOUS
 62
     7
 10
-229.67738
 20
116.0217
 40
1
 50
135
 51
180.00001
  0
ARC
  8
0
  6
CONTINUOUS
 62
     7
 10
-190.67738
 20
116.02171
 40
1
 50
360
 51
44.999998
  0
ARC
  8
0
  6
CONTINUOUS
 62
     7
 10
-189.67738
 20
117.85014
 40
1
 50
180.00001
 51
225
  0
ARC
  8
0
  6
CONTINUOUS
 62
     7
 10
-230.67738
 20
117.85013
 40
1
 50
315
 51
360
  0
ARC
  8
0
  6
CONTINUOUS
 62
     7
 10
-119.21478
 20
116.27058
 40
1
 50
135
 51
180.00001
  0
ARC
  8
0
  6
CONTINUOUS
 62
     7
 10
-72.214775
 20
116.27058
 40
1
 50
360
 51
44.999998
  0
ARC
  8
0
  6
CONTINUOUS
 62
     7
 10
-71.714775
 20
118.59901
 40
1
 50
180.00001
 51
225
  0
ARC
  8
0
  6
CONTINUOUS
 62
     7
 10
-119.71478
 20
118.59901
 40
1
 50
315
 51
360
  0
ARC
  8
0
  6
CONTINUOUS
 62
     7
 10
2.6249132
 20
116.64677
 40
1
 50
135
 51
180.00001
  0
ARC
  8
0
  6
CONTINUOUS
 62
     7
 10
49.62492
 20
116.64679
 40
1
 50
360
 51
44.999998
  0
ARC
  8
0
  6
CONTINUOUS
 62
     7
 10
50.12492
 20
118.97522
 40
1
 50
180.00001
 51
225
  0
ARC
  8
0
  6
CONTINUOUS
 62
     7
 10
2.1249132
 20
118.9752
 40
1
 50
315
 51
360
  0
ARC
  8
0
  6
CONTINUOUS
 62
     7
 10
49.624928
 20
44.475208
 40
1
 50
315
 51
2.5044789E-006
  0
ARC
  8
0
  6
CONTINUOUS
 62
     7
 10
2.6249213
 20
44.475208
 40
1
 50
179.99999
 51
225
  0
ARC
  8
0
  6
CONTINUOUS
 62
     7
 10
2.1249213
 20
42.146778
 40
1
 50
2.5044789E-006
 51
45.000001
  0
ARC
  8
0
  6
CONTINUOUS
 62
     7
 10
50.124928
 20
42.146778
 40
1
 50
135
 51
179.99999
  0
ARC
  8
0
  6
CONTINUOUS
 62
     7
 10
-156.21591
 20
-352.70883
 40
1
 50
270
 51
315
  0
ARC
  8
0
  6
CONTINUOUS
 62
     7
 10
-153.38748
 20
-352.70883
 40
1
 50
90.000003
 51
135
  0
ARC
  8
0
  6
CONTINUOUS
 62
     7
 10
-153.38748
 20
-294.70883
 40
1
 50
225
 51
270
  0
ARC
  8
0
  6
CONTINUOUS
 62
     7
 10
-156.21591
 20
-294.70883
 40
1
 50
45.000001
 51
90.000003
  0
ARC
  8
0
  6
CONTINUOUS
 62
     7
 10
191.48468
 20
117.90271
 40
1
 50
360
 51
44.999998
  0
ARC
  8
0
  6
CONTINUOUS
 62
     7
 10
191.48468
 20
120.73114
 40
1
 50
180.00001
 51
225
  0
ARC
  8
0
  6
CONTINUOUS
 62
     7
 10
133.48468
 20
120.73114
 40
1
 50
315
 51
360
  0
ARC
  8
0
  6
CONTINUOUS
 62
     7
 10
133.48468
 20
117.90271
 40
1
 50
135
 51
180.00001
  0
ARC
  8
0
  6
CONTINUOUS
 62
     7
 10
-152.44603
 20
-67.453552
 40
1
 50
360
 51
44.999998
  0
ARC
  8
0
  6
CONTINUOUS
 62
     7
 10
-152.44603
 20
-64.625122
 40
1
 50
180.00001
 51
225
  0
ARC
  8
0
  6
CONTINUOUS
 62
     7
 10
-210.44603
 20
-64.625122
 40
1
 50
315
 51
360
  0
ARC
  8
0
  6
CONTINUOUS
 62
     7
 10
-210.44603
 20
-67.453552
 40
1
 50
135
 51
180.00001
  0
ARC
  8
0
  6
CONTINUOUS
 62
     7
 10
133.48468
 20
36.731136
 40
1
 50
179.99999
 51
225
  0
ARC
  8
0
  6
CONTINUOUS
 62
     7
 10
133.48468
 20
33.902706
 40
1
 50
2.5044789E-006
 51
45.000001
  0
ARC
  8
0
  6
CONTINUOUS
 62
     7
 10
191.48468
 20
33.902706
 40
1
 50
135
 51
179.99999
  0
ARC
  8
0
  6
CONTINUOUS
 62
     7
 10
191.48468
 20
36.731136
 40
1
 50
315
 51
2.5044789E-006
  0
ARC
  8
0
  6
CONTINUOUS
 62
     7
 10
91.693542
 20
-547.92249
 40
1
 50
270
 51
315
  0
ARC
  8
0
  6
CONTINUOUS
 62
     7
 10
94.271973
 20
-548.17249
 40
1
 50
90.000003
 51
135
  0
ARC
  8
0
  6
CONTINUOUS
 62
     7
 10
94.271973
 20
-484.17249
 40
1
 50
225
 51
270
  0
ARC
  8
0
  6
CONTINUOUS
 62
     7
 10
91.693542
 20
-484.42249
 40
1
 50
45.000001
 51
90.000003
  0
ARC
  8
0
  6
CONTINUOUS
 62
     7
 10
-12.078985
 20
-69.203552
 40
1
 50
360
 51
44.999998
  0
ARC
  8
0
  6
CONTINUOUS
 62
     7
 10
-11.828985
 20
-66.625122
 40
1
 50
180.00001
 51
225
  0
ARC
  8
0
  6
CONTINUOUS
 62
     7
 10
-75.828987
 20
-66.625122
 40
1
 50
315
 51
360
  0
ARC
  8
0
  6
CONTINUOUS
 62
     7
 10
-75.578987
 20
-69.203552
 40
1
 50
135
 51
180.00001
  0
ARC
  8
0
  6
CONTINUOUS
 62
     7
 10
134.063
 20
-71.886856
 40
1
 50
360
 51
44.999998
  0
ARC
  8
0
  6
CONTINUOUS
 62
     7
 10
134.313
 20
-69.308426
 40
1
 50
180.00001
 51
225
  0
ARC
  8
0
  6
CONTINUOUS
 62
     7
 10
70.312996
 20
-69.308426
 40
1
 50
315
 51
360
  0
ARC
  8
0
  6
CONTINUOUS
 62
     7
 10
70.562996
 20
-71.886856
 40
1
 50
135
 51
180.00001
  0
ARC
  8
0
  6
CONTINUOUS
 62
     7
 10
-175.0517
 20
-275.87305
 40
1
 50
360
 51
44.999998
  0
ARC
  8
0
  6
CONTINUOUS
 62
     7
 10
-174.8017
 20
-273.29462
 40
1
 50
180.00001
 51
225
  0
ARC
  8
0
  6
CONTINUOUS
 62
     7
 10
-238.8017
 20
-273.29462
 40
1
 50
315
 51
360
  0
ARC
  8
0
  6
CONTINUOUS
 62
     7
 10
-238.5517
 20
-275.87305
 40
1
 50
135
 51
180.00001
  0
ARC
  8
0
  6
CONTINUOUS
 62
     7
 10
-75.578987
 20
-150.87512
 40
1
 50
179.99999
 51
225
  0
ARC
  8
0
  6
CONTINUOUS
 62
     7
 10
-75.828987
 20
-153.45355
 40
1
 50
2.5044785E-006
 51
45.000001
  0
ARC
  8
0
  6
CONTINUOUS
 62
     7
 10
-11.828985
 20
-153.45355
 40
1
 50
135
 51
179.99999
  0
ARC
  8
0
  6
CONTINUOUS
 62
     7
 10
-12.078985
 20
-150.87512
 40
1
 50
315
 51
2.5044785E-006
  0
ARC
  8
0
  6
CONTINUOUS
 62
     7
 10
70.562996
 20
-159.55843
 40
1
 50
179.99999
 51
225
  0
ARC
  8
0
  6
CONTINUOUS
 62
     7
 10
70.312996
 20
-162.13686
 40
1
 50
2.5044785E-006
 51
45.000001
  0
ARC
  8
0
  6
CONTINUOUS
 62
     7
 10
134.313
 20
-162.13686
 40
1
 50
135
 51
179.99999
  0
ARC
  8
0
  6
CONTINUOUS
 62
     7
 10
134.063
 20
-159.55843
 40
1
 50
315
 51
2.5044785E-006
  0
ARC
  8
0
  6
CONTINUOUS
 62
     7
 10
-89.798248
 20
-492.04388
 40
1
 50
45.000001
 51
90.000003
  0
ARC
  8
0
  6
CONTINUOUS
 62
     7
 10
-89.798248
 20
-550.04388
 40
1
 50
270
 51
315
  0
ARC
  8
0
  6
CONTINUOUS
 62
     7
 10
-86.969818
 20
-550.04388
 40
1
 50
90.000003
 51
135
  0
ARC
  8
0
  6
CONTINUOUS
 62
     7
 10
-86.969818
 20
-492.04388
 40
1
 50
225
 51
270
  0
ARC
  8
0
  6
CONTINUOUS
 62
     7
 10
0.1675415
 20
-278.99927
 40
1
 50
360
 51
44.999998
  0
ARC
  8
0
  6
CONTINUOUS
 62
     7
 10
-0.3324585
 20
-275.67084
 40
1
 50
180.00001
 51
225
  0
ARC
  8
0
  6
CONTINUOUS
 62
     7
 10
-76.332458
 20
-275.67084
 40
1
 50
315
 51
360
  0
ARC
  8
0
  6
CONTINUOUS
 62
     7
 10
-76.832458
 20
-278.99927
 40
1
 50
135
 51
180.00001
  0
ARC
  8
0
  6
CONTINUOUS
 62
     7
 10
179.59743
 20
-273.56357
 40
1
 50
360
 51
44.999998
  0
ARC
  8
0
  6
CONTINUOUS
 62
     7
 10
179.09743
 20
-270.23514
 40
1
 50
180.00001
 51
225
  0
ARC
  8
0
  6
CONTINUOUS
 62
     7
 10
103.09743
 20
-270.23514
 40
1
 50
315
 51
360
  0
ARC
  8
0
  6
CONTINUOUS
 62
     7
 10
102.59743
 20
-273.56357
 40
1
 50
135
 51
180.00001
  0
ARC
  8
0
  6
CONTINUOUS
 62
     7
 10
-107.88403
 20
-470.9581
 40
1
 50
360
 51
44.999998
  0
ARC
  8
0
  6
CONTINUOUS
 62
     7
 10
-108.38403
 20
-467.62967
 40
1
 50
180.00001
 51
225
  0
ARC
  8
0
  6
CONTINUOUS
 62
     7
 10
-184.38403
 20
-467.62967
 40
1
 50
315
 51
360
  0
ARC
  8
0
  6
CONTINUOUS
 62
     7
 10
-184.88403
 20
-470.9581
 40
1
 50
135
 51
180.00001
  0
ARC
  8
0
  6
CONTINUOUS
 62
     7
 10
72.357758
 20
-462.0867
 40
1
 50
360
 51
44.999998
  0
ARC
  8
0
  6
CONTINUOUS
 62
     7
 10
71.857758
 20
-458.75827
 40
1
 50
180.00001
 51
225
  0
ARC
  8
0
  6
CONTINUOUS
 62
     7
 10
-4.1422386
 20
-458.75827
 40
1
 50
315
 51
360
  0
ARC
  8
0
  6
CONTINUOUS
 62
     7
 10
-4.6422386
 20
-462.0867
 40
1
 50
135
 51
180.00001
  0
ARC
  8
0
  6
CONTINUOUS
 62
     7
 10
102.59743
 20
-365.73514
 40
1
 50
179.99999
 51
225
  0
ARC
  8
0
  6
CONTINUOUS
 62
     7
 10
103.09743
 20
-369.06357
 40
1
 50
2.5044785E-006
 51
45.000001
  0
ARC
  8
0
  6
CONTINUOUS
 62
     7
 10
179.09743
 20
-369.06357
 40
1
 50
135
 51
179.99999
  0
ARC
  8
0
  6
CONTINUOUS
 62
     7
 10
179.59743
 20
-365.73514
 40
1
 50
315
 51
2.5044785E-006
  0
ARC
  8
0
  6
CONTINUOUS
 62
     7
 10
-76.832458
 20
-365.17084
 40
1
 50
179.99999
 51
225
  0
ARC
  8
0
  6
CONTINUOUS
 62
     7
 10
-76.332458
 20
-368.49927
 40
1
 50
2.5044785E-006
 51
45.000001
  0
ARC
  8
0
  6
CONTINUOUS
 62
     7
 10
-0.3324585
 20
-368.49927
 40
1
 50
135
 51
179.99999
  0
ARC
  8
0
  6
CONTINUOUS
 62
     7
 10
0.1675415
 20
-365.17084
 40
1
 50
315
 51
2.5044785E-006
  0
ARC
  8
0
  6
CONTINUOUS
 62
     7
 10
-184.88403
 20
-571.1297
 40
1
 50
179.99999
 51
225
  0
ARC
  8
0
  6
CONTINUOUS
 62
     7
 10
-184.38403
 20
-574.45813
 40
1
 50
2.5044817E-006
 51
45.000001
  0
ARC
  8
0
  6
CONTINUOUS
 62
     7
 10
-108.38403
 20
-574.45807
 40
1
 50
135
 51
179.99999
  0
ARC
  8
0
  6
CONTINUOUS
 62
     7
 10
-107.88403
 20
-571.12964
 40
1
 50
315
 51
2.5044817E-006
  0
ARC
  8
0
  6
CONTINUOUS
 62
     7
 10
497.59616
 20
156.84819
 40
1.5
 50
210
 51
270
  0
ARC
  8
0
  6
CONTINUOUS
 62
     7
 10
492.83304
 20
159.09819
 40
1.5
 50
30.000001
 51
90.000003
  0
ARC
  8
0
  6
CONTINUOUS
 62
     7
 10
492.83304
 20
59.098186
 40
1.5
 50
270
 51
330
  0
ARC
  8
0
  6
CONTINUOUS
 62
     7
 10
497.59616
 20
61.348186
 40
1.5
 50
90.000003
 51
150
  0
ARC
  8
0
  6
CONTINUOUS
 62
     7
 10
472.32034
 20
159.09819
 40
1.5
 50
90.000003
 51
135
  0
ARC
  8
0
  6
CONTINUOUS
 62
     7
 10
468.57773
 20
159.59819
 40
1.5
 50
270
 51
315
  0
ARC
  8
0
  6
CONTINUOUS
 62
     7
 10
388.88254
 20
159.59813
 40
1.5
 50
225
 51
270
  0
ARC
  8
0
  6
CONTINUOUS
 62
     7
 10
385.13992
 20
159.09813
 40
1.5
 50
45.000001
 51
89.999996
  0
ARC
  8
0
  6
CONTINUOUS
 62
     7
 10
359.86411
 20
61.348125
 40
1.5
 50
30.000004
 51
89.999996
  0
ARC
  8
0
  6
CONTINUOUS
 62
     7
 10
364.62723
 20
59.098125
 40
1.5
 50
210
 51
270
  0
ARC
  8
0
  6
CONTINUOUS
 62
     7
 10
364.62723
 20
159.09813
 40
1.5
 50
89.999996
 51
150
  0
ARC
  8
0
  6
CONTINUOUS
 62
     7
 10
359.86411
 20
156.84813
 40
1.5
 50
270
 51
330
  0
ARC
  8
0
  6
CONTINUOUS
 62
     7
 10
684.53674
 20
157.84639
 40
1.5
 50
210
 51
270
  0
ARC
  8
0
  6
CONTINUOUS
 62
     7
 10
679.62927
 20
160.34639
 40
1.5
 50
30.000001
 51
90.000003
  0
ARC
  8
0
  6
CONTINUOUS
 62
     7
 10
684.53674
 20
49.846401
 40
1.5
 50
90.000003
 51
150
  0
ARC
  8
0
  6
CONTINUOUS
 62
     7
 10
679.62927
 20
47.346401
 40
1.5
 50
270
 51
330
  0
ARC
  8
0
  6
CONTINUOUS
 62
     7
 10
658.11652
 20
160.34639
 40
1.5
 50
90.000003
 51
135
  0
ARC
  8
0
  6
CONTINUOUS
 62
     7
 10
654.37396
 20
160.84639
 40
1.5
 50
270
 51
315
  0
ARC
  8
0
  6
CONTINUOUS
 62
     7
 10
802.72327
 20
-35.240196
 40
1.5
 50
210
 51
270
  0
ARC
  8
0
  6
CONTINUOUS
 62
     7
 10
797.8158
 20
-32.740196
 40
1.5
 50
30.000001
 51
90.000003
  0
ARC
  8
0
  6
CONTINUOUS
 62
     7
 10
802.72327
 20
-143.2402
 40
1.5
 50
90.000003
 51
150
  0
ARC
  8
0
  6
CONTINUOUS
 62
     7
 10
797.8158
 20
-145.7402
 40
1.5
 50
270
 51
330
  0
ARC
  8
0
  6
CONTINUOUS
 62
     7
 10
776.3031
 20
-32.740196
 40
1.5
 50
90.000003
 51
135
  0
ARC
  8
0
  6
CONTINUOUS
 62
     7
 10
772.56042
 20
-32.240196
 40
1.5
 50
270
 51
315
  0
ARC
  8
0
  6
CONTINUOUS
 62
     7
 10
585.95044
 20
-33.372826
 40
1.5
 50
210
 51
270
  0
ARC
  8
0
  6
CONTINUOUS
 62
     7
 10
581.04297
 20
-30.872826
 40
1.5
 50
30.000001
 51
90.000003
  0
ARC
  8
0
  6
CONTINUOUS
 62
     7
 10
585.95044
 20
-141.37283
 40
1.5
 50
90.000003
 51
150
  0
ARC
  8
0
  6
CONTINUOUS
 62
     7
 10
581.04297
 20
-143.87283
 40
1.5
 50
270
 51
330
  0
ARC
  8
0
  6
CONTINUOUS
 62
     7
 10
559.53027
 20
-30.872826
 40
1.5
 50
90.000003
 51
135
  0
ARC
  8
0
  6
CONTINUOUS
 62
     7
 10
555.7876
 20
-30.372826
 40
1.5
 50
270
 51
315
  0
ARC
  8
0
  6
CONTINUOUS
 62
     7
 10
518.31726
 20
-339.1871
 40
1.5
 50
210
 51
270
  0
ARC
  8
0
  6
CONTINUOUS
 62
     7
 10
513.40979
 20
-336.6871
 40
1.5
 50
30.000001
 51
90.000003
  0
ARC
  8
0
  6
CONTINUOUS
 62
     7
 10
518.31726
 20
-447.1871
 40
1.5
 50
90.000003
 51
150
  0
ARC
  8
0
  6
CONTINUOUS
 62
     7
 10
513.40979
 20
-449.6871
 40
1.5
 50
270
 51
330
  0
ARC
  8
0
  6
CONTINUOUS
 62
     7
 10
491.89709
 20
-336.6871
 40
1.5
 50
90.000003
 51
135
  0
ARC
  8
0
  6
CONTINUOUS
 62
     7
 10
488.15448
 20
-336.1871
 40
1.5
 50
270
 51
315
  0
ARC
  8
0
  6
CONTINUOUS
 62
     7
 10
596.96747
 20
160.84647
 40
1.5
 50
225
 51
270
  0
ARC
  8
0
  6
CONTINUOUS
 62
     7
 10
593.22485
 20
160.34647
 40
1.5
 50
45.000001
 51
89.999996
  0
ARC
  8
0
  6
CONTINUOUS
 62
     7
 10
566.80469
 20
49.846401
 40
1.5
 50
30.000004
 51
89.999996
  0
ARC
  8
0
  6
CONTINUOUS
 62
     7
 10
571.71216
 20
47.346401
 40
1.5
 50
210
 51
270
  0
ARC
  8
0
  6
CONTINUOUS
 62
     7
 10
566.80469
 20
157.84641
 40
1.5
 50
270
 51
330
  0
ARC
  8
0
  6
CONTINUOUS
 62
     7
 10
571.71216
 20
160.34641
 40
1.5
 50
89.999996
 51
150
  0
ARC
  8
0
  6
CONTINUOUS
 62
     7
 10
482.3812
 20
-30.372765
 40
1.5
 50
225
 51
270
  0
ARC
  8
0
  6
CONTINUOUS
 62
     7
 10
478.63858
 20
-30.872765
 40
1.5
 50
45.000001
 51
89.999996
  0
ARC
  8
0
  6
CONTINUOUS
 62
     7
 10
452.21838
 20
-141.37282
 40
1.5
 50
30.000004
 51
89.999996
  0
ARC
  8
0
  6
CONTINUOUS
 62
     7
 10
457.12585
 20
-143.87282
 40
1.5
 50
210
 51
270
  0
ARC
  8
0
  6
CONTINUOUS
 62
     7
 10
452.21838
 20
-33.372826
 40
1.5
 50
270
 51
330
  0
ARC
  8
0
  6
CONTINUOUS
 62
     7
 10
457.12585
 20
-30.872826
 40
1.5
 50
89.999996
 51
150
  0
ARC
  8
0
  6
CONTINUOUS
 62
     7
 10
691.15399
 20
-32.240135
 40
1.5
 50
225
 51
270
  0
ARC
  8
0
  6
CONTINUOUS
 62
     7
 10
687.41138
 20
-32.740135
 40
1.5
 50
45.000001
 51
89.999996
  0
ARC
  8
0
  6
CONTINUOUS
 62
     7
 10
660.99121
 20
-143.24019
 40
1.5
 50
30.000004
 51
89.999996
  0
ARC
  8
0
  6
CONTINUOUS
 62
     7
 10
665.89868
 20
-145.74019
 40
1.5
 50
210
 51
270
  0
ARC
  8
0
  6
CONTINUOUS
 62
     7
 10
660.99121
 20
-35.240196
 40
1.5
 50
270
 51
330
  0
ARC
  8
0
  6
CONTINUOUS
 62
     7
 10
665.89868
 20
-32.740196
 40
1.5
 50
89.999996
 51
150
  0
ARC
  8
0
  6
CONTINUOUS
 62
     7
 10
386.74805
 20
-336.18704
 40
1.5
 50
225
 51
270
  0
ARC
  8
0
  6
CONTINUOUS
 62
     7
 10
383.00543
 20
-336.68704
 40
1.5
 50
45.000001
 51
89.999996
  0
ARC
  8
0
  6
CONTINUOUS
 62
     7
 10
356.58524
 20
-447.1871
 40
1.5
 50
30.000004
 51
89.999996
  0
ARC
  8
0
  6
CONTINUOUS
 62
     7
 10
361.49271
 20
-449.6871
 40
1.5
 50
210
 51
270
  0
ARC
  8
0
  6
CONTINUOUS
 62
     7
 10
356.58524
 20
-339.1871
 40
1.5
 50
270
 51
330
  0
ARC
  8
0
  6
CONTINUOUS
 62
     7
 10
361.49271
 20
-336.6871
 40
1.5
 50
89.999996
 51
150
  0
ARC
  8
0
  6
CONTINUOUS
 62
     7
 10
798.82642
 20
-334.36505
 40
1.5
 50
210
 51
270
  0
ARC
  8
0
  6
CONTINUOUS
 62
     7
 10
793.34155
 20
-330.86505
 40
1.5
 50
30.000001
 51
90.000003
  0
ARC
  8
0
  6
CONTINUOUS
 62
     7
 10
793.34155
 20
-471.86505
 40
1.5
 50
270
 51
330
  0
ARC
  8
0
  6
CONTINUOUS
 62
     7
 10
798.82642
 20
-468.36505
 40
1.5
 50
90.000003
 51
150
  0
ARC
  8
0
  6
CONTINUOUS
 62
     7
 10
769.82898
 20
-330.86505
 40
1.5
 50
90.000003
 51
135
  0
ARC
  8
0
  6
CONTINUOUS
 62
     7
 10
766.0863
 20
-330.36505
 40
1.5
 50
270
 51
315
  0
ARC
  8
0
  6
CONTINUOUS
 62
     7
 10
-186.17738
 20
106.43592
 40
3.5
 50
179.99999
 51
270
  0
ARC
  8
0
  6
CONTINUOUS
 62
     7
 10
-186.17738
 20
64.435921
 40
3.5
 50
90.000003
 51
180.00001
  0
ARC
  8
0
  6
CONTINUOUS
 62
     7
 10
-67.214775
 20
103.6848
 40
4
 50
179.99999
 51
270
  0
ARC
  8
0
  6
CONTINUOUS
 62
     7
 10
-67.214767
 20
60.684795
 40
4
 50
90.000003
 51
180.00001
  0
ARC
  8
0
  6
CONTINUOUS
 62
     7
 10
54.12492
 20
104.561
 40
3.5
 50
179.99999
 51
270
  0
ARC
  8
0
  6
CONTINUOUS
 62
     7
 10
54.124931
 20
56.560993
 40
3.5
 50
90.000003
 51
180.00001
  0
ARC
  8
0
  6
CONTINUOUS
 62
     7
 10
196.98468
 20
102.31693
 40
4.5
 50
179.99999
 51
270
  0
ARC
  8
0
  6
CONTINUOUS
 62
     7
 10
196.98468
 20
52.316921
 40
4.5
 50
90.000003
 51
180.00001
  0
ARC
  8
0
  6
CONTINUOUS
 62
     7
 10
-147.44603
 20
-81.53933
 40
4
 50
179.99999
 51
270
  0
ARC
  8
0
  6
CONTINUOUS
 62
     7
 10
-147.44603
 20
-138.53934
 40
4
 50
90.000003
 51
180.00001
  0
ARC
  8
0
  6
CONTINUOUS
 62
     7
 10
-6.0789857
 20
-84.53933
 40
5
 50
179.99999
 51
270
  0
ARC
  8
0
  6
CONTINUOUS
 62
     7
 10
-6.0789857
 20
-135.53934
 40
5
 50
90.000003
 51
180.00001
  0
ARC
  8
0
  6
CONTINUOUS
 62
     7
 10
140.063
 20
-86.222633
 40
5
 50
179.99999
 51
270
  0
ARC
  8
0
  6
CONTINUOUS
 62
     7
 10
140.063
 20
-145.22264
 40
5
 50
90.000003
 51
180.00001
  0
ARC
  8
0
  6
CONTINUOUS
 62
     7
 10
-169.0517
 20
-288.70883
 40
5
 50
179.99999
 51
270
  0
ARC
  8
0
  6
CONTINUOUS
 62
     7
 10
-169.0517
 20
-358.70883
 40
5
 50
90.000003
 51
180.00001
  0
ARC
  8
0
  6
CONTINUOUS
 62
     7
 10
6.1675415
 20
-296.58505
 40
5
 50
179.99999
 51
270
  0
ARC
  8
0
  6
CONTINUOUS
 62
     7
 10
6.1675415
 20
-347.58505
 40
5
 50
90.000003
 51
180.00001
  0
ARC
  8
0
  6
CONTINUOUS
 62
     7
 10
186.59743
 20
-289.14935
 40
6
 50
179.99999
 51
270
  0
ARC
  8
0
  6
CONTINUOUS
 62
     7
 10
186.59743
 20
-350.14935
 40
6
 50
90.000003
 51
180.00001
  0
ARC
  8
0
  6
CONTINUOUS
 62
     7
 10
-100.88403
 20
-485.04388
 40
6
 50
179.99999
 51
270
  0
ARC
  8
0
  6
CONTINUOUS
 62
     7
 10
-100.88403
 20
-557.04388
 40
6
 50
90.000003
 51
180.00001
  0
ARC
  8
0
  6
CONTINUOUS
 62
     7
 10
79.357758
 20
-477.42249
 40
6
 50
179.99999
 51
270
  0
ARC
  8
0
  6
CONTINUOUS
 62
     7
 10
79.357758
 20
-554.92249
 40
6
 50
90.000003
 51
180.00001
  0
ARC
  8
0
  6
CONTINUOUS
 62
     7
 10
769.85724
 20
-166.81763
 40
1
 50
120
 51
180.00001
  0
ARC
  8
0
  6
CONTINUOUS
 62
     7
 10
772.35724
 20
-163.06485
 40
1
 50
300
 51
1.628444E-012
  0
ARC
  8
0
  6
CONTINUOUS
 62
     7
 10
693.85724
 20
-166.81763
 40
1
 50
1.628444E-012
 51
60.000002
  0
ARC
  8
0
  6
CONTINUOUS
 62
     7
 10
691.35724
 20
-163.06485
 40
1
 50
179.99999
 51
240.00001
  0
ARC
  8
0
  6
CONTINUOUS
 62
     7
 10
649.67072
 20
30.269049
 40
1
 50
120
 51
180.00001
  0
ARC
  8
0
  6
CONTINUOUS
 62
     7
 10
650.67072
 20
33.155796
 40
1
 50
300
 51
1.221333E-012
  0
ARC
  8
0
  6
CONTINUOUS
 62
     7
 10
600.67072
 20
33.155796
 40
1
 50
179.99999
 51
240.00001
  0
ARC
  8
0
  6
CONTINUOUS
 62
     7
 10
601.67072
 20
30.269049
 40
1
 50
1.221333E-012
 51
60.000002
  0
ARC
  8
0
  6
CONTINUOUS
 62
     7
 10
551.08441
 20
-164.95024
 40
1
 50
120
 51
180.00001
  0
ARC
  8
0
  6
CONTINUOUS
 62
     7
 10
552.58441
 20
-161.77483
 40
1
 50
300
 51
1.628444E-012
  0
ARC
  8
0
  6
CONTINUOUS
 62
     7
 10
485.58441
 20
-161.77483
 40
1
 50
179.99999
 51
240.00001
  0
ARC
  8
0
  6
CONTINUOUS
 62
     7
 10
487.08441
 20
-164.95024
 40
1
 50
1.628444E-012
 51
60.000002
  0
ARC
  8
0
  6
CONTINUOUS
 62
     7
 10
466.73013
 20
38.520737
 40
1
 50
120
 51
180.00001
  0
ARC
  8
0
  6
CONTINUOUS
 62
     7
 10
469.23013
 20
42.27351
 40
1
 50
300
 51
1.221333E-012
  0
ARC
  8
0
  6
CONTINUOUS
 62
     7
 10
390.73013
 20
38.520737
 40
1
 50
1.221333E-012
 51
60.000002
  0
ARC
  8
0
  6
CONTINUOUS
 62
     7
 10
388.23013
 20
42.27351
 40
1
 50
179.99999
 51
240.00001
  0
ARC
  8
0
  6
CONTINUOUS
 62
     7
 10
493.95129
 20
-456.1871
 40
5
 50
90.000003
 51
180.00001
  0
ARC
  8
0
  6
CONTINUOUS
 62
     7
 10
380.95129
 20
-456.1871
 40
5
 50
0
 51
90.000003
  0
ARC
  8
0
  6
CONTINUOUS
 62
     7
 10
642.96039
 20
-478.36505
 40
5
 50
0
 51
90.000003
  0
ARC
  8
0
  6
CONTINUOUS
 62
     7
 10
768.96039
 20
-478.36505
 40
5
 50
90.000003
 51
180.00001
  0
ARC
  8
0
  6
CONTINUOUS
 62
     7
 10
778.35724
 20
-152.2402
 40
5
 50
90.000003
 51
180.00001
  0
ARC
  8
0
  6
CONTINUOUS
 62
     7
 10
685.35724
 20
-152.24019
 40
5
 50
0
 51
90.000003
  0
ARC
  8
0
  6
CONTINUOUS
 62
     7
 10
558.58441
 20
-150.37283
 40
5
 50
90.000003
 51
180.00001
  0
ARC
  8
0
  6
CONTINUOUS
 62
     7
 10
479.58441
 20
-150.37282
 40
5
 50
0
 51
90.000003
  0
ARC
  8
0
  6
CONTINUOUS
 62
     7
 10
475.23013
 20
52.598186
 40
5
 50
90.000003
 51
180.00001
  0
ARC
  8
0
  6
CONTINUOUS
 62
     7
 10
382.23013
 20
52.598125
 40
5
 50
0
 51
90.000003
  0
ARC
  8
0
  6
CONTINUOUS
 62
     7
 10
594.67072
 20
40.846401
 40
5
 50
0
 51
90.000003
  0
ARC
  8
0
  6
CONTINUOUS
 62
     7
 10
656.67072
 20
40.846401
 40
5
 50
90.000003
 51
180.00001
  0
ARC
  8
0
  6
CONTINUOUS
 62
     7
 10
734.5694
 20
-176.81004
 40
3
 50
306.00833
 51
53.991676
  0
ARC
  8
0
  6
CONTINUOUS
 62
     7
 10
734.5694
 20
-176.81004
 40
4.5
 50
306.00833
 51
53.991676
  0
ARC
  8
0
  6
CONTINUOUS
 62
     7
 10
728.5694
 20
-176.81004
 40
3
 50
126.00833
 51
233.99168
  0
ARC
  8
0
  6
CONTINUOUS
 62
     7
 10
728.5694
 20
-176.81004
 40
4.5
 50
126.00833
 51
233.99168
  0
ARC
  8
0
  6
CONTINUOUS
 62
     7
 10
731.5694
 20
-180.93793
 40
9.6028843
 50
53.991676
 51
85.520553
  0
ARC
  8
0
  6
CONTINUOUS
 62
     7
 10
731.5694
 20
-180.93793
 40
8.1028843
 50
53.991676
 51
84.689121
  0
ARC
  8
0
  6
CONTINUOUS
 62
     7
 10
731.5694
 20
-172.68216
 40
8.1028843
 50
233.99167
 51
306.00832
  0
ARC
  8
0
  6
CONTINUOUS
 62
     7
 10
731.5694
 20
-172.68216
 40
9.6028843
 50
233.99167
 51
265.52055
  0
ARC
  8
0
  6
CONTINUOUS
 62
     7
 10
731.5694
 20
-169.87254
 40
0.9375
 50
36.869897
 51
143.1301
  0
ARC
  8
0
  6
CONTINUOUS
 62
     7
 10
731.5694
 20
-176.24754
 40
0.9375
 50
216.8699
 51
323.13009
  0
ARC
  8
0
  6
CONTINUOUS
 62
     7
 10
731.5694
 20
-183.74754
 40
0.9375
 50
216.8699
 51
323.13009
  0
ARC
  8
0
  6
CONTINUOUS
 62
     7
 10
731.5694
 20
-180.93793
 40
9.6028843
 50
94.479452
 51
126.00833
  0
ARC
  8
0
  6
CONTINUOUS
 62
     7
 10
731.5694
 20
-180.93793
 40
8.1028843
 50
95.310878
 51
126.00833
  0
ARC
  8
0
  6
CONTINUOUS
 62
     7
 10
731.5694
 20
-172.68216
 40
9.6028843
 50
274.47945
 51
306.00833
  0
ARC
  8
0
  6
CONTINUOUS
 62
     7
 10
21.480701
 20
-320.11594
 40
1.8
 50
36.008327
 51
143.99167
  0
ARC
  8
0
  6
CONTINUOUS
 62
     7
 10
21.480701
 20
-320.11594
 40
2.7
 50
36.008327
 51
143.99167
  0
ARC
  8
0
  6
CONTINUOUS
 62
     7
 10
21.480701
 20
-323.71594
 40
1.8
 50
216.00833
 51
323.99168
  0
ARC
  8
0
  6
CONTINUOUS
 62
     7
 10
21.480701
 20
-323.71594
 40
2.7
 50
216.00833
 51
323.99168
  0
ARC
  8
0
  6
CONTINUOUS
 62
     7
 10
23.957432
 20
-321.91592
 40
5.7617307
 50
143.99167
 51
175.52055
  0
ARC
  8
0
  6
CONTINUOUS
 62
     7
 10
23.957432
 20
-321.91592
 40
4.8617306
 50
143.99167
 51
174.68912
  0
ARC
  8
0
  6
CONTINUOUS
 62
     7
 10
19.003971
 20
-321.91592
 40
4.8617306
 50
323.99167
 51
36.008324
  0
ARC
  8
0
  6
CONTINUOUS
 62
     7
 10
19.003971
 20
-321.91592
 40
5.7617307
 50
323.99167
 51
355.52055
  0
ARC
  8
0
  6
CONTINUOUS
 62
     7
 10
17.318195
 20
-321.91592
 40
0.5625
 50
126.8699
 51
233.13009
  0
ARC
  8
0
  6
CONTINUOUS
 62
     7
 10
21.143208
 20
-321.91592
 40
0.5625
 50
306.8699
 51
53.130092
  0
ARC
  8
0
  6
CONTINUOUS
 62
     7
 10
25.643208
 20
-321.91592
 40
0.5625
 50
306.8699
 51
53.130092
  0
ARC
  8
0
  6
CONTINUOUS
 62
     7
 10
23.957432
 20
-321.91592
 40
5.7617307
 50
184.47945
 51
216.00833
  0
ARC
  8
0
  6
CONTINUOUS
 62
     7
 10
23.957432
 20
-321.91592
 40
4.8617306
 50
185.31088
 51
216.00833
  0
ARC
  8
0
  6
CONTINUOUS
 62
     7
 10
19.003971
 20
-321.91592
 40
5.7617307
 50
4.4794541
 51
36.008327
  0
ARC
  8
0
  6
CONTINUOUS
 62
     7
 10
205.72302
 20
-317.21448
 40
2.4000001
 50
36.008327
 51
143.99167
  0
ARC
  8
0
  6
CONTINUOUS
 62
     7
 10
205.72302
 20
-317.21448
 40
3.5999999
 50
36.008327
 51
143.99167
  0
ARC
  8
0
  6
CONTINUOUS
 62
     7
 10
205.72302
 20
-322.01447
 40
2.4000001
 50
216.00833
 51
323.99168
  0
ARC
  8
0
  6
CONTINUOUS
 62
     7
 10
205.72302
 20
-322.01447
 40
3.5999999
 50
216.00833
 51
323.99168
  0
ARC
  8
0
  6
CONTINUOUS
 62
     7
 10
209.02533
 20
-319.61447
 40
7.6823077
 50
143.99167
 51
175.52055
  0
ARC
  8
0
  6
CONTINUOUS
 62
     7
 10
209.02533
 20
-319.61447
 40
6.4823079
 50
143.99167
 51
174.68912
  0
ARC
  8
0
  6
CONTINUOUS
 62
     7
 10
202.42072
 20
-319.61447
 40
6.4823079
 50
323.99167
 51
36.008324
  0
ARC
  8
0
  6
CONTINUOUS
 62
     7
 10
202.42072
 20
-319.61447
 40
7.6823077
 50
323.99167
 51
355.52055
  0
ARC
  8
0
  6
CONTINUOUS
 62
     7
 10
200.17302
 20
-319.61447
 40
0.75
 50
126.8699
 51
233.13009
  0
ARC
  8
0
  6
CONTINUOUS
 62
     7
 10
205.27303
 20
-319.61447
 40
0.75
 50
306.8699
 51
53.130092
  0
ARC
  8
0
  6
CONTINUOUS
 62
     7
 10
211.27303
 20
-319.61447
 40
0.75
 50
306.8699
 51
53.130092
  0
ARC
  8
0
  6
CONTINUOUS
 62
     7
 10
209.02533
 20
-319.61447
 40
6.4823079
 50
185.31088
 51
216.00833
  0
ARC
  8
0
  6
CONTINUOUS
 62
     7
 10
209.02533
 20
-319.61447
 40
7.6823077
 50
184.47945
 51
216.00833
  0
ARC
  8
0
  6
CONTINUOUS
 62
     7
 10
202.42072
 20
-319.61447
 40
7.6823077
 50
4.4794541
 51
36.008327
  0
ARC
  8
0
  6
CONTINUOUS
 62
     7
 10
-168.83089
 20
87.315849
 40
1.8
 50
36.008327
 51
143.99167
  0
ARC
  8
0
  6
CONTINUOUS
 62
     7
 10
-168.83089
 20
87.315849
 40
2.7
 50
36.008327
 51
143.99167
  0
ARC
  8
0
  6
CONTINUOUS
 62
     7
 10
-168.83089
 20
83.715843
 40
1.8
 50
216.00833
 51
323.99168
  0
ARC
  8
0
  6
CONTINUOUS
 62
     7
 10
-168.83089
 20
83.715843
 40
2.7
 50
216.00833
 51
323.99168
  0
ARC
  8
0
  6
CONTINUOUS
 62
     7
 10
-166.35416
 20
85.515862
 40
5.7617307
 50
143.99167
 51
175.52055
  0
ARC
  8
0
  6
CONTINUOUS
 62
     7
 10
-166.35416
 20
85.515862
 40
4.8617306
 50
143.99167
 51
174.68912
  0
ARC
  8
0
  6
CONTINUOUS
 62
     7
 10
-171.30762
 20
85.515862
 40
4.8617306
 50
323.99167
 51
36.008324
  0
ARC
  8
0
  6
CONTINUOUS
 62
     7
 10
-171.30762
 20
85.515862
 40
5.7617307
 50
323.99167
 51
355.52055
  0
ARC
  8
0
  6
CONTINUOUS
 62
     7
 10
-172.99339
 20
85.515862
 40
0.5625
 50
126.8699
 51
233.13009
  0
ARC
  8
0
  6
CONTINUOUS
 62
     7
 10
-169.16838
 20
85.515862
 40
0.5625
 50
306.8699
 51
53.130092
  0
ARC
  8
0
  6
CONTINUOUS
 62
     7
 10
-164.66838
 20
85.515862
 40
0.5625
 50
306.8699
 51
53.130092
  0
ARC
  8
0
  6
CONTINUOUS
 62
     7
 10
-166.35416
 20
85.515862
 40
5.7617307
 50
184.47945
 51
216.00833
  0
ARC
  8
0
  6
CONTINUOUS
 62
     7
 10
-166.35416
 20
85.515862
 40
4.8617306
 50
185.31088
 51
216.00833
  0
ARC
  8
0
  6
CONTINUOUS
 62
     7
 10
-171.30762
 20
85.515862
 40
5.7617307
 50
4.4794541
 51
36.008327
  0
ARC
  8
0
  6
CONTINUOUS
 62
     7
 10
72.384483
 20
82.41909
 40
1.8
 50
36.008327
 51
143.99167
  0
ARC
  8
0
  6
CONTINUOUS
 62
     7
 10
72.384483
 20
82.41909
 40
2.7
 50
36.008327
 51
143.99167
  0
ARC
  8
0
  6
CONTINUOUS
 62
     7
 10
72.384483
 20
78.819084
 40
1.8
 50
216.00833
 51
323.99168
  0
ARC
  8
0
  6
CONTINUOUS
 62
     7
 10
72.384483
 20
78.819084
 40
2.7
 50
216.00833
 51
323.99168
  0
ARC
  8
0
  6
CONTINUOUS
 62
     7
 10
74.861214
 20
80.619102
 40
5.7617307
 50
143.99167
 51
175.52055
  0
ARC
  8
0
  6
CONTINUOUS
 62
     7
 10
74.861214
 20
80.619102
 40
4.8617306
 50
143.99167
 51
174.68912
  0
ARC
  8
0
  6
CONTINUOUS
 62
     7
 10
69.907753
 20
80.619102
 40
4.8617306
 50
323.99167
 51
36.008324
  0
ARC
  8
0
  6
CONTINUOUS
 62
     7
 10
69.907753
 20
80.619102
 40
5.7617307
 50
323.99167
 51
355.52055
  0
ARC
  8
0
  6
CONTINUOUS
 62
     7
 10
68.221977
 20
80.619102
 40
0.5625
 50
126.8699
 51
233.13009
  0
ARC
  8
0
  6
CONTINUOUS
 62
     7
 10
72.046989
 20
80.619102
 40
0.5625
 50
306.8699
 51
53.130092
  0
ARC
  8
0
  6
CONTINUOUS
 62
     7
 10
76.546989
 20
80.619102
 40
0.5625
 50
306.8699
 51
53.130092
  0
ARC
  8
0
  6
CONTINUOUS
 62
     7
 10
74.861214
 20
80.619102
 40
5.7617307
 50
184.47945
 51
216.00833
  0
ARC
  8
0
  6
CONTINUOUS
 62
     7
 10
74.861214
 20
80.619102
 40
4.8617306
 50
185.31088
 51
216.00833
  0
ARC
  8
0
  6
CONTINUOUS
 62
     7
 10
69.907753
 20
80.619102
 40
5.7617307
 50
4.4794541
 51
36.008327
  0
ARC
  8
0
  6
CONTINUOUS
 62
     7
 10
213.35002
 20
79.282379
 40
1.8
 50
36.008327
 51
143.99167
  0
ARC
  8
0
  6
CONTINUOUS
 62
     7
 10
213.35002
 20
79.282379
 40
2.7
 50
36.008327
 51
143.99167
  0
ARC
  8
0
  6
CONTINUOUS
 62
     7
 10
213.35002
 20
75.682373
 40
1.8
 50
216.00833
 51
323.99168
  0
ARC
  8
0
  6
CONTINUOUS
 62
     7
 10
213.35002
 20
75.682373
 40
2.7
 50
216.00833
 51
323.99168
  0
ARC
  8
0
  6
CONTINUOUS
 62
     7
 10
215.82675
 20
77.482391
 40
5.7617307
 50
143.99167
 51
175.52055
  0
ARC
  8
0
  6
CONTINUOUS
 62
     7
 10
215.82675
 20
77.482391
 40
4.8617306
 50
143.99167
 51
174.68912
  0
ARC
  8
0
  6
CONTINUOUS
 62
     7
 10
210.87329
 20
77.482391
 40
4.8617306
 50
323.99167
 51
36.008324
  0
ARC
  8
0
  6
CONTINUOUS
 62
     7
 10
210.87329
 20
77.482391
 40
5.7617307
 50
323.99167
 51
355.52055
  0
ARC
  8
0
  6
CONTINUOUS
 62
     7
 10
209.18752
 20
77.482391
 40
0.5625
 50
126.8699
 51
233.13009
  0
ARC
  8
0
  6
CONTINUOUS
 62
     7
 10
213.01253
 20
77.482391
 40
0.5625
 50
306.8699
 51
53.130092
  0
ARC
  8
0
  6
CONTINUOUS
 62
     7
 10
217.51253
 20
77.482391
 40
0.5625
 50
306.8699
 51
53.130092
  0
ARC
  8
0
  6
CONTINUOUS
 62
     7
 10
215.82675
 20
77.482391
 40
5.7617307
 50
184.47945
 51
216.00833
  0
ARC
  8
0
  6
CONTINUOUS
 62
     7
 10
215.82675
 20
77.482391
 40
4.8617306
 50
185.31088
 51
216.00833
  0
ARC
  8
0
  6
CONTINUOUS
 62
     7
 10
210.87329
 20
77.482391
 40
5.7617307
 50
4.4794541
 51
36.008327
  0
ARC
  8
0
  6
CONTINUOUS
 62
     7
 10
9.852397
 20
-108.15364
 40
1.8
 50
36.008327
 51
143.99167
  0
ARC
  8
0
  6
CONTINUOUS
 62
     7
 10
9.852397
 20
-108.15364
 40
2.7
 50
36.008327
 51
143.99167
  0
ARC
  8
0
  6
CONTINUOUS
 62
     7
 10
9.852397
 20
-111.75365
 40
1.8
 50
216.00833
 51
323.99168
  0
ARC
  8
0
  6
CONTINUOUS
 62
     7
 10
9.852397
 20
-111.75365
 40
2.7
 50
216.00833
 51
323.99168
  0
ARC
  8
0
  6
CONTINUOUS
 62
     7
 10
12.329127
 20
-109.95363
 40
5.7617307
 50
143.99167
 51
175.52055
  0
ARC
  8
0
  6
CONTINUOUS
 62
     7
 10
12.329127
 20
-109.95363
 40
4.8617306
 50
143.99167
 51
174.68912
  0
ARC
  8
0
  6
CONTINUOUS
 62
     7
 10
7.3756666
 20
-109.95363
 40
4.8617306
 50
323.99167
 51
36.008324
  0
ARC
  8
0
  6
CONTINUOUS
 62
     7
 10
7.3756666
 20
-109.95363
 40
5.7617307
 50
323.99167
 51
355.52055
  0
ARC
  8
0
  6
CONTINUOUS
 62
     7
 10
5.6898909
 20
-109.95363
 40
0.5625
 50
126.8699
 51
233.13009
  0
ARC
  8
0
  6
CONTINUOUS
 62
     7
 10
9.5149031
 20
-109.95363
 40
0.5625
 50
306.8699
 51
53.130092
  0
ARC
  8
0
  6
CONTINUOUS
 62
     7
 10
14.014903
 20
-109.95363
 40
0.5625
 50
306.8699
 51
53.130092
  0
ARC
  8
0
  6
CONTINUOUS
 62
     7
 10
12.329127
 20
-109.95363
 40
5.7617307
 50
184.47945
 51
216.00833
  0
ARC
  8
0
  6
CONTINUOUS
 62
     7
 10
12.329127
 20
-109.95363
 40
4.8617306
 50
185.31088
 51
216.00833
  0
ARC
  8
0
  6
CONTINUOUS
 62
     7
 10
7.3756666
 20
-109.95363
 40
5.7617307
 50
4.4794541
 51
36.008327
  0
ARC
  8
0
  6
CONTINUOUS
 62
     7
 10
-50.38876
 20
84.030594
 40
1.8
 50
36.008327
 51
143.99167
  0
ARC
  8
0
  6
CONTINUOUS
 62
     7
 10
-50.38876
 20
84.030594
 40
2.7
 50
36.008327
 51
143.99167
  0
ARC
  8
0
  6
CONTINUOUS
 62
     7
 10
-50.38876
 20
80.430588
 40
1.8
 50
216.00833
 51
323.99168
  0
ARC
  8
0
  6
CONTINUOUS
 62
     7
 10
-50.38876
 20
80.430588
 40
2.7
 50
216.00833
 51
323.99168
  0
ARC
  8
0
  6
CONTINUOUS
 62
     7
 10
-47.912029
 20
82.230606
 40
5.7617307
 50
143.99167
 51
175.52055
  0
ARC
  8
0
  6
CONTINUOUS
 62
     7
 10
-47.912029
 20
82.230606
 40
4.8617306
 50
143.99167
 51
174.68912
  0
ARC
  8
0
  6
CONTINUOUS
 62
     7
 10
-52.86549
 20
82.230606
 40
4.8617306
 50
323.99167
 51
36.008324
  0
ARC
  8
0
  6
CONTINUOUS
 62
     7
 10
-52.86549
 20
82.230606
 40
5.7617307
 50
323.99167
 51
355.52055
  0
ARC
  8
0
  6
CONTINUOUS
 62
     7
 10
-54.551266
 20
82.230606
 40
0.5625
 50
126.8699
 51
233.13009
  0
ARC
  8
0
  6
CONTINUOUS
 62
     7
 10
-50.726254
 20
82.230606
 40
0.5625
 50
306.8699
 51
53.130092
  0
ARC
  8
0
  6
CONTINUOUS
 62
     7
 10
-46.226254
 20
82.230606
 40
0.5625
 50
306.8699
 51
53.130092
  0
ARC
  8
0
  6
CONTINUOUS
 62
     7
 10
-47.912029
 20
82.230606
 40
5.7617307
 50
184.47945
 51
216.00833
  0
ARC
  8
0
  6
CONTINUOUS
 62
     7
 10
-47.912029
 20
82.230606
 40
4.8617306
 50
185.31088
 51
216.00833
  0
ARC
  8
0
  6
CONTINUOUS
 62
     7
 10
-52.86549
 20
82.230606
 40
5.7617307
 50
4.4794541
 51
36.008327
  0
ARC
  8
0
  6
CONTINUOUS
 62
     7
 10
-124.28378
 20
-107.48782
 40
2.4000001
 50
36.008327
 51
143.99167
  0
ARC
  8
0
  6
CONTINUOUS
 62
     7
 10
-124.28378
 20
-107.48782
 40
3.5999999
 50
36.008327
 51
143.99167
  0
ARC
  8
0
  6
CONTINUOUS
 62
     7
 10
-124.28378
 20
-112.28781
 40
2.4000001
 50
216.00833
 51
323.99168
  0
ARC
  8
0
  6
CONTINUOUS
 62
     7
 10
-124.28378
 20
-112.28781
 40
3.5999999
 50
216.00833
 51
323.99168
  0
ARC
  8
0
  6
CONTINUOUS
 62
     7
 10
-120.98147
 20
-109.88782
 40
7.6823077
 50
143.99167
 51
175.52055
  0
ARC
  8
0
  6
CONTINUOUS
 62
     7
 10
-120.98147
 20
-109.88782
 40
6.4823079
 50
143.99167
 51
174.68912
  0
ARC
  8
0
  6
CONTINUOUS
 62
     7
 10
-127.58608
 20
-109.88782
 40
6.4823079
 50
323.99167
 51
36.008324
  0
ARC
  8
0
  6
CONTINUOUS
 62
     7
 10
-127.58608
 20
-109.88782
 40
7.6823077
 50
323.99167
 51
355.52055
  0
ARC
  8
0
  6
CONTINUOUS
 62
     7
 10
-129.83377
 20
-109.88782
 40
0.75
 50
126.8699
 51
233.13009
  0
ARC
  8
0
  6
CONTINUOUS
 62
     7
 10
-124.73377
 20
-109.88782
 40
0.75
 50
306.8699
 51
53.130092
  0
ARC
  8
0
  6
CONTINUOUS
 62
     7
 10
-118.73377
 20
-109.88782
 40
0.75
 50
306.8699
 51
53.130092
  0
ARC
  8
0
  6
CONTINUOUS
 62
     7
 10
-120.98147
 20
-109.88782
 40
6.4823079
 50
185.31088
 51
216.00833
  0
ARC
  8
0
  6
CONTINUOUS
 62
     7
 10
-120.98147
 20
-109.88782
 40
7.6823077
 50
184.47945
 51
216.00833
  0
ARC
  8
0
  6
CONTINUOUS
 62
     7
 10
-127.58608
 20
-109.88782
 40
7.6823077
 50
4.4794541
 51
36.008327
  0
ARC
  8
0
  6
CONTINUOUS
 62
     7
 10
161.31404
 20
-113.23261
 40
2.4000001
 50
36.008327
 51
143.99167
  0
ARC
  8
0
  6
CONTINUOUS
 62
     7
 10
161.31404
 20
-113.23261
 40
3.5999999
 50
36.008327
 51
143.99167
  0
ARC
  8
0
  6
CONTINUOUS
 62
     7
 10
161.31404
 20
-118.0326
 40
2.4000001
 50
216.00833
 51
323.99168
  0
ARC
  8
0
  6
CONTINUOUS
 62
     7
 10
161.31404
 20
-118.0326
 40
3.5999999
 50
216.00833
 51
323.99168
  0
ARC
  8
0
  6
CONTINUOUS
 62
     7
 10
164.61635
 20
-115.63261
 40
7.6823077
 50
143.99167
 51
175.52055
  0
ARC
  8
0
  6
CONTINUOUS
 62
     7
 10
164.61635
 20
-115.63261
 40
6.4823079
 50
143.99167
 51
174.68912
  0
ARC
  8
0
  6
CONTINUOUS
 62
     7
 10
158.01173
 20
-115.63261
 40
6.4823079
 50
323.99167
 51
36.008324
  0
ARC
  8
0
  6
CONTINUOUS
 62
     7
 10
158.01173
 20
-115.63261
 40
7.6823077
 50
323.99167
 51
355.52055
  0
ARC
  8
0
  6
CONTINUOUS
 62
     7
 10
155.76404
 20
-115.63261
 40
0.75
 50
126.8699
 51
233.13009
  0
ARC
  8
0
  6
CONTINUOUS
 62
     7
 10
160.86404
 20
-115.63261
 40
0.75
 50
306.8699
 51
53.130092
  0
ARC
  8
0
  6
CONTINUOUS
 62
     7
 10
166.86404
 20
-115.63261
 40
0.75
 50
306.8699
 51
53.130092
  0
ARC
  8
0
  6
CONTINUOUS
 62
     7
 10
164.61635
 20
-115.63261
 40
6.4823079
 50
185.31088
 51
216.00833
  0
ARC
  8
0
  6
CONTINUOUS
 62
     7
 10
164.61635
 20
-115.63261
 40
7.6823077
 50
184.47945
 51
216.00833
  0
ARC
  8
0
  6
CONTINUOUS
 62
     7
 10
158.01173
 20
-115.63261
 40
7.6823077
 50
4.4794541
 51
36.008327
  0
ARC
  8
0
  6
CONTINUOUS
 62
     7
 10
521.4165
 20
-175.4381
 40
2.4000001
 50
306.00833
 51
53.991676
  0
ARC
  8
0
  6
CONTINUOUS
 62
     7
 10
521.4165
 20
-175.4381
 40
3.5999999
 50
306.00833
 51
53.991676
  0
ARC
  8
0
  6
CONTINUOUS
 62
     7
 10
516.61652
 20
-175.4381
 40
2.4000001
 50
126.00833
 51
233.99168
  0
ARC
  8
0
  6
CONTINUOUS
 62
     7
 10
516.61652
 20
-175.4381
 40
3.5999999
 50
126.00833
 51
233.99168
  0
ARC
  8
0
  6
CONTINUOUS
 62
     7
 10
519.01654
 20
-178.7404
 40
7.6823077
 50
53.991676
 51
85.520553
  0
ARC
  8
0
  6
CONTINUOUS
 62
     7
 10
519.01654
 20
-178.7404
 40
6.4823079
 50
53.991676
 51
84.689121
  0
ARC
  8
0
  6
CONTINUOUS
 62
     7
 10
519.01654
 20
-172.13579
 40
6.4823079
 50
233.99167
 51
306.00832
  0
ARC
  8
0
  6
CONTINUOUS
 62
     7
 10
519.01654
 20
-172.13579
 40
7.6823077
 50
233.99167
 51
265.52055
  0
ARC
  8
0
  6
CONTINUOUS
 62
     7
 10
519.01654
 20
-169.88809
 40
0.75
 50
36.869897
 51
143.1301
  0
ARC
  8
0
  6
CONTINUOUS
 62
     7
 10
519.01654
 20
-174.9881
 40
0.75
 50
216.8699
 51
323.13009
  0
ARC
  8
0
  6
CONTINUOUS
 62
     7
 10
519.01654
 20
-180.9881
 40
0.75
 50
216.8699
 51
323.13009
  0
ARC
  8
0
  6
CONTINUOUS
 62
     7
 10
519.01654
 20
-178.7404
 40
6.4823079
 50
95.310878
 51
126.00833
  0
ARC
  8
0
  6
CONTINUOUS
 62
     7
 10
519.01654
 20
-178.7404
 40
7.6823077
 50
94.479452
 51
126.00833
  0
ARC
  8
0
  6
CONTINUOUS
 62
     7
 10
519.01654
 20
-172.13579
 40
7.6823077
 50
274.47945
 51
306.00833
  0
ARC
  8
0
  6
CONTINUOUS
 62
     7
 10
-144.25374
 20
-320.86551
 40
2.4000001
 50
36.008327
 51
143.99167
  0
ARC
  8
0
  6
CONTINUOUS
 62
     7
 10
-144.25374
 20
-320.86551
 40
3.5999999
 50
36.008327
 51
143.99167
  0
ARC
  8
0
  6
CONTINUOUS
 62
     7
 10
-144.25374
 20
-325.6655
 40
2.4000001
 50
216.00833
 51
323.99168
  0
ARC
  8
0
  6
CONTINUOUS
 62
     7
 10
-144.25374
 20
-325.6655
 40
3.5999999
 50
216.00833
 51
323.99168
  0
ARC
  8
0
  6
CONTINUOUS
 62
     7
 10
-140.95143
 20
-323.2655
 40
7.6823077
 50
143.99167
 51
175.52055
  0
ARC
  8
0
  6
CONTINUOUS
 62
     7
 10
-140.95143
 20
-323.2655
 40
6.4823079
 50
143.99167
 51
174.68912
  0
ARC
  8
0
  6
CONTINUOUS
 62
     7
 10
-147.55605
 20
-323.2655
 40
6.4823079
 50
323.99167
 51
36.008324
  0
ARC
  8
0
  6
CONTINUOUS
 62
     7
 10
-147.55605
 20
-323.2655
 40
7.6823077
 50
323.99167
 51
355.52055
  0
ARC
  8
0
  6
CONTINUOUS
 62
     7
 10
-149.80374
 20
-323.2655
 40
0.75
 50
126.8699
 51
233.13009
  0
ARC
  8
0
  6
CONTINUOUS
 62
     7
 10
-144.70374
 20
-323.2655
 40
0.75
 50
306.8699
 51
53.130092
  0
ARC
  8
0
  6
CONTINUOUS
 62
     7
 10
-138.70374
 20
-323.2655
 40
0.75
 50
306.8699
 51
53.130092
  0
ARC
  8
0
  6
CONTINUOUS
 62
     7
 10
-140.95143
 20
-323.2655
 40
6.4823079
 50
185.31088
 51
216.00833
  0
ARC
  8
0
  6
CONTINUOUS
 62
     7
 10
-140.95143
 20
-323.2655
 40
7.6823077
 50
184.47945
 51
216.00833
  0
ARC
  8
0
  6
CONTINUOUS
 62
     7
 10
-147.55605
 20
-323.2655
 40
7.6823077
 50
4.4794541
 51
36.008327
  0
ARC
  8
0
  6
CONTINUOUS
 62
     7
 10
-77.203331
 20
-518.53369
 40
2.4000001
 50
36.008327
 51
143.99167
  0
ARC
  8
0
  6
CONTINUOUS
 62
     7
 10
-77.203331
 20
-518.53369
 40
3.5999999
 50
36.008327
 51
143.99167
  0
ARC
  8
0
  6
CONTINUOUS
 62
     7
 10
-77.203331
 20
-523.33368
 40
2.4000001
 50
216.00833
 51
323.99168
  0
ARC
  8
0
  6
CONTINUOUS
 62
     7
 10
-77.203331
 20
-523.33368
 40
3.5999999
 50
216.00833
 51
323.99168
  0
ARC
  8
0
  6
CONTINUOUS
 62
     7
 10
-73.901024
 20
-520.93372
 40
7.6823077
 50
143.99167
 51
175.52055
  0
ARC
  8
0
  6
CONTINUOUS
 62
     7
 10
-73.901024
 20
-520.93372
 40
6.4823079
 50
143.99167
 51
174.68912
  0
ARC
  8
0
  6
CONTINUOUS
 62
     7
 10
-80.505638
 20
-520.93372
 40
6.4823079
 50
323.99167
 51
36.008324
  0
ARC
  8
0
  6
CONTINUOUS
 62
     7
 10
-80.505638
 20
-520.93372
 40
7.6823077
 50
323.99167
 51
355.52055
  0
ARC
  8
0
  6
CONTINUOUS
 62
     7
 10
-82.753334
 20
-520.93372
 40
0.75
 50
126.8699
 51
233.13009
  0
ARC
  8
0
  6
CONTINUOUS
 62
     7
 10
-77.653328
 20
-520.93372
 40
0.75
 50
306.8699
 51
53.130092
  0
ARC
  8
0
  6
CONTINUOUS
 62
     7
 10
-71.653328
 20
-520.93372
 40
0.75
 50
306.8699
 51
53.130092
  0
ARC
  8
0
  6
CONTINUOUS
 62
     7
 10
-73.901024
 20
-520.93372
 40
6.4823079
 50
185.31088
 51
216.00833
  0
ARC
  8
0
  6
CONTINUOUS
 62
     7
 10
-73.901024
 20
-520.93372
 40
7.6823077
 50
184.47945
 51
216.00833
  0
ARC
  8
0
  6
CONTINUOUS
 62
     7
 10
-80.505638
 20
-520.93372
 40
7.6823077
 50
4.4794541
 51
36.008327
  0
ARC
  8
0
  6
CONTINUOUS
 62
     7
 10
104.44179
 20
-513.73517
 40
2.4000001
 50
36.008327
 51
143.99167
  0
ARC
  8
0
  6
CONTINUOUS
 62
     7
 10
104.44179
 20
-513.73517
 40
3.5999999
 50
36.008327
 51
143.99167
  0
ARC
  8
0
  6
CONTINUOUS
 62
     7
 10
104.44179
 20
-518.53516
 40
2.4000001
 50
216.00833
 51
323.99168
  0
ARC
  8
0
  6
CONTINUOUS
 62
     7
 10
104.44179
 20
-518.53516
 40
3.5999999
 50
216.00833
 51
323.99168
  0
ARC
  8
0
  6
CONTINUOUS
 62
     7
 10
107.74409
 20
-516.13513
 40
7.6823077
 50
143.99167
 51
175.52055
  0
ARC
  8
0
  6
CONTINUOUS
 62
     7
 10
107.74409
 20
-516.13513
 40
6.4823079
 50
143.99167
 51
174.68912
  0
ARC
  8
0
  6
CONTINUOUS
 62
     7
 10
101.13948
 20
-516.13513
 40
6.4823079
 50
323.99167
 51
36.008324
  0
ARC
  8
0
  6
CONTINUOUS
 62
     7
 10
101.13948
 20
-516.13513
 40
7.6823077
 50
323.99167
 51
355.52055
  0
ARC
  8
0
  6
CONTINUOUS
 62
     7
 10
98.891785
 20
-516.13513
 40
0.75
 50
126.8699
 51
233.13009
  0
ARC
  8
0
  6
CONTINUOUS
 62
     7
 10
103.99179
 20
-516.13513
 40
0.75
 50
306.8699
 51
53.130092
  0
ARC
  8
0
  6
CONTINUOUS
 62
     7
 10
109.99179
 20
-516.13513
 40
0.75
 50
306.8699
 51
53.130092
  0
ARC
  8
0
  6
CONTINUOUS
 62
     7
 10
107.74409
 20
-516.13513
 40
6.4823079
 50
185.31088
 51
216.00833
  0
ARC
  8
0
  6
CONTINUOUS
 62
     7
 10
107.74409
 20
-516.13513
 40
7.6823077
 50
184.47945
 51
216.00833
  0
ARC
  8
0
  6
CONTINUOUS
 62
     7
 10
101.13948
 20
-516.13513
 40
7.6823077
 50
4.4794541
 51
36.008327
  0
ARC
  8
0
  6
CONTINUOUS
 62
     7
 10
628.18427
 20
19.902876
 40
2.4000001
 50
306.00833
 51
53.991676
  0
ARC
  8
0
  6
CONTINUOUS
 62
     7
 10
628.18427
 20
19.902876
 40
3.5999999
 50
306.00833
 51
53.991676
  0
ARC
  8
0
  6
CONTINUOUS
 62
     7
 10
623.38428
 20
19.902876
 40
2.4000001
 50
126.00833
 51
233.99168
  0
ARC
  8
0
  6
CONTINUOUS
 62
     7
 10
623.38428
 20
19.902876
 40
3.5999999
 50
126.00833
 51
233.99168
  0
ARC
  8
0
  6
CONTINUOUS
 62
     7
 10
625.78424
 20
16.600569
 40
7.6823077
 50
53.991676
 51
85.520553
  0
ARC
  8
0
  6
CONTINUOUS
 62
     7
 10
625.78424
 20
16.600569
 40
6.4823079
 50
53.991676
 51
84.689121
  0
ARC
  8
0
  6
CONTINUOUS
 62
     7
 10
625.78424
 20
23.205183
 40
6.4823079
 50
233.99167
 51
306.00832
  0
ARC
  8
0
  6
CONTINUOUS
 62
     7
 10
625.78424
 20
23.205183
 40
7.6823077
 50
233.99167
 51
265.52055
  0
ARC
  8
0
  6
CONTINUOUS
 62
     7
 10
625.78424
 20
25.452879
 40
0.75
 50
36.869897
 51
143.1301
  0
ARC
  8
0
  6
CONTINUOUS
 62
     7
 10
625.78424
 20
20.352873
 40
0.75
 50
216.8699
 51
323.13009
  0
ARC
  8
0
  6
CONTINUOUS
 62
     7
 10
625.78424
 20
14.352874
 40
0.75
 50
216.8699
 51
323.13009
  0
ARC
  8
0
  6
CONTINUOUS
 62
     7
 10
625.78424
 20
16.600569
 40
6.4823079
 50
95.310878
 51
126.00833
  0
ARC
  8
0
  6
CONTINUOUS
 62
     7
 10
625.78424
 20
16.600569
 40
7.6823077
 50
94.479452
 51
126.00833
  0
ARC
  8
0
  6
CONTINUOUS
 62
     7
 10
625.78424
 20
23.205183
 40
7.6823077
 50
274.47945
 51
306.00833
  0
ARC
  8
0
  6
CONTINUOUS
 62
     7
 10
431.66489
 20
28.982546
 40
3
 50
306.00833
 51
53.991676
  0
ARC
  8
0
  6
CONTINUOUS
 62
     7
 10
431.66489
 20
28.982546
 40
4.5
 50
306.00833
 51
53.991676
  0
ARC
  8
0
  6
CONTINUOUS
 62
     7
 10
425.66489
 20
28.982546
 40
3
 50
126.00833
 51
233.99168
  0
ARC
  8
0
  6
CONTINUOUS
 62
     7
 10
425.66489
 20
28.982546
 40
4.5
 50
126.00833
 51
233.99168
  0
ARC
  8
0
  6
CONTINUOUS
 62
     7
 10
428.66489
 20
24.854662
 40
9.6028843
 50
53.991676
 51
85.520553
  0
ARC
  8
0
  6
CONTINUOUS
 62
     7
 10
428.66489
 20
24.854662
 40
8.1028843
 50
53.991676
 51
84.689121
  0
ARC
  8
0
  6
CONTINUOUS
 62
     7
 10
428.66489
 20
33.110428
 40
8.1028843
 50
233.99167
 51
306.00832
  0
ARC
  8
0
  6
CONTINUOUS
 62
     7
 10
428.66489
 20
33.110428
 40
9.6028843
 50
233.99167
 51
265.52055
  0
ARC
  8
0
  6
CONTINUOUS
 62
     7
 10
428.66489
 20
35.920044
 40
0.9375
 50
36.869897
 51
143.1301
  0
ARC
  8
0
  6
CONTINUOUS
 62
     7
 10
428.66489
 20
29.545046
 40
0.9375
 50
216.8699
 51
323.13009
  0
ARC
  8
0
  6
CONTINUOUS
 62
     7
 10
428.66489
 20
22.045046
 40
0.9375
 50
216.8699
 51
323.13009
  0
ARC
  8
0
  6
CONTINUOUS
 62
     7
 10
428.66489
 20
24.854662
 40
9.6028843
 50
94.479452
 51
126.00833
  0
ARC
  8
0
  6
CONTINUOUS
 62
     7
 10
428.66489
 20
24.854662
 40
8.1028843
 50
95.310878
 51
126.00833
  0
ARC
  8
0
  6
CONTINUOUS
 62
     7
 10
428.66489
 20
33.110428
 40
9.6028843
 50
274.47945
 51
306.00833
  0
ARC
  8
0
  6
CONTINUOUS
 62
     7
 10
440.31854
 20
-488.05185
 40
3
 50
306.00833
 51
53.991676
  0
ARC
  8
0
  6
CONTINUOUS
 62
     7
 10
440.31854
 20
-488.05185
 40
4.5
 50
306.00833
 51
53.991676
  0
ARC
  8
0
  6
CONTINUOUS
 62
     7
 10
434.31854
 20
-488.05185
 40
3
 50
126.00833
 51
233.99168
  0
ARC
  8
0
  6
CONTINUOUS
 62
     7
 10
434.31854
 20
-488.05185
 40
4.5
 50
126.00833
 51
233.99168
  0
ARC
  8
0
  6
CONTINUOUS
 62
     7
 10
437.31854
 20
-492.17975
 40
9.6028843
 50
53.991676
 51
85.520553
  0
ARC
  8
0
  6
CONTINUOUS
 62
     7
 10
437.31854
 20
-492.17975
 40
8.1028843
 50
53.991676
 51
84.689121
  0
ARC
  8
0
  6
CONTINUOUS
 62
     7
 10
437.31854
 20
-483.92398
 40
8.1028843
 50
233.99167
 51
306.00832
  0
ARC
  8
0
  6
CONTINUOUS
 62
     7
 10
437.31854
 20
-483.92398
 40
9.6028843
 50
233.99167
 51
265.52055
  0
ARC
  8
0
  6
CONTINUOUS
 62
     7
 10
437.31854
 20
-481.11435
 40
0.9375
 50
36.869897
 51
143.1301
  0
ARC
  8
0
  6
CONTINUOUS
 62
     7
 10
437.31854
 20
-487.48935
 40
0.9375
 50
216.8699
 51
323.13009
  0
ARC
  8
0
  6
CONTINUOUS
 62
     7
 10
437.31854
 20
-494.98935
 40
0.9375
 50
216.8699
 51
323.13009
  0
ARC
  8
0
  6
CONTINUOUS
 62
     7
 10
437.31854
 20
-492.17975
 40
9.6028843
 50
94.479452
 51
126.00833
  0
ARC
  8
0
  6
CONTINUOUS
 62
     7
 10
437.31854
 20
-492.17975
 40
8.1028843
 50
95.310878
 51
126.00833
  0
ARC
  8
0
  6
CONTINUOUS
 62
     7
 10
437.31854
 20
-483.92398
 40
9.6028843
 50
274.47945
 51
306.00833
  0
ARC
  8
0
  6
CONTINUOUS
 62
     7
 10
708.92126
 20
-511.51349
 40
3
 50
306.00833
 51
53.991676
  0
ARC
  8
0
  6
CONTINUOUS
 62
     7
 10
708.92126
 20
-511.51349
 40
4.5
 50
306.00833
 51
53.991676
  0
ARC
  8
0
  6
CONTINUOUS
 62
     7
 10
702.92126
 20
-511.51349
 40
3
 50
126.00833
 51
233.99168
  0
ARC
  8
0
  6
CONTINUOUS
 62
     7
 10
702.92126
 20
-511.51349
 40
4.5
 50
126.00833
 51
233.99168
  0
ARC
  8
0
  6
CONTINUOUS
 62
     7
 10
705.92126
 20
-515.64136
 40
9.6028843
 50
53.991676
 51
85.520553
  0
ARC
  8
0
  6
CONTINUOUS
 62
     7
 10
705.92126
 20
-515.64136
 40
8.1028843
 50
53.991676
 51
84.689121
  0
ARC
  8
0
  6
CONTINUOUS
 62
     7
 10
705.92126
 20
-507.38562
 40
8.1028843
 50
233.99167
 51
306.00832
  0
ARC
  8
0
  6
CONTINUOUS
 62
     7
 10
705.92126
 20
-507.38562
 40
9.6028843
 50
233.99167
 51
265.52055
  0
ARC
  8
0
  6
CONTINUOUS
 62
     7
 10
705.92126
 20
-504.57599
 40
0.9375
 50
36.869897
 51
143.1301
  0
ARC
  8
0
  6
CONTINUOUS
 62
     7
 10
705.92126
 20
-510.95099
 40
0.9375
 50
216.8699
 51
323.13009
  0
ARC
  8
0
  6
CONTINUOUS
 62
     7
 10
705.92126
 20
-518.45099
 40
0.9375
 50
216.8699
 51
323.13009
  0
ARC
  8
0
  6
CONTINUOUS
 62
     7
 10
705.92126
 20
-515.64136
 40
9.6028843
 50
94.479452
 51
126.00833
  0
ARC
  8
0
  6
CONTINUOUS
 62
     7
 10
705.92126
 20
-515.64136
 40
8.1028843
 50
95.310878
 51
126.00833
  0
ARC
  8
0
  6
CONTINUOUS
 62
     7
 10
705.92126
 20
-507.38562
 40
9.6028843
 50
274.47945
 51
306.00833
  0
TEXT
  8
0
  6
CONTINUOUS
 62
     7
 10
-242.28791
 20
154.74327
 40
10
 41
1.0071429
  1
3/4X1/2
  0
TEXT
  8
0
  6
CONTINUOUS
 62
     7
 10
-119.31035
 20
158.63904
 40
10
 41
1.0102042
  1
1X1/2
  0
TEXT
  8
0
  6
CONTINUOUS
 62
     7
 10
1.4587555
 20
159.61299
 40
10
 41
1.0102042
  1
1X3/4
  0
TEXT
  8
0
  6
CONTINUOUS
 62
     7
 10
121.83703
 20
159.61299
 40
10
 41
1.0062112
  1
11/4X3/4
  0
TEXT
  8
0
  6
CONTINUOUS
 62
     7
 10
-210.9914
 20
-26.410395
 40
10
 41
1.0084034
  1
11/4X1
  0
TEXT
  8
0
  6
CONTINUOUS
 62
     7
 10
-84.639187
 20
-25.436451
 40
10
 41
1.0062112
  1
11/2X3/4
  0
TEXT
  8
0
  6
CONTINUOUS
 62
     7
 10
71.452473
 20
-26.410395
 40
10
 41
1.0084034
  1
11/2X1
  0
TEXT
  8
0
  6
CONTINUOUS
 62
     7
 10
-251.31395
 20
-227.04294
 40
10
 41
1.0054945
  1
11/2X11/4
  0
TEXT
  8
0
  6
CONTINUOUS
 62
     7
 10
-64.769463
 20
-227.04294
 40
10
 41
1.0102042
  1
2X3/4
  0
TEXT
  8
0
  6
CONTINUOUS
 62
     7
 10
123.46237
 20
-232.88661
 40
10
 41
1.0178573
  1
2X1
  0
TEXT
  8
0
  6
CONTINUOUS
 62
     7
 10
-173.98151
 20
-433.51917
 40
10
 41
1.0084034
  1
2X11/4
  0
TEXT
  8
0
  6
CONTINUOUS
 62
     7
 10
6.1982002
 20
-419.88394
 40
10
 41
1.0084034
  1
2X11/2
  0
TEXT
  8
0
  6
CONTINUOUS
 62
     7
 10
-56.317045
 20
187.19052
 40
10
 41
0.8427416
  1
ＲＣＦ－ＭＫ－ＲＴ（径違いチーズ）
  0
TEXT
  8
0
  6
CONTINUOUS
 62
     7
 10
401.13264
 20
177.14398
 40
10
 41
1.0084034
  1
21/2X2
  0
TEXT
  8
0
  6
CONTINUOUS
 62
     7
 10
612.86943
 20
177.14398
 40
10
 41
1.0178573
  1
3X1
  0
TEXT
  8
0
  6
CONTINUOUS
 62
     7
 10
486.83976
 20
-16.670951
 40
10
 41
1.0084034
  1
3X11/2
  0
TEXT
  8
0
  6
CONTINUOUS
 62
     7
 10
717.08146
 20
-9.8533406
 40
10
 41
1.0178573
  1
3X2
  0
TEXT
  8
0
  6
CONTINUOUS
 62
     7
 10
408.92421
 20
-318.59372
 40
10
 41
1.0084034
  1
3X21/2
  0
TEXT
  8
0
  6
CONTINUOUS
 62
     7
 10
691.75889
 20
-304.9585
 40
10
 41
1.0178573
  1
4X3
  0
ENDSEC
  0
EOF
