  0
SECTION
  2
HEADER
  9
$EXTMAX
 10
419.77344
 20
297.87869
  9
$EXTMIN
 10
-422.15918
 20
-295.73526
  0
ENDSEC
  0
SECTION
  2
TABLES
  0
TABLE
  2
LTYPE
 70
    22
  0
LTYPE
  2
CONTINUOUS
 70
    64
  3
Solid line
 72
    65
 73
     0
 40
0.000000
  0
LTYPE
  2
DASHED
 70
    64
  3
__ __ __ __ __ __ __ __ __ __ __ __ __ __ __
 72
    65
 73
     2
 40
3.500000
 49
2.000000
 49
-1.500000
  0
LTYPE
  2
CENTER
 70
    64
  3
____ _ ____ _ ____ _ ____ _ ____ _ ____ _ ____
 72
    65
 73
     4
 40
17.500000
 49
13.000000
 49
-1.500000
 49
1.500000
 49
-1.500000
  0
LTYPE
  2
PHANTOM
 70
    64
  3
_____ _ _ _____ _ _ _____ _ _ _____ _ _ ____  
 72
    65
 73
     6
 40
15.500000
 49
8.000000
 49
-1.500000
 49
1.500000
 49
-1.500000
 49
1.500000
 49
-1.500000
  0
LTYPE
  2
DOT
 70
    64
  3
. . . . . . . . . . . . . . . . . . . . . . . .
 72
    65
 73
     2
 40
0.25
 49
0.0
 49
-0.25
  0
ENDTAB
  0
TABLE
  2
LAYER
 70
     1
  0
LAYER
  2
0
 70
     0
 62
     7
  6
CONTINUOUS
  0
ENDTAB
  0
TABLE
  2
STYLE
 70
     1
  0
STYLE
  2
STANDARD
 70
     0
 40
0.000000
 41
1.000000
 50
0.000000
 71
     0
 42
0.200000
  3
txt
  4
BIGFONT
  0
ENDTAB
  0
TABLE
  2
VIEW
 70
     0
  0
ENDTAB
  0
ENDSEC
  0
SECTION
  2
BLOCKS
  0
ENDSEC
  0
SECTION
  2
ENTITIES
  0
POINT
  8
0
  6
CONTINUOUS
 62
     3
 10
-420.5
 20
-297
  0
POINT
  8
0
  6
CONTINUOUS
 62
     3
 10
420.5
 20
-297
  0
POINT
  8
0
  6
CONTINUOUS
 62
     3
 10
-420.5
 20
297
  0
POINT
  8
0
  6
CONTINUOUS
 62
     3
 10
420.5
 20
297
  0
POINT
  8
0
  6
CONTINUOUS
 62
     7
 10
-309.26062
 20
152.6436
  0
POINT
  8
0
  6
CONTINUOUS
 62
     7
 10
-189.9343
 20
150.84715
  0
POINT
  8
0
  6
CONTINUOUS
 62
     7
 10
-55.20084
 20
149.0507
  0
POINT
  8
0
  6
CONTINUOUS
 62
     7
 10
74.393829
 20
148.55432
  0
POINT
  8
0
  6
CONTINUOUS
 62
     7
 10
227.94437
 20
146.85716
  0
POINT
  8
0
  6
CONTINUOUS
 62
     7
 10
-307.18628
 20
34.278305
  0
POINT
  8
0
  6
CONTINUOUS
 62
     7
 10
-161.7955
 20
32.581131
  0
POINT
  8
0
  6
CONTINUOUS
 62
     7
 10
-2.8273501
 20
33.146858
  0
POINT
  8
0
  6
CONTINUOUS
 62
     7
 10
157.27223
 20
30.318245
  0
POINT
  8
0
  6
CONTINUOUS
 62
     7
 10
307.75455
 20
30.318245
  0
POINT
  8
0
  6
CONTINUOUS
 62
     7
 10
471.20041
 20
-297
  0
POINT
  8
0
  6
CONTINUOUS
 62
     7
 10
1312.2004
 20
-297
  0
POINT
  8
0
  6
CONTINUOUS
 62
     7
 10
471.20041
 20
297
  0
POINT
  8
0
  6
CONTINUOUS
 62
     7
 10
1312.2004
 20
297
  0
POINT
  8
0
  6
CONTINUOUS
 62
     7
 10
215.74124
 20
-133.90833
  0
POINT
  8
0
  6
CONTINUOUS
 62
     7
 10
157.27223
 20
30.318245
  0
POINT
  8
0
  6
CONTINUOUS
 62
     7
 10
307.75455
 20
30.318245
  0
POINT
  8
0
  6
CONTINUOUS
 62
     7
 10
74.393829
 20
148.55432
  0
POINT
  8
0
  6
CONTINUOUS
 62
     7
 10
227.94437
 20
146.85716
  0
POINT
  8
0
  6
CONTINUOUS
 62
     7
 10
-307.18628
 20
34.278305
  0
POINT
  8
0
  6
CONTINUOUS
 62
     7
 10
-161.7955
 20
32.581131
  0
POINT
  8
0
  6
CONTINUOUS
 62
     7
 10
-2.8273501
 20
33.146858
  0
POINT
  8
0
  6
CONTINUOUS
 62
     7
 10
-309.26062
 20
152.6436
  0
POINT
  8
0
  6
CONTINUOUS
 62
     7
 10
-189.9343
 20
150.84715
  0
POINT
  8
0
  6
CONTINUOUS
 62
     7
 10
-55.20084
 20
149.0507
  0
POINT
  8
0
  6
CONTINUOUS
 62
     7
 10
-152.80264
 20
-130.30899
  0
POINT
  8
0
  6
CONTINUOUS
 62
     7
 10
21.025724
 20
-130.30899
  0
POINT
  8
0
  6
CONTINUOUS
 62
     7
 10
215.74124
 20
-133.90833
  0
POINT
  8
0
  6
CONTINUOUS
 62
     7
 10
-14.200843
 20
149.0507
  0
POINT
  8
0
  6
CONTINUOUS
 62
     7
 10
-102.20084
 20
149.0507
  0
POINT
  8
0
  6
CONTINUOUS
 62
     7
 10
-339.23352
 20
152.67159
  0
POINT
  8
0
  6
CONTINUOUS
 62
     7
 10
-225.50456
 20
150.91563
  0
POINT
  8
0
  6
CONTINUOUS
 62
     7
 10
-89.563599
 20
149.117
  0
POINT
  8
0
  6
CONTINUOUS
 62
     7
 10
34.938046
 20
148.68533
  0
POINT
  8
0
  6
CONTINUOUS
 62
     7
 10
189.11719
 20
146.7428
  0
POINT
  8
0
  6
CONTINUOUS
 62
     7
 10
-348.76727
 20
34.25209
  0
POINT
  8
0
  6
CONTINUOUS
 62
     7
 10
-203.18478
 20
32.586143
  0
POINT
  8
0
  6
CONTINUOUS
 62
     7
 10
-44.005993
 20
33.069805
  0
POINT
  8
0
  6
CONTINUOUS
 62
     7
 10
113.34563
 20
30.221569
  0
POINT
  8
0
  6
CONTINUOUS
 62
     7
 10
263.87494
 20
30.318312
  0
POINT
  8
0
  6
CONTINUOUS
 62
     7
 10
-357.58466
 20
-129.52582
  0
POINT
  8
0
  6
CONTINUOUS
 62
     7
 10
-308.41013
 20
-129.59949
  0
POINT
  8
0
  6
CONTINUOUS
 62
     7
 10
-207.51372
 20
-130.30022
  0
POINT
  8
0
  6
CONTINUOUS
 62
     7
 10
-33.617004
 20
-130.23198
  0
LINE
  8
0
  6
CONTINUOUS
 62
     3
 10
410.5
 20
287
 11
410.5
 21
-287
  0
LINE
  8
0
  6
CONTINUOUS
 62
     3
 10
-410.5
 20
287
 11
410.5
 21
287
  0
LINE
  8
0
  6
CONTINUOUS
 62
     3
 10
-410.5
 20
287
 11
-410.5
 21
-287
  0
LINE
  8
0
  6
CONTINUOUS
 62
     3
 10
-410.5
 20
-287
 11
410.5
 21
-287
  0
LINE
  8
0
  6
CENTER
 62
     7
 10
-262.08075
 20
152.6436
 11
-358.25571
 21
152.6436
  0
LINE
  8
0
  6
CENTER
 62
     7
 10
-142.42123
 20
150.84715
 11
-242.51027
 21
150.84715
  0
LINE
  8
0
  6
CENTER
 62
     7
 10
-5.427856
 20
149.0507
 11
-112.78593
 21
149.0507
  0
LINE
  8
0
  6
CENTER
 62
     7
 10
127.09227
 20
148.55432
 11
18.615879
 21
148.55432
  0
LINE
  8
0
  6
CENTER
 62
     7
 10
282.78479
 20
146.85716
 11
170.98676
 21
146.85716
  0
LINE
  8
0
  6
CENTER
 62
     7
 10
-252.57509
 20
34.278305
 11
-366.64304
 21
34.278305
  0
LINE
  8
0
  6
CENTER
 62
     7
 10
-102.16196
 20
32.581131
 11
-219.58485
 21
32.581131
  0
LINE
  8
0
  6
CENTER
 62
     7
 10
58.875156
 20
33.146858
 11
-60.784363
 21
33.146858
  0
LINE
  8
0
  6
CENTER
 62
     7
 10
221.86932
 20
30.318245
 11
94.102028
 21
30.318245
  0
LINE
  8
0
  6
CENTER
 62
     7
 10
370.04584
 20
30.318245
 11
246.47221
 21
30.318245
  0
LINE
  8
0
  6
CONTINUOUS
 62
     3
 10
1302.2004
 20
287
 11
1302.2004
 21
-287
  0
LINE
  8
0
  6
CONTINUOUS
 62
     3
 10
481.20041
 20
287
 11
1302.2004
 21
287
  0
LINE
  8
0
  6
CONTINUOUS
 62
     3
 10
481.20041
 20
287
 11
481.20041
 21
-287
  0
LINE
  8
0
  6
CONTINUOUS
 62
     3
 10
481.20041
 20
-287
 11
1302.2004
 21
-287
  0
LINE
  8
0
  6
CENTER
 62
     7
 10
-240.55322
 20
-129.59949
 11
-377.5466
 21
-129.59949
  0
LINE
  8
0
  6
CENTER
 62
     7
 10
-81.193581
 20
-130.30899
 11
-228.25177
 21
-130.30899
  0
LINE
  8
0
  6
CENTER
 62
     7
 10
96.338654
 20
-130.30899
 11
-53.235748
 21
-130.30899
  0
LINE
  8
0
  6
CENTER
 62
     7
 10
296.7963
 20
-133.90833
 11
132.68384
 21
-133.90833
  0
LINE
  8
0
  6
CONTINUOUS
 62
     7
 10
-336.32288
 20
152.29842
 11
-337.14462
 21
152.29842
  0
LINE
  8
0
  6
CONTINUOUS
 62
     7
 10
-336.32288
 20
152.89842
 11
-337.14462
 21
152.89842
  0
LINE
  8
0
  6
CONTINUOUS
 62
     7
 10
-341.50116
 20
152.89842
 11
-342.32288
 21
152.89842
  0
LINE
  8
0
  6
CONTINUOUS
 62
     7
 10
-341.50116
 20
152.29842
 11
-342.32288
 21
152.29842
  0
LINE
  8
0
  6
CONTINUOUS
 62
     7
 10
-337.7468
 20
152.89842
 11
-339.32288
 21
152.89842
  0
LINE
  8
0
  6
CONTINUOUS
 62
     7
 10
-337.7468
 20
152.29842
 11
-339.32288
 21
152.29842
  0
LINE
  8
0
  6
CONTINUOUS
 62
     7
 10
-221.16162
 20
150.41318
 11
-222.39423
 21
150.41318
  0
LINE
  8
0
  6
CONTINUOUS
 62
     7
 10
-221.16162
 20
151.31317
 11
-222.39423
 21
151.31317
  0
LINE
  8
0
  6
CONTINUOUS
 62
     7
 10
-228.92902
 20
151.31317
 11
-230.16162
 21
151.31317
  0
LINE
  8
0
  6
CONTINUOUS
 62
     7
 10
-228.92902
 20
150.41318
 11
-230.16162
 21
150.41318
  0
LINE
  8
0
  6
CONTINUOUS
 62
     7
 10
-223.29749
 20
151.31317
 11
-225.66162
 21
151.31317
  0
LINE
  8
0
  6
CONTINUOUS
 62
     7
 10
-223.29749
 20
150.41318
 11
-225.66162
 21
150.41318
  0
LINE
  8
0
  6
CONTINUOUS
 62
     7
 10
-85.3461
 20
148.65572
 11
-86.578705
 21
148.65572
  0
LINE
  8
0
  6
CONTINUOUS
 62
     7
 10
-85.3461
 20
149.55574
 11
-86.578705
 21
149.55574
  0
LINE
  8
0
  6
CONTINUOUS
 62
     7
 10
-93.113495
 20
149.55574
 11
-94.3461
 21
149.55574
  0
LINE
  8
0
  6
CONTINUOUS
 62
     7
 10
-93.113495
 20
148.65572
 11
-94.3461
 21
148.65572
  0
LINE
  8
0
  6
CONTINUOUS
 62
     7
 10
-87.481964
 20
149.55574
 11
-89.8461
 21
149.55574
  0
LINE
  8
0
  6
CONTINUOUS
 62
     7
 10
-87.481964
 20
148.65572
 11
-89.8461
 21
148.65572
  0
LINE
  8
0
  6
CONTINUOUS
 62
     7
 10
39.212002
 20
148.13889
 11
37.979412
 21
148.13889
  0
LINE
  8
0
  6
CONTINUOUS
 62
     7
 10
39.212002
 20
149.03891
 11
37.979412
 21
149.03891
  0
LINE
  8
0
  6
CONTINUOUS
 62
     7
 10
31.444607
 20
149.03891
 11
30.212002
 21
149.03891
  0
LINE
  8
0
  6
CONTINUOUS
 62
     7
 10
31.444607
 20
148.13889
 11
30.212002
 21
148.13889
  0
LINE
  8
0
  6
CONTINUOUS
 62
     7
 10
37.076138
 20
149.03891
 11
34.712002
 21
149.03891
  0
LINE
  8
0
  6
CONTINUOUS
 62
     7
 10
37.076138
 20
148.13889
 11
34.712002
 21
148.13889
  0
LINE
  8
0
  6
CONTINUOUS
 62
     7
 10
193.32303
 20
146.29099
 11
192.09044
 21
146.29099
  0
LINE
  8
0
  6
CONTINUOUS
 62
     7
 10
193.32303
 20
147.19101
 11
192.09044
 21
147.19101
  0
LINE
  8
0
  6
CONTINUOUS
 62
     7
 10
185.55563
 20
147.19101
 11
184.32303
 21
147.19101
  0
LINE
  8
0
  6
CONTINUOUS
 62
     7
 10
185.55563
 20
146.29099
 11
184.32303
 21
146.29099
  0
LINE
  8
0
  6
CONTINUOUS
 62
     7
 10
191.18716
 20
147.19101
 11
188.82303
 21
147.19101
  0
LINE
  8
0
  6
CONTINUOUS
 62
     7
 10
191.18716
 20
146.29099
 11
188.82303
 21
146.29099
  0
LINE
  8
0
  6
CONTINUOUS
 62
     7
 10
-344.71109
 20
33.76091
 11
-345.9437
 21
33.76091
  0
LINE
  8
0
  6
CONTINUOUS
 62
     7
 10
-344.71109
 20
34.660904
 11
-345.9437
 21
34.660904
  0
LINE
  8
0
  6
CONTINUOUS
 62
     7
 10
-352.47849
 20
34.660904
 11
-353.71109
 21
34.660904
  0
LINE
  8
0
  6
CONTINUOUS
 62
     7
 10
-352.47849
 20
33.76091
 11
-353.71109
 21
33.76091
  0
LINE
  8
0
  6
CONTINUOUS
 62
     7
 10
-346.84695
 20
34.660904
 11
-349.21109
 21
34.660904
  0
LINE
  8
0
  6
CONTINUOUS
 62
     7
 10
-346.84695
 20
33.76091
 11
-349.21109
 21
33.76091
  0
LINE
  8
0
  6
CONTINUOUS
 62
     7
 10
-198.90097
 20
32.141922
 11
-200.13356
 21
32.141922
  0
LINE
  8
0
  6
CONTINUOUS
 62
     7
 10
-198.90097
 20
33.041931
 11
-200.13356
 21
33.041931
  0
LINE
  8
0
  6
CONTINUOUS
 62
     7
 10
-206.66837
 20
33.041931
 11
-207.90097
 21
33.041931
  0
LINE
  8
0
  6
CONTINUOUS
 62
     7
 10
-206.66837
 20
32.141922
 11
-207.90097
 21
32.141922
  0
LINE
  8
0
  6
CONTINUOUS
 62
     7
 10
-201.03683
 20
33.041931
 11
-203.40097
 21
33.041931
  0
LINE
  8
0
  6
CONTINUOUS
 62
     7
 10
-201.03683
 20
32.141922
 11
-203.40097
 21
32.141922
  0
LINE
  8
0
  6
CONTINUOUS
 62
     7
 10
-39.716915
 20
32.628902
 11
-40.949512
 21
32.628902
  0
LINE
  8
0
  6
CONTINUOUS
 62
     7
 10
-39.716915
 20
33.528896
 11
-40.949512
 21
33.528896
  0
LINE
  8
0
  6
CONTINUOUS
 62
     7
 10
-47.484318
 20
33.528896
 11
-48.716915
 21
33.528896
  0
LINE
  8
0
  6
CONTINUOUS
 62
     7
 10
-47.484318
 20
32.628902
 11
-48.716915
 21
32.628902
  0
LINE
  8
0
  6
CONTINUOUS
 62
     7
 10
-41.852787
 20
33.528896
 11
-44.216915
 21
33.528896
  0
LINE
  8
0
  6
CONTINUOUS
 62
     7
 10
-41.852787
 20
32.628902
 11
-44.216915
 21
32.628902
  0
LINE
  8
0
  6
CONTINUOUS
 62
     7
 10
119.15267
 20
29.593487
 11
117.5092
 21
29.593487
  0
LINE
  8
0
  6
CONTINUOUS
 62
     7
 10
119.15267
 20
30.793499
 11
117.5092
 21
30.793499
  0
LINE
  8
0
  6
CONTINUOUS
 62
     7
 10
108.79613
 20
30.793499
 11
107.15267
 21
30.793499
  0
LINE
  8
0
  6
CONTINUOUS
 62
     7
 10
108.79613
 20
29.593487
 11
107.15267
 21
29.593487
  0
LINE
  8
0
  6
CONTINUOUS
 62
     7
 10
116.30484
 20
30.793499
 11
113.15267
 21
30.793499
  0
LINE
  8
0
  6
CONTINUOUS
 62
     7
 10
116.30484
 20
29.593487
 11
113.15267
 21
29.593487
  0
LINE
  8
0
  6
CONTINUOUS
 62
     7
 10
269.66351
 20
29.719255
 11
268.02005
 21
29.719255
  0
LINE
  8
0
  6
CONTINUOUS
 62
     7
 10
269.66351
 20
30.919268
 11
268.02005
 21
30.919268
  0
LINE
  8
0
  6
CONTINUOUS
 62
     7
 10
259.30698
 20
30.919268
 11
257.66351
 21
30.919268
  0
LINE
  8
0
  6
CONTINUOUS
 62
     7
 10
259.30698
 20
29.719255
 11
257.66351
 21
29.719255
  0
LINE
  8
0
  6
CONTINUOUS
 62
     7
 10
266.8157
 20
30.919268
 11
263.66351
 21
30.919268
  0
LINE
  8
0
  6
CONTINUOUS
 62
     7
 10
266.8157
 20
29.719255
 11
263.66351
 21
29.719255
  0
LINE
  8
0
  6
CONTINUOUS
 62
     7
 10
-350.25745
 20
-130.396
 11
-352.3118
 21
-130.396
  0
LINE
  8
0
  6
CONTINUOUS
 62
     7
 10
-350.25745
 20
-128.896
 11
-352.3118
 21
-128.896
  0
LINE
  8
0
  6
CONTINUOUS
 62
     7
 10
-363.20313
 20
-128.896
 11
-365.25745
 21
-128.896
  0
LINE
  8
0
  6
CONTINUOUS
 62
     7
 10
-363.20313
 20
-130.396
 11
-365.25745
 21
-130.396
  0
LINE
  8
0
  6
CONTINUOUS
 62
     7
 10
-353.81723
 20
-128.896
 11
-357.75745
 21
-128.896
  0
LINE
  8
0
  6
CONTINUOUS
 62
     7
 10
-353.81723
 20
-130.396
 11
-357.75745
 21
-130.396
  0
LINE
  8
0
  6
CONTINUOUS
 62
     7
 10
-198.50873
 20
-131.16238
 11
-200.97392
 21
-131.16238
  0
LINE
  8
0
  6
CONTINUOUS
 62
     7
 10
-198.50873
 20
-129.3624
 11
-200.97392
 21
-129.3624
  0
LINE
  8
0
  6
CONTINUOUS
 62
     7
 10
-214.04353
 20
-129.3624
 11
-216.50873
 21
-129.3624
  0
LINE
  8
0
  6
CONTINUOUS
 62
     7
 10
-214.04353
 20
-131.16238
 11
-216.50873
 21
-131.16238
  0
LINE
  8
0
  6
CONTINUOUS
 62
     7
 10
-202.78047
 20
-129.3624
 11
-207.50873
 21
-129.3624
  0
LINE
  8
0
  6
CONTINUOUS
 62
     7
 10
-202.78047
 20
-131.16238
 11
-207.50873
 21
-131.16238
  0
LINE
  8
0
  6
CONTINUOUS
 62
     7
 10
-25.002129
 20
-131.22925
 11
-27.467323
 21
-131.22925
  0
LINE
  8
0
  6
CONTINUOUS
 62
     7
 10
-25.002129
 20
-129.42926
 11
-27.467323
 21
-129.42926
  0
LINE
  8
0
  6
CONTINUOUS
 62
     7
 10
-40.536942
 20
-129.42926
 11
-43.002136
 21
-129.42926
  0
LINE
  8
0
  6
CONTINUOUS
 62
     7
 10
-40.536942
 20
-131.22925
 11
-43.002136
 21
-131.22925
  0
LINE
  8
0
  6
CONTINUOUS
 62
     7
 10
-29.273872
 20
-129.42926
 11
-34.002136
 21
-129.42926
  0
LINE
  8
0
  6
CONTINUOUS
 62
     7
 10
-29.273872
 20
-131.22925
 11
-34.002136
 21
-131.22925
  0
LINE
  8
0
  6
CONTINUOUS
 62
     7
 10
162.37628
 20
-134.81326
 11
159.91107
 21
-134.81326
  0
LINE
  8
0
  6
CONTINUOUS
 62
     7
 10
162.37628
 20
-133.01321
 11
159.91107
 21
-133.01321
  0
LINE
  8
0
  6
CONTINUOUS
 62
     7
 10
146.84146
 20
-133.01321
 11
144.37628
 21
-133.01321
  0
LINE
  8
0
  6
CONTINUOUS
 62
     7
 10
146.84146
 20
-134.81326
 11
144.37628
 21
-134.81326
  0
LINE
  8
0
  6
CONTINUOUS
 62
     7
 10
158.10452
 20
-133.01321
 11
153.37628
 21
-133.01321
  0
LINE
  8
0
  6
CONTINUOUS
 62
     7
 10
158.10452
 20
-134.81326
 11
153.37628
 21
-134.81326
  0
LINE
  8
0
  6
CONTINUOUS
 62
     7
 10
-270.26062
 20
169.1436
 11
-270.26062
 21
136.1436
  0
LINE
  8
0
  6
CONTINUOUS
 62
     7
 10
-286.84644
 20
169.1436
 11
-270.26062
 21
169.1436
  0
LINE
  8
0
  6
CONTINUOUS
 62
     7
 10
-287.26062
 20
168.46407
 11
-287.26062
 21
137.01634
  0
LINE
  8
0
  6
CONTINUOUS
 62
     7
 10
-287.9678
 20
169.85075
 11
-287.55356
 21
169.43651
  0
LINE
  8
0
  6
CONTINUOUS
 62
     7
 10
-303.58356
 20
170.1436
 11
-288.67487
 21
170.1436
  0
LINE
  8
0
  6
CONTINUOUS
 62
     7
 10
-288.26062
 20
169.38225
 11
-288.26062
 21
136.09816
  0
LINE
  8
0
  6
CONTINUOUS
 62
     7
 10
-303.58356
 20
135.1436
 11
-288.67487
 21
135.1436
  0
LINE
  8
0
  6
CONTINUOUS
 62
     7
 10
-287.9678
 20
135.43652
 11
-287.55356
 21
135.85074
  0
LINE
  8
0
  6
CONTINUOUS
 62
     7
 10
-286.84644
 20
136.1436
 11
-270.26062
 21
136.1436
  0
LINE
  8
0
  6
CONTINUOUS
 62
     7
 10
-348.26062
 20
133.1436
 11
-348.26062
 21
172.1436
  0
LINE
  8
0
  6
CONTINUOUS
 62
     7
 10
-331.67487
 20
133.1436
 11
-348.26062
 21
133.1436
  0
LINE
  8
0
  6
CONTINUOUS
 62
     7
 10
-314.26062
 20
132.1436
 11
-329.84644
 21
132.1436
  0
LINE
  8
0
  6
CONTINUOUS
 62
     7
 10
-331.26062
 20
134.15997
 11
-331.26062
 21
171.37558
  0
LINE
  8
0
  6
CONTINUOUS
 62
     7
 10
-330.55353
 20
132.43649
 11
-330.96777
 21
132.85072
  0
LINE
  8
0
  6
CONTINUOUS
 62
     7
 10
-330.26062
 20
133.12793
 11
-330.26062
 21
172.28912
  0
LINE
  8
0
  6
CONTINUOUS
 62
     7
 10
-314.26062
 20
173.1436
 11
-329.84644
 21
173.1436
  0
LINE
  8
0
  6
CONTINUOUS
 62
     7
 10
-330.55356
 20
172.85071
 11
-330.96777
 21
172.43649
  0
LINE
  8
0
  6
CONTINUOUS
 62
     7
 10
-331.67487
 20
172.1436
 11
-348.26062
 21
172.1436
  0
LINE
  8
0
  6
CONTINUOUS
 62
     7
 10
24.393829
 20
120.55433
 11
24.393829
 21
176.55432
  0
LINE
  8
0
  6
CONTINUOUS
 62
     7
 10
44.979584
 20
120.55433
 11
24.393829
 21
120.55433
  0
LINE
  8
0
  6
CONTINUOUS
 62
     7
 10
68.839844
 20
118.55433
 11
47.808014
 21
118.55433
  0
LINE
  8
0
  6
CONTINUOUS
 62
     7
 10
45.393829
 20
122.82655
 11
45.393829
 21
175.54709
  0
LINE
  8
0
  6
CONTINUOUS
 62
     7
 10
47.100876
 20
118.84722
 11
45.686665
 21
120.26144
  0
LINE
  8
0
  6
CONTINUOUS
 62
     7
 10
47.393829
 20
120.67509
 11
47.393829
 21
176.83638
  0
LINE
  8
0
  6
CONTINUOUS
 62
     7
 10
68.839844
 20
178.55432
 11
47.808014
 21
178.55432
  0
LINE
  8
0
  6
CONTINUOUS
 62
     7
 10
47.10088
 20
178.26144
 11
45.686665
 21
176.84723
  0
LINE
  8
0
  6
CONTINUOUS
 62
     7
 10
44.979584
 20
176.55432
 11
24.393829
 21
176.55432
  0
LINE
  8
0
  6
CONTINUOUS
 62
     7
 10
-368.91013
 20
-175.84952
 11
-368.91013
 21
-83.34951
  0
LINE
  8
0
  6
CONTINUOUS
 62
     7
 10
-347.77615
 20
-175.84952
 11
-368.91013
 21
-175.84952
  0
LINE
  8
0
  6
CONTINUOUS
 62
     7
 10
-346.91013
 20
-174.39838
 11
-346.91013
 21
-84.814537
  0
LINE
  8
0
  6
CONTINUOUS
 62
     7
 10
-322.50034
 20
-181.09952
 11
-343.01303
 21
-181.09952
  0
LINE
  8
0
  6
CONTINUOUS
 62
     7
 10
-347.53146
 20
-83.34951
 11
-368.91013
 21
-83.34951
  0
LINE
  8
0
  6
CONTINUOUS
 62
     7
 10
-344.31207
 20
-180.3495
 11
-346.47714
 21
-176.5995
  0
LINE
  8
0
  6
CONTINUOUS
 62
     7
 10
-343.87906
 20
-179.27231
 11
-343.87906
 21
-79.610558
  0
LINE
  8
0
  6
CONTINUOUS
 62
     7
 10
-321.87906
 20
-78.09951
 11
-343.01303
 21
-78.09951
  0
LINE
  8
0
  6
CONTINUOUS
 62
     7
 10
-344.3121
 20
-78.849564
 11
-346.47717
 21
-82.599571
  0
LINE
  8
0
  6
CONTINUOUS
 62
     7
 10
-321.87906
 20
-179.27231
 11
-321.87906
 21
-79.610558
  0
LINE
  8
0
  6
CONTINUOUS
 62
     7
 10
-314.91013
 20
-178.59952
 11
-318.75772
 21
-178.59952
  0
LINE
  8
0
  6
CONTINUOUS
 62
     7
 10
-321.43967
 20
-180.66013
 11
-319.81836
 21
-179.0388
  0
LINE
  8
0
  6
CONTINUOUS
 62
     7
 10
-319.37906
 20
-177.73636
 11
-319.37906
 21
-81.572411
  0
LINE
  8
0
  6
CONTINUOUS
 62
     7
 10
-314.91013
 20
-80.59951
 11
-318.75772
 21
-80.59951
  0
LINE
  8
0
  6
CONTINUOUS
 62
     7
 10
-321.43967
 20
-78.538788
 11
-319.81836
 21
-80.160118
  0
LINE
  8
0
  6
CONTINUOUS
 62
     7
 10
-23.840305
 20
-182.80896
 11
-44.974277
 21
-182.80896
  0
LINE
  8
0
  6
CONTINUOUS
 62
     7
 10
2.5798616
 20
-188.30896
 11
-18.932835
 21
-188.30896
  0
LINE
  8
0
  6
CONTINUOUS
 62
     7
 10
-44.974277
 20
-182.80896
 11
-44.974277
 21
-77.808983
  0
LINE
  8
0
  6
CONTINUOUS
 62
     7
 10
-22.974277
 20
-180.52466
 11
-22.974277
 21
-79.80471
  0
LINE
  8
0
  6
CONTINUOUS
 62
     7
 10
-20.231817
 20
-187.5589
 11
-22.541204
 21
-183.55893
  0
LINE
  8
0
  6
CONTINUOUS
 62
     7
 10
-19.798801
 20
-185.73071
 11
-19.798801
 21
-74.436241
  0
LINE
  8
0
  6
CONTINUOUS
 62
     7
 10
-23.840305
 20
-77.808983
 11
-44.974277
 21
-77.808983
  0
LINE
  8
0
  6
CONTINUOUS
 62
     7
 10
3.2011385
 20
-72.308983
 11
-18.932835
 21
-72.308983
  0
LINE
  8
0
  6
CONTINUOUS
 62
     7
 10
-20.231882
 20
-73.058968
 11
-22.541269
 21
-77.058945
  0
LINE
  8
0
  6
CONTINUOUS
 62
     7
 10
3.2011995
 20
-185.73071
 11
3.2011995
 21
-74.436241
  0
LINE
  8
0
  6
CONTINUOUS
 62
     7
 10
3.6405168
 20
-187.86958
 11
5.261847
 21
-186.24826
  0
LINE
  8
0
  6
CONTINUOUS
 62
     7
 10
11.025723
 20
-185.80896
 11
6.3224764
 21
-185.80896
  0
LINE
  8
0
  6
CONTINUOUS
 62
     7
 10
5.7011995
 20
-184.17932
 11
5.7011995
 21
-81.343346
  0
LINE
  8
0
  6
CONTINUOUS
 62
     7
 10
11.025723
 20
-74.808922
 11
6.3224764
 21
-74.808922
  0
LINE
  8
0
  6
CONTINUOUS
 62
     7
 10
3.6405032
 20
-72.748238
 11
5.2618337
 21
-74.369568
  0
LINE
  8
0
  6
CONTINUOUS
 62
     7
 10
143.24124
 20
-199.40834
 11
143.24124
 21
-68.408333
  0
LINE
  8
0
  6
CONTINUOUS
 62
     7
 10
163.37521
 20
-199.40834
 11
143.24124
 21
-199.40834
  0
LINE
  8
0
  6
CONTINUOUS
 62
     7
 10
192.37265
 20
-205.90834
 11
168.86002
 21
-205.90834
  0
LINE
  8
0
  6
CONTINUOUS
 62
     7
 10
164.24124
 20
-197.55867
 11
164.24124
 21
-69.984505
  0
LINE
  8
0
  6
CONTINUOUS
 62
     7
 10
167.561
 20
-205.15833
 11
164.67426
 21
-200.15834
  0
LINE
  8
0
  6
CONTINUOUS
 62
     7
 10
167.99399
 20
-202.41554
 11
167.99399
 21
-64.803841
  0
LINE
  8
0
  6
CONTINUOUS
 62
     7
 10
192.37265
 20
-61.908329
 11
168.86002
 21
-61.908329
  0
LINE
  8
0
  6
CONTINUOUS
 62
     7
 10
167.56099
 20
-62.658344
 11
164.67424
 21
-67.65834
  0
LINE
  8
0
  6
CONTINUOUS
 62
     7
 10
163.37521
 20
-68.408333
 11
143.24124
 21
-68.408333
  0
LINE
  8
0
  6
CONTINUOUS
 62
     7
 10
202.24124
 20
-203.40834
 11
196.11533
 21
-203.40834
  0
LINE
  8
0
  6
CONTINUOUS
 62
     7
 10
192.99399
 20
-202.41554
 11
192.99399
 21
-64.803841
  0
LINE
  8
0
  6
CONTINUOUS
 62
     7
 10
193.43336
 20
-205.46895
 11
195.05469
 21
-203.84763
  0
LINE
  8
0
  6
CONTINUOUS
 62
     7
 10
195.49399
 20
-200.77638
 11
195.49399
 21
-65.703682
  0
LINE
  8
0
  6
CONTINUOUS
 62
     7
 10
202.24124
 20
-64.408333
 11
196.11533
 21
-64.408333
  0
LINE
  8
0
  6
CONTINUOUS
 62
     7
 10
193.4334
 20
-62.347614
 11
195.05472
 21
-63.968945
  0
LINE
  8
0
  6
CONTINUOUS
 62
     7
 10
252.75452
 20
-6.6817589
 11
252.75452
 21
67.318245
  0
LINE
  8
0
  6
CONTINUOUS
 62
     7
 10
273.34027
 20
-6.6817589
 11
252.75452
 21
-6.6817589
  0
LINE
  8
0
  6
CONTINUOUS
 62
     7
 10
299.75452
 20
-9.1817589
 11
276.6687
 21
-9.1817589
  0
LINE
  8
0
  6
CONTINUOUS
 62
     7
 10
273.75452
 20
-4.4664574
 11
273.75452
 21
65.445381
  0
LINE
  8
0
  6
CONTINUOUS
 62
     7
 10
275.96155
 20
-8.8889198
 11
274.04733
 21
-6.9746952
  0
LINE
  8
0
  6
CONTINUOUS
 62
     7
 10
276.25452
 20
-6.3967247
 11
276.25452
 21
67.827431
  0
LINE
  8
0
  6
CONTINUOUS
 62
     7
 10
299.75452
 20
69.818245
 11
276.6687
 21
69.818245
  0
LINE
  8
0
  6
CONTINUOUS
 62
     7
 10
275.96161
 20
69.525345
 11
274.04736
 21
67.611099
  0
LINE
  8
0
  6
CONTINUOUS
 62
     7
 10
273.34027
 20
67.318245
 11
252.75452
 21
67.318245
  0
LINE
  8
0
  6
CONTINUOUS
 62
     7
 10
-236.9343
 20
127.84716
 11
-236.9343
 21
173.84715
  0
LINE
  8
0
  6
CONTINUOUS
 62
     7
 10
-215.34854
 20
127.84716
 11
-236.9343
 21
127.84716
  0
LINE
  8
0
  6
CONTINUOUS
 62
     7
 10
-194.16306
 20
126.34716
 11
-213.02011
 21
126.34716
  0
LINE
  8
0
  6
CONTINUOUS
 62
     7
 10
-214.9343
 20
129.51874
 11
-214.9343
 21
172.29836
  0
LINE
  8
0
  6
CONTINUOUS
 62
     7
 10
-213.7272
 20
126.64004
 11
-214.64142
 21
127.55426
  0
LINE
  8
0
  6
CONTINUOUS
 62
     7
 10
-213.4343
 20
128.17406
 11
-213.4343
 21
173.73512
  0
LINE
  8
0
  6
CONTINUOUS
 62
     7
 10
-194.16306
 20
175.34715
 11
-213.02011
 21
175.34715
  0
LINE
  8
0
  6
CONTINUOUS
 62
     7
 10
-215.34854
 20
173.84715
 11
-236.9343
 21
173.84715
  0
LINE
  8
0
  6
CONTINUOUS
 62
     7
 10
-213.72723
 20
175.05426
 11
-214.64145
 21
174.14005
  0
LINE
  8
0
  6
CONTINUOUS
 62
     7
 10
-359.18628
 20
3.2783051
 11
-359.18628
 21
65.278305
  0
LINE
  8
0
  6
CONTINUOUS
 62
     7
 10
-338.60052
 20
3.2783051
 11
-359.18628
 21
3.2783051
  0
LINE
  8
0
  6
CONTINUOUS
 62
     7
 10
-314.18628
 20
1.5283012
 11
-336.02209
 21
1.5283012
  0
LINE
  8
0
  6
CONTINUOUS
 62
     7
 10
-338.18628
 20
5.3005066
 11
-338.18628
 21
63.264008
  0
LINE
  8
0
  6
CONTINUOUS
 62
     7
 10
-336.72922
 20
1.8211646
 11
-337.89346
 21
2.9853833
  0
LINE
  8
0
  6
CONTINUOUS
 62
     7
 10
-314.18628
 20
67.028297
 11
-336.02209
 21
67.028297
  0
LINE
  8
0
  6
CONTINUOUS
 62
     7
 10
-336.72922
 20
66.735405
 11
-337.89343
 21
65.571182
  0
LINE
  8
0
  6
CONTINUOUS
 62
     7
 10
-338.60052
 20
65.278305
 11
-359.18628
 21
65.278305
  0
LINE
  8
0
  6
CONTINUOUS
 62
     7
 10
-336.43628
 20
3.6085052
 11
-336.43628
 21
64.877701
  0
LINE
  8
0
  6
CONTINUOUS
 62
     7
 10
-90.80265
 20
-93.308983
 11
-90.80265
 21
-167.30899
  0
LINE
  8
0
  6
CONTINUOUS
 62
     7
 10
-111.2252
 20
-93.308983
 11
-90.80265
 21
-93.308983
  0
LINE
  8
0
  6
CONTINUOUS
 62
     7
 10
-111.80265
 20
-94.674187
 11
-111.80265
 21
-165.2265
  0
LINE
  8
0
  6
CONTINUOUS
 62
     7
 10
-130.98643
 20
-88.808983
 11
-114.978
 21
-88.808983
  0
LINE
  8
0
  6
CONTINUOUS
 62
     7
 10
-114.11195
 20
-89.308968
 11
-112.09122
 21
-92.808975
  0
LINE
  8
0
  6
CONTINUOUS
 62
     7
 10
-114.40061
 20
-90.696388
 11
-114.40061
 21
-169.40411
  0
LINE
  8
0
  6
CONTINUOUS
 62
     7
 10
-131.40062
 20
-90.736473
 11
-131.40062
 21
-168.80731
  0
LINE
  8
0
  6
CONTINUOUS
 62
     7
 10
-131.69354
 20
-89.101883
 11
-132.60777
 21
-90.016106
  0
LINE
  8
0
  6
CONTINUOUS
 62
     7
 10
-133.42688
 20
-90.308983
 11
-133.31487
 21
-90.308983
  0
LINE
  8
0
  6
CONTINUOUS
 62
     7
 10
-132.90062
 20
-92.00425
 11
-132.90062
 21
-167.61371
  0
LINE
  8
0
  6
CONTINUOUS
 62
     7
 10
-114.11197
 20
-171.30896
 11
-112.09125
 21
-167.80896
  0
LINE
  8
0
  6
CONTINUOUS
 62
     7
 10
-131.69356
 20
-171.51607
 11
-132.60776
 21
-170.60187
  0
LINE
  8
0
  6
CONTINUOUS
 62
     7
 10
-133.42699
 20
-170.30899
 11
-133.31487
 21
-170.30899
  0
LINE
  8
0
  6
CONTINUOUS
 62
     7
 10
-130.98643
 20
-171.80899
 11
-114.978
 21
-171.80899
  0
LINE
  8
0
  6
CONTINUOUS
 62
     7
 10
-111.2252
 20
-167.30899
 11
-90.80265
 21
-167.30899
  0
LINE
  8
0
  6
CONTINUOUS
 62
     7
 10
-148.9343
 20
167.34715
 11
-148.9343
 21
134.34715
  0
LINE
  8
0
  6
CONTINUOUS
 62
     7
 10
-165.52011
 20
167.34715
 11
-148.9343
 21
167.34715
  0
LINE
  8
0
  6
CONTINUOUS
 62
     7
 10
-165.9343
 20
166.66762
 11
-165.9343
 21
135.21989
  0
LINE
  8
0
  6
CONTINUOUS
 62
     7
 10
-166.64145
 20
168.05431
 11
-166.22722
 21
167.64006
  0
LINE
  8
0
  6
CONTINUOUS
 62
     7
 10
-180.9343
 20
168.34715
 11
-167.34854
 21
168.34715
  0
LINE
  8
0
  6
CONTINUOUS
 62
     7
 10
-166.9343
 20
167.5858
 11
-166.9343
 21
134.30171
  0
LINE
  8
0
  6
CONTINUOUS
 62
     7
 10
-180.9343
 20
133.34715
 11
-167.34854
 21
133.34715
  0
LINE
  8
0
  6
CONTINUOUS
 62
     7
 10
-166.64145
 20
133.64008
 11
-166.22722
 21
134.05429
  0
LINE
  8
0
  6
CONTINUOUS
 62
     7
 10
-165.52011
 20
134.34715
 11
-148.9343
 21
134.34715
  0
LINE
  8
0
  6
CONTINUOUS
 62
     7
 10
-14.200843
 20
168.5507
 11
-14.200843
 21
129.5507
  0
LINE
  8
0
  6
CONTINUOUS
 62
     7
 10
-30.786598
 20
168.5507
 11
-14.200843
 21
168.5507
  0
LINE
  8
0
  6
CONTINUOUS
 62
     7
 10
-48.200844
 20
169.5507
 11
-32.615028
 21
169.5507
  0
LINE
  8
0
  6
CONTINUOUS
 62
     7
 10
-31.200844
 20
167.53433
 11
-31.200844
 21
130.31873
  0
LINE
  8
0
  6
CONTINUOUS
 62
     7
 10
-31.907951
 20
169.25784
 11
-31.493717
 21
168.84361
  0
LINE
  8
0
  6
CONTINUOUS
 62
     7
 10
-32.200844
 20
168.56638
 11
-32.200844
 21
129.40518
  0
LINE
  8
0
  6
CONTINUOUS
 62
     7
 10
-48.200844
 20
128.5507
 11
-32.615028
 21
128.5507
  0
LINE
  8
0
  6
CONTINUOUS
 62
     7
 10
-31.907934
 20
128.84363
 11
-31.493723
 21
129.25784
  0
LINE
  8
0
  6
CONTINUOUS
 62
     7
 10
-30.786598
 20
129.5507
 11
-14.200843
 21
129.5507
  0
LINE
  8
0
  6
CONTINUOUS
 62
     7
 10
-102.20084
 20
126.05071
 11
-102.20084
 21
172.0507
  0
LINE
  8
0
  6
CONTINUOUS
 62
     7
 10
-80.615082
 20
126.05071
 11
-102.20084
 21
126.05071
  0
LINE
  8
0
  6
CONTINUOUS
 62
     7
 10
-60.20084
 20
124.55071
 11
-78.286652
 21
124.55071
  0
LINE
  8
0
  6
CONTINUOUS
 62
     7
 10
-80.200836
 20
127.7223
 11
-80.200836
 21
170.50191
  0
LINE
  8
0
  6
CONTINUOUS
 62
     7
 10
-78.993759
 20
124.84361
 11
-79.907982
 21
125.75783
  0
LINE
  8
0
  6
CONTINUOUS
 62
     7
 10
-78.700836
 20
126.37762
 11
-78.700836
 21
171.93867
  0
LINE
  8
0
  6
CONTINUOUS
 62
     7
 10
-60.20084
 20
173.5507
 11
-78.286652
 21
173.5507
  0
LINE
  8
0
  6
CONTINUOUS
 62
     7
 10
-80.615082
 20
172.0507
 11
-102.20084
 21
172.0507
  0
LINE
  8
0
  6
CONTINUOUS
 62
     7
 10
-78.993782
 20
173.25783
 11
-79.908005
 21
172.3436
  0
LINE
  8
0
  6
CONTINUOUS
 62
     7
 10
277.9444
 20
169.85716
 11
277.9444
 21
123.85717
  0
LINE
  8
0
  6
CONTINUOUS
 62
     7
 10
256.35861
 20
169.85716
 11
277.9444
 21
169.85716
  0
LINE
  8
0
  6
CONTINUOUS
 62
     7
 10
238.94508
 20
171.35716
 11
254.03018
 21
171.35716
  0
LINE
  8
0
  6
CONTINUOUS
 62
     7
 10
255.94437
 20
168.18558
 11
255.94437
 21
125.40597
  0
LINE
  8
0
  6
CONTINUOUS
 62
     7
 10
254.7373
 20
171.06429
 11
255.65152
 21
170.15005
  0
LINE
  8
0
  6
CONTINUOUS
 62
     7
 10
254.44437
 20
169.53026
 11
254.44437
 21
123.9692
  0
LINE
  8
0
  6
CONTINUOUS
 62
     7
 10
238.94511
 20
122.35717
 11
254.03018
 21
122.35717
  0
LINE
  8
0
  6
CONTINUOUS
 62
     7
 10
256.35861
 20
123.85717
 11
277.9444
 21
123.85717
  0
LINE
  8
0
  6
CONTINUOUS
 62
     7
 10
254.73732
 20
122.65006
 11
255.65155
 21
123.56429
  0
LINE
  8
0
  6
CONTINUOUS
 62
     7
 10
118.39383
 20
168.05432
 11
118.39383
 21
129.05432
  0
LINE
  8
0
  6
CONTINUOUS
 62
     7
 10
101.80807
 20
168.05432
 11
118.39383
 21
168.05432
  0
LINE
  8
0
  6
CONTINUOUS
 62
     7
 10
90.525093
 20
169.05432
 11
99.979645
 21
169.05432
  0
LINE
  8
0
  6
CONTINUOUS
 62
     7
 10
101.39383
 20
167.03795
 11
101.39383
 21
129.82234
  0
LINE
  8
0
  6
CONTINUOUS
 62
     7
 10
100.68671
 20
168.76144
 11
101.10095
 21
168.34721
  0
LINE
  8
0
  6
CONTINUOUS
 62
     7
 10
100.39383
 20
168.06999
 11
100.39383
 21
128.9088
  0
LINE
  8
0
  6
CONTINUOUS
 62
     7
 10
90.525108
 20
128.05432
 11
99.979645
 21
128.05432
  0
LINE
  8
0
  6
CONTINUOUS
 62
     7
 10
100.68674
 20
128.34723
 11
101.10095
 21
128.76144
  0
LINE
  8
0
  6
CONTINUOUS
 62
     7
 10
101.80807
 20
129.05432
 11
118.39383
 21
129.05432
  0
LINE
  8
0
  6
CONTINUOUS
 62
     7
 10
-261.18628
 20
53.778305
 11
-261.18628
 21
14.778305
  0
LINE
  8
0
  6
CONTINUOUS
 62
     7
 10
-277.77203
 20
53.778305
 11
-261.18628
 21
53.778305
  0
LINE
  8
0
  6
CONTINUOUS
 62
     7
 10
-285.91415
 20
54.778305
 11
-279.60046
 21
54.778305
  0
LINE
  8
0
  6
CONTINUOUS
 62
     7
 10
-278.18628
 20
52.761932
 11
-278.18628
 21
15.546326
  0
LINE
  8
0
  6
CONTINUOUS
 62
     7
 10
-278.8934
 20
54.485416
 11
-278.47916
 21
54.071182
  0
LINE
  8
0
  6
CONTINUOUS
 62
     7
 10
-279.18628
 20
53.793976
 11
-279.18628
 21
14.632782
  0
LINE
  8
0
  6
CONTINUOUS
 62
     7
 10
-285.91415
 20
13.778305
 11
-279.60046
 21
13.778305
  0
LINE
  8
0
  6
CONTINUOUS
 62
     7
 10
-278.89337
 20
14.071205
 11
-278.47916
 21
14.485417
  0
LINE
  8
0
  6
CONTINUOUS
 62
     7
 10
-277.77203
 20
14.778305
 11
-261.18628
 21
14.778305
  0
LINE
  8
0
  6
CONTINUOUS
 62
     7
 10
177.94437
 20
118.85715
 11
177.94437
 21
174.85715
  0
LINE
  8
0
  6
CONTINUOUS
 62
     7
 10
198.53012
 20
118.85715
 11
177.94437
 21
118.85715
  0
LINE
  8
0
  6
CONTINUOUS
 62
     7
 10
222.11505
 20
116.85715
 11
201.35855
 21
116.85715
  0
LINE
  8
0
  6
CONTINUOUS
 62
     7
 10
198.94437
 20
121.12937
 11
198.94437
 21
173.84991
  0
LINE
  8
0
  6
CONTINUOUS
 62
     7
 10
200.65141
 20
117.15003
 11
199.2372
 21
118.56425
  0
LINE
  8
0
  6
CONTINUOUS
 62
     7
 10
200.94437
 20
118.97791
 11
200.94437
 21
175.13921
  0
LINE
  8
0
  6
CONTINUOUS
 62
     7
 10
222.11505
 20
176.85715
 11
201.35855
 21
176.85715
  0
LINE
  8
0
  6
CONTINUOUS
 62
     7
 10
200.65143
 20
176.56429
 11
199.23721
 21
175.15007
  0
LINE
  8
0
  6
CONTINUOUS
 62
     7
 10
198.53012
 20
174.85715
 11
177.94437
 21
174.85715
  0
LINE
  8
0
  6
CONTINUOUS
 62
     7
 10
-109.79549
 20
55.581131
 11
-109.79549
 21
9.581131
  0
LINE
  8
0
  6
CONTINUOUS
 62
     7
 10
-131.38126
 20
55.581131
 11
-109.79549
 21
55.581131
  0
LINE
  8
0
  6
CONTINUOUS
 62
     7
 10
-146.31635
 20
57.081131
 11
-133.70969
 21
57.081131
  0
LINE
  8
0
  6
CONTINUOUS
 62
     7
 10
-131.7955
 20
53.909546
 11
-131.7955
 21
11.129929
  0
LINE
  8
0
  6
CONTINUOUS
 62
     7
 10
-133.00258
 20
56.78825
 11
-132.08835
 21
55.874023
  0
LINE
  8
0
  6
CONTINUOUS
 62
     7
 10
-133.2955
 20
55.254227
 11
-133.2955
 21
9.693161
  0
LINE
  8
0
  6
CONTINUOUS
 62
     7
 10
-146.31635
 20
8.081131
 11
-133.70969
 21
8.081131
  0
LINE
  8
0
  6
CONTINUOUS
 62
     7
 10
-131.38126
 20
9.581131
 11
-109.79549
 21
9.581131
  0
LINE
  8
0
  6
CONTINUOUS
 62
     7
 10
-133.00255
 20
8.3740244
 11
-132.08833
 21
9.2882481
  0
LINE
  8
0
  6
CONTINUOUS
 62
     7
 10
49.172649
 20
61.146858
 11
49.172649
 21
5.1468582
  0
LINE
  8
0
  6
CONTINUOUS
 62
     7
 10
28.586895
 20
61.146858
 11
49.172649
 21
61.146858
  0
LINE
  8
0
  6
CONTINUOUS
 62
     7
 10
4.8240728
 20
63.146866
 11
25.758465
 21
63.146866
  0
LINE
  8
0
  6
CONTINUOUS
 62
     7
 10
28.172649
 20
58.874641
 11
28.172649
 21
6.1540985
  0
LINE
  8
0
  6
CONTINUOUS
 62
     7
 10
26.465601
 20
62.853973
 11
27.879816
 21
61.439762
  0
LINE
  8
0
  6
CONTINUOUS
 62
     7
 10
26.172649
 20
61.0261
 11
26.172649
 21
4.8648071
  0
LINE
  8
0
  6
CONTINUOUS
 62
     7
 10
4.8240938
 20
3.1468582
 11
25.758465
 21
3.1468582
  0
LINE
  8
0
  6
CONTINUOUS
 62
     7
 10
26.465599
 20
3.4397385
 11
27.879812
 21
4.8539519
  0
LINE
  8
0
  6
CONTINUOUS
 62
     7
 10
28.586895
 20
5.1468582
 11
49.172649
 21
5.1468582
  0
LINE
  8
0
  6
CONTINUOUS
 62
     7
 10
-54.827351
 20
2.1468544
 11
-54.827351
 21
64.146858
  0
LINE
  8
0
  6
CONTINUOUS
 62
     7
 10
-34.2416
 20
2.1468544
 11
-54.827351
 21
2.1468544
  0
LINE
  8
0
  6
CONTINUOUS
 62
     7
 10
-7.4463
 20
0.3968544
 11
-31.66317
 21
0.3968544
  0
LINE
  8
0
  6
CONTINUOUS
 62
     7
 10
-33.827354
 20
4.1690598
 11
-33.827354
 21
62.132561
  0
LINE
  8
0
  6
CONTINUOUS
 62
     7
 10
-32.370312
 20
0.68973148
 11
-33.534531
 21
1.8539501
  0
LINE
  8
0
  6
CONTINUOUS
 62
     7
 10
-7.4463
 20
65.896858
 11
-31.66317
 21
65.896858
  0
LINE
  8
0
  6
CONTINUOUS
 62
     7
 10
-32.370289
 20
65.603958
 11
-33.534508
 21
64.439735
  0
LINE
  8
0
  6
CONTINUOUS
 62
     7
 10
-34.2416
 20
64.146858
 11
-54.827351
 21
64.146858
  0
LINE
  8
0
  6
CONTINUOUS
 62
     7
 10
-32.077354
 20
2.4770584
 11
-32.077354
 21
63.746254
  0
LINE
  8
0
  6
CONTINUOUS
 62
     7
 10
362.75455
 20
61.318245
 11
362.75455
 21
-0.68175888
  0
LINE
  8
0
  6
CONTINUOUS
 62
     7
 10
342.16879
 20
61.318245
 11
362.75455
 21
61.318245
  0
LINE
  8
0
  6
CONTINUOUS
 62
     7
 10
319.06613
 20
63.068245
 11
339.59036
 21
63.068245
  0
LINE
  8
0
  6
CONTINUOUS
 62
     7
 10
341.75455
 20
59.296043
 11
341.75455
 21
1.3325386
  0
LINE
  8
0
  6
CONTINUOUS
 62
     7
 10
340.29752
 20
62.775375
 11
341.46173
 21
61.611156
  0
LINE
  8
0
  6
CONTINUOUS
 62
     7
 10
319.06613
 20
-2.4317589
 11
339.59036
 21
-2.4317589
  0
LINE
  8
0
  6
CONTINUOUS
 62
     7
 10
340.29745
 20
-2.1388643
 11
341.4617
 21
-0.97464556
  0
LINE
  8
0
  6
CONTINUOUS
 62
     7
 10
342.16879
 20
-0.68175888
 11
362.75455
 21
-0.68175888
  0
LINE
  8
0
  6
CONTINUOUS
 62
     7
 10
340.00455
 20
60.988045
 11
340.00455
 21
-0.28115463
  0
LINE
  8
0
  6
CONTINUOUS
 62
     7
 10
-213.7955
 20
1.5811348
 11
-213.7955
 21
63.581131
  0
LINE
  8
0
  6
CONTINUOUS
 62
     7
 10
-193.20975
 20
1.5811348
 11
-213.7955
 21
1.5811348
  0
LINE
  8
0
  6
CONTINUOUS
 62
     7
 10
-168.7955
 20
-0.16886522
 11
-190.63132
 21
-0.16886522
  0
LINE
  8
0
  6
CONTINUOUS
 62
     7
 10
-192.7955
 20
3.6033325
 11
-192.7955
 21
61.566833
  0
LINE
  8
0
  6
CONTINUOUS
 62
     7
 10
-191.33846
 20
0.1240048
 11
-192.50267
 21
1.2882235
  0
LINE
  8
0
  6
CONTINUOUS
 62
     7
 10
-168.7955
 20
65.331131
 11
-190.63132
 21
65.331131
  0
LINE
  8
0
  6
CONTINUOUS
 62
     7
 10
-191.33842
 20
65.038231
 11
-192.50264
 21
63.874016
  0
LINE
  8
0
  6
CONTINUOUS
 62
     7
 10
-193.20975
 20
63.581131
 11
-213.7955
 21
63.581131
  0
LINE
  8
0
  6
CONTINUOUS
 62
     7
 10
-191.0455
 20
1.911335
 11
-191.0455
 21
63.180527
  0
LINE
  8
0
  6
CONTINUOUS
 62
     7
 10
212.27223
 20
58.318245
 11
212.27223
 21
2.3182411
  0
LINE
  8
0
  6
CONTINUOUS
 62
     7
 10
191.68648
 20
58.318245
 11
212.27223
 21
58.318245
  0
LINE
  8
0
  6
CONTINUOUS
 62
     7
 10
174.40688
 20
60.318253
 11
188.85805
 21
60.318253
  0
LINE
  8
0
  6
CONTINUOUS
 62
     7
 10
191.27223
 20
56.046028
 11
191.27223
 21
3.3254852
  0
LINE
  8
0
  6
CONTINUOUS
 62
     7
 10
189.56519
 20
60.025345
 11
190.97939
 21
58.61113
  0
LINE
  8
0
  6
CONTINUOUS
 62
     7
 10
189.27223
 20
58.197487
 11
189.27223
 21
2.03619
  0
LINE
  8
0
  6
CONTINUOUS
 62
     7
 10
174.40688
 20
0.31824112
 11
188.85805
 21
0.31824112
  0
LINE
  8
0
  6
CONTINUOUS
 62
     7
 10
189.56519
 20
0.61111176
 11
190.97939
 21
2.0253253
  0
LINE
  8
0
  6
CONTINUOUS
 62
     7
 10
191.68648
 20
2.3182411
 11
212.27223
 21
2.3182411
  0
LINE
  8
0
  6
CONTINUOUS
 62
     7
 10
102.27224
 20
-6.6817589
 11
102.27224
 21
67.318245
  0
LINE
  8
0
  6
CONTINUOUS
 62
     7
 10
122.85799
 20
-6.6817589
 11
102.27224
 21
-6.6817589
  0
LINE
  8
0
  6
CONTINUOUS
 62
     7
 10
149.27223
 20
-9.1817589
 11
126.18642
 21
-9.1817589
  0
LINE
  8
0
  6
CONTINUOUS
 62
     7
 10
123.27224
 20
-4.4664574
 11
123.27224
 21
65.445381
  0
LINE
  8
0
  6
CONTINUOUS
 62
     7
 10
125.47929
 20
-8.8889036
 11
123.56506
 21
-6.974679
  0
LINE
  8
0
  6
CONTINUOUS
 62
     7
 10
125.77224
 20
-6.3967247
 11
125.77224
 21
67.827431
  0
LINE
  8
0
  6
CONTINUOUS
 62
     7
 10
149.27223
 20
69.818245
 11
126.18642
 21
69.818245
  0
LINE
  8
0
  6
CONTINUOUS
 62
     7
 10
125.47932
 20
69.525337
 11
123.56507
 21
67.611092
  0
LINE
  8
0
  6
CONTINUOUS
 62
     7
 10
122.85799
 20
67.318245
 11
102.27224
 21
67.318245
  0
LINE
  8
0
  6
CONTINUOUS
 62
     7
 10
87.025726
 20
-84.058952
 11
87.025726
 21
-176.55896
  0
LINE
  8
0
  6
CONTINUOUS
 62
     7
 10
65.891754
 20
-84.058952
 11
87.025726
 21
-84.058952
  0
LINE
  8
0
  6
CONTINUOUS
 62
     7
 10
65.025726
 20
-85.510094
 11
65.025726
 21
-175.09393
  0
LINE
  8
0
  6
CONTINUOUS
 62
     7
 10
40.615932
 20
-78.808952
 11
61.128628
 21
-78.808952
  0
LINE
  8
0
  6
CONTINUOUS
 62
     7
 10
65.647064
 20
-176.55896
 11
87.025726
 21
-176.55896
  0
LINE
  8
0
  6
CONTINUOUS
 62
     7
 10
62.427643
 20
-79.558968
 11
64.592705
 21
-83.30896
  0
LINE
  8
0
  6
CONTINUOUS
 62
     7
 10
61.994656
 20
-80.636162
 11
61.994656
 21
-180.29791
  0
LINE
  8
0
  6
CONTINUOUS
 62
     7
 10
39.994656
 20
-181.80896
 11
61.128628
 21
-181.80896
  0
LINE
  8
0
  6
CONTINUOUS
 62
     7
 10
62.427681
 20
-181.05891
 11
64.592751
 21
-177.3089
  0
LINE
  8
0
  6
CONTINUOUS
 62
     7
 10
39.994656
 20
-80.636162
 11
39.994656
 21
-180.29791
  0
LINE
  8
0
  6
CONTINUOUS
 62
     7
 10
39.555264
 20
-79.248322
 11
37.933933
 21
-80.869652
  0
LINE
  8
0
  6
CONTINUOUS
 62
     7
 10
37.494656
 20
-82.172112
 11
37.494656
 21
-178.33606
  0
LINE
  8
0
  6
CONTINUOUS
 62
     7
 10
39.555264
 20
-181.36966
 11
37.933933
 21
-179.74834
  0
LINE
  8
0
  6
CONTINUOUS
 62
     7
 10
267.1073
 20
-81.408363
 11
288.24127
 21
-81.408363
  0
LINE
  8
0
  6
CONTINUOUS
 62
     7
 10
240.6871
 20
-75.908363
 11
262.1998
 21
-75.908363
  0
LINE
  8
0
  6
CONTINUOUS
 62
     7
 10
288.24127
 20
-81.408363
 11
288.24127
 21
-186.40833
  0
LINE
  8
0
  6
CONTINUOUS
 62
     7
 10
266.24127
 20
-83.692665
 11
266.24127
 21
-184.4126
  0
LINE
  8
0
  6
CONTINUOUS
 62
     7
 10
263.49881
 20
-76.658409
 11
265.8082
 21
-80.658386
  0
LINE
  8
0
  6
CONTINUOUS
 62
     7
 10
263.06577
 20
-78.48661
 11
263.06577
 21
-189.78108
  0
LINE
  8
0
  6
CONTINUOUS
 62
     7
 10
267.1073
 20
-186.40833
 11
288.24127
 21
-186.40833
  0
LINE
  8
0
  6
CONTINUOUS
 62
     7
 10
240.06583
 20
-191.90834
 11
262.1998
 21
-191.90834
  0
LINE
  8
0
  6
CONTINUOUS
 62
     7
 10
263.49887
 20
-191.15834
 11
265.80826
 21
-187.15837
  0
LINE
  8
0
  6
CONTINUOUS
 62
     7
 10
240.06577
 20
-78.48661
 11
240.06577
 21
-189.78108
  0
LINE
  8
0
  6
CONTINUOUS
 62
     7
 10
239.62645
 20
-76.347717
 11
238.00511
 21
-77.969048
  0
LINE
  8
0
  6
CONTINUOUS
 62
     7
 10
233.99026
 20
-78.408363
 11
236.94449
 21
-78.408363
  0
LINE
  8
0
  6
CONTINUOUS
 62
     7
 10
237.56577
 20
-80.038002
 11
237.56577
 21
-182.87396
  0
LINE
  8
0
  6
CONTINUOUS
 62
     7
 10
233.99026
 20
-189.40839
 11
236.94449
 21
-189.40839
  0
LINE
  8
0
  6
CONTINUOUS
 62
     7
 10
239.62646
 20
-191.46906
 11
238.00513
 21
-189.84773
  0
LINE
  8
0
  6
CONTINUOUS
 62
     7
 10
-197.66867
 20
-182.80896
 11
-218.80264
 21
-182.80896
  0
LINE
  8
0
  6
CONTINUOUS
 62
     7
 10
-171.2485
 20
-188.30896
 11
-192.7612
 21
-188.30896
  0
LINE
  8
0
  6
CONTINUOUS
 62
     7
 10
-218.80264
 20
-182.80896
 11
-218.80264
 21
-77.808983
  0
LINE
  8
0
  6
CONTINUOUS
 62
     7
 10
-196.80264
 20
-180.52466
 11
-196.80264
 21
-79.80471
  0
LINE
  8
0
  6
CONTINUOUS
 62
     7
 10
-194.0602
 20
-187.55891
 11
-196.36958
 21
-183.55894
  0
LINE
  8
0
  6
CONTINUOUS
 62
     7
 10
-193.62717
 20
-185.73071
 11
-193.62717
 21
-74.436241
  0
LINE
  8
0
  6
CONTINUOUS
 62
     7
 10
-197.66867
 20
-77.808983
 11
-218.80264
 21
-77.808983
  0
LINE
  8
0
  6
CONTINUOUS
 62
     7
 10
-170.62723
 20
-72.308983
 11
-192.7612
 21
-72.308983
  0
LINE
  8
0
  6
CONTINUOUS
 62
     7
 10
-194.06026
 20
-73.058975
 11
-196.36964
 21
-77.058952
  0
LINE
  8
0
  6
CONTINUOUS
 62
     7
 10
-170.62717
 20
-185.73071
 11
-170.62717
 21
-74.436241
  0
LINE
  8
0
  6
CONTINUOUS
 62
     7
 10
-170.18785
 20
-187.8696
 11
-168.56651
 21
-186.24826
  0
LINE
  8
0
  6
CONTINUOUS
 62
     7
 10
-162.75697
 20
-185.80896
 11
-167.50589
 21
-185.80896
  0
LINE
  8
0
  6
CONTINUOUS
 62
     7
 10
-168.12717
 20
-184.17932
 11
-168.12717
 21
-81.343346
  0
LINE
  8
0
  6
CONTINUOUS
 62
     7
 10
-162.75697
 20
-74.808922
 11
-167.50589
 21
-74.808922
  0
LINE
  8
0
  6
CONTINUOUS
 62
     7
 10
-170.18787
 20
-72.748245
 11
-168.56653
 21
-74.369576
  0
LINE
  8
0
  6
CONTINUOUS
 62
     7
 10
-247.91014
 20
-92.59948
 11
-247.91014
 21
-166.59949
  0
LINE
  8
0
  6
CONTINUOUS
 62
     7
 10
-268.33267
 20
-92.59948
 11
-247.91014
 21
-92.59948
  0
LINE
  8
0
  6
CONTINUOUS
 62
     7
 10
-268.91013
 20
-93.964684
 11
-268.91013
 21
-164.517
  0
LINE
  8
0
  6
CONTINUOUS
 62
     7
 10
-288.0939
 20
-88.09948
 11
-272.08548
 21
-88.09948
  0
LINE
  8
0
  6
CONTINUOUS
 62
     7
 10
-271.21945
 20
-88.599472
 11
-269.19873
 21
-92.09948
  0
LINE
  8
0
  6
CONTINUOUS
 62
     7
 10
-271.50809
 20
-89.986885
 11
-271.50809
 21
-168.69461
  0
LINE
  8
0
  6
CONTINUOUS
 62
     7
 10
-288.50809
 20
-90.02697
 11
-288.50809
 21
-168.09781
  0
LINE
  8
0
  6
CONTINUOUS
 62
     7
 10
-288.80106
 20
-88.39238
 11
-289.71527
 21
-89.30661
  0
LINE
  8
0
  6
CONTINUOUS
 62
     7
 10
-291.67227
 20
-89.59948
 11
-290.42233
 21
-89.59948
  0
LINE
  8
0
  6
CONTINUOUS
 62
     7
 10
-290.00809
 20
-91.294746
 11
-290.00809
 21
-166.90421
  0
LINE
  8
0
  6
CONTINUOUS
 62
     7
 10
-271.21945
 20
-170.59944
 11
-269.19873
 21
-167.09944
  0
LINE
  8
0
  6
CONTINUOUS
 62
     7
 10
-288.80103
 20
-170.80655
 11
-289.71524
 21
-169.89235
  0
LINE
  8
0
  6
CONTINUOUS
 62
     7
 10
-291.67218
 20
-169.59949
 11
-290.42233
 21
-169.59949
  0
LINE
  8
0
  6
CONTINUOUS
 62
     7
 10
-288.0939
 20
-171.09949
 11
-272.08548
 21
-171.09949
  0
LINE
  8
0
  6
CONTINUOUS
 62
     7
 10
-268.33267
 20
-166.59949
 11
-247.91014
 21
-166.59949
  0
ARC
  8
0
  6
CONTINUOUS
 62
     7
 10
-339.32288
 20
151.39842
 40
1.2
 50
216.00833
 51
323.99168
  0
ARC
  8
0
  6
CONTINUOUS
 62
     7
 10
-339.32288
 20
151.39842
 40
1.8
 50
216.00833
 51
323.99168
  0
ARC
  8
0
  6
CONTINUOUS
 62
     7
 10
-339.32288
 20
153.79842
 40
1.2
 50
36.00833
 51
143.99168
  0
ARC
  8
0
  6
CONTINUOUS
 62
     7
 10
-339.32288
 20
153.79842
 40
1.8
 50
36.00833
 51
143.99168
  0
ARC
  8
0
  6
CONTINUOUS
 62
     7
 10
-340.97403
 20
152.5984
 40
3.8411539
 50
323.99168
 51
355.52055
  0
ARC
  8
0
  6
CONTINUOUS
 62
     7
 10
-340.97403
 20
152.5984
 40
3.241154
 50
323.99168
 51
354.68912
  0
ARC
  8
0
  6
CONTINUOUS
 62
     7
 10
-337.67172
 20
152.5984
 40
3.241154
 50
143.99167
 51
216.00833
  0
ARC
  8
0
  6
CONTINUOUS
 62
     7
 10
-337.67172
 20
152.5984
 40
3.8411539
 50
143.99167
 51
175.52055
  0
ARC
  8
0
  6
CONTINUOUS
 62
     7
 10
-336.54788
 20
152.5984
 40
0.375
 50
306.8699
 51
53.130098
  0
ARC
  8
0
  6
CONTINUOUS
 62
     7
 10
-339.09787
 20
152.5984
 40
0.375
 50
126.8699
 51
233.13009
  0
ARC
  8
0
  6
CONTINUOUS
 62
     7
 10
-342.09787
 20
152.5984
 40
0.375
 50
126.8699
 51
233.13009
  0
ARC
  8
0
  6
CONTINUOUS
 62
     7
 10
-337.67172
 20
152.5984
 40
3.8411539
 50
184.47945
 51
216.00833
  0
ARC
  8
0
  6
CONTINUOUS
 62
     7
 10
-340.97403
 20
152.5984
 40
3.241154
 50
5.3108776
 51
36.00833
  0
ARC
  8
0
  6
CONTINUOUS
 62
     7
 10
-340.97403
 20
152.5984
 40
3.8411539
 50
4.4794524
 51
36.00833
  0
ARC
  8
0
  6
CONTINUOUS
 62
     7
 10
-225.66162
 20
149.06317
 40
1.8
 50
216.00833
 51
323.99168
  0
ARC
  8
0
  6
CONTINUOUS
 62
     7
 10
-225.66162
 20
149.06317
 40
2.7
 50
216.00833
 51
323.99168
  0
ARC
  8
0
  6
CONTINUOUS
 62
     7
 10
-225.66162
 20
152.66318
 40
1.8
 50
36.00833
 51
143.99168
  0
ARC
  8
0
  6
CONTINUOUS
 62
     7
 10
-225.66162
 20
152.66318
 40
2.7
 50
36.00833
 51
143.99168
  0
ARC
  8
0
  6
CONTINUOUS
 62
     7
 10
-228.13835
 20
150.86317
 40
5.7617307
 50
323.99168
 51
355.52055
  0
ARC
  8
0
  6
CONTINUOUS
 62
     7
 10
-228.13835
 20
150.86317
 40
4.8617306
 50
323.99168
 51
354.68912
  0
ARC
  8
0
  6
CONTINUOUS
 62
     7
 10
-223.18489
 20
150.86317
 40
4.8617306
 50
143.99167
 51
216.00833
  0
ARC
  8
0
  6
CONTINUOUS
 62
     7
 10
-223.18489
 20
150.86317
 40
5.7617307
 50
143.99167
 51
175.52055
  0
ARC
  8
0
  6
CONTINUOUS
 62
     7
 10
-221.49911
 20
150.86317
 40
0.5625
 50
306.8699
 51
53.130098
  0
ARC
  8
0
  6
CONTINUOUS
 62
     7
 10
-225.32413
 20
150.86317
 40
0.5625
 50
126.8699
 51
233.13009
  0
ARC
  8
0
  6
CONTINUOUS
 62
     7
 10
-229.82413
 20
150.86317
 40
0.5625
 50
126.8699
 51
233.13009
  0
ARC
  8
0
  6
CONTINUOUS
 62
     7
 10
-228.13835
 20
150.86317
 40
5.7617307
 50
4.4794524
 51
36.00833
  0
ARC
  8
0
  6
CONTINUOUS
 62
     7
 10
-228.13835
 20
150.86317
 40
4.8617306
 50
5.3108776
 51
36.00833
  0
ARC
  8
0
  6
CONTINUOUS
 62
     7
 10
-223.18489
 20
150.86317
 40
5.7617307
 50
184.47945
 51
216.00833
  0
ARC
  8
0
  6
CONTINUOUS
 62
     7
 10
-89.8461
 20
147.30574
 40
1.8
 50
216.00833
 51
323.99168
  0
ARC
  8
0
  6
CONTINUOUS
 62
     7
 10
-89.8461
 20
147.30574
 40
2.7
 50
216.00833
 51
323.99168
  0
ARC
  8
0
  6
CONTINUOUS
 62
     7
 10
-89.8461
 20
150.90572
 40
1.8
 50
36.00833
 51
143.99168
  0
ARC
  8
0
  6
CONTINUOUS
 62
     7
 10
-89.8461
 20
150.90572
 40
2.7
 50
36.00833
 51
143.99168
  0
ARC
  8
0
  6
CONTINUOUS
 62
     7
 10
-92.32283
 20
149.10573
 40
5.7617307
 50
323.99168
 51
355.52055
  0
ARC
  8
0
  6
CONTINUOUS
 62
     7
 10
-92.32283
 20
149.10573
 40
4.8617306
 50
323.99168
 51
354.68912
  0
ARC
  8
0
  6
CONTINUOUS
 62
     7
 10
-87.36937
 20
149.10573
 40
4.8617306
 50
143.99167
 51
216.00833
  0
ARC
  8
0
  6
CONTINUOUS
 62
     7
 10
-87.36937
 20
149.10573
 40
5.7617307
 50
143.99167
 51
175.52055
  0
ARC
  8
0
  6
CONTINUOUS
 62
     7
 10
-85.683594
 20
149.10573
 40
0.5625
 50
306.8699
 51
53.130098
  0
ARC
  8
0
  6
CONTINUOUS
 62
     7
 10
-89.508606
 20
149.10573
 40
0.5625
 50
126.8699
 51
233.13009
  0
ARC
  8
0
  6
CONTINUOUS
 62
     7
 10
-94.008606
 20
149.10573
 40
0.5625
 50
126.8699
 51
233.13009
  0
ARC
  8
0
  6
CONTINUOUS
 62
     7
 10
-92.32283
 20
149.10573
 40
5.7617307
 50
4.4794524
 51
36.00833
  0
ARC
  8
0
  6
CONTINUOUS
 62
     7
 10
-92.32283
 20
149.10573
 40
4.8617306
 50
5.3108776
 51
36.00833
  0
ARC
  8
0
  6
CONTINUOUS
 62
     7
 10
-87.36937
 20
149.10573
 40
5.7617307
 50
184.47945
 51
216.00833
  0
ARC
  8
0
  6
CONTINUOUS
 62
     7
 10
34.712002
 20
146.78891
 40
1.8
 50
216.00833
 51
323.99168
  0
ARC
  8
0
  6
CONTINUOUS
 62
     7
 10
34.712002
 20
146.78891
 40
2.7
 50
216.00833
 51
323.99168
  0
ARC
  8
0
  6
CONTINUOUS
 62
     7
 10
34.712002
 20
150.38889
 40
1.8
 50
36.00833
 51
143.99168
  0
ARC
  8
0
  6
CONTINUOUS
 62
     7
 10
34.712002
 20
150.38889
 40
2.7
 50
36.00833
 51
143.99168
  0
ARC
  8
0
  6
CONTINUOUS
 62
     7
 10
32.235271
 20
148.5889
 40
5.7617307
 50
323.99168
 51
355.52055
  0
ARC
  8
0
  6
CONTINUOUS
 62
     7
 10
32.235271
 20
148.5889
 40
4.8617306
 50
323.99168
 51
354.68912
  0
ARC
  8
0
  6
CONTINUOUS
 62
     7
 10
37.188732
 20
148.5889
 40
4.8617306
 50
143.99167
 51
216.00833
  0
ARC
  8
0
  6
CONTINUOUS
 62
     7
 10
37.188732
 20
148.5889
 40
5.7617307
 50
143.99167
 51
175.52055
  0
ARC
  8
0
  6
CONTINUOUS
 62
     7
 10
38.874508
 20
148.5889
 40
0.5625
 50
306.8699
 51
53.130098
  0
ARC
  8
0
  6
CONTINUOUS
 62
     7
 10
35.049511
 20
148.5889
 40
0.5625
 50
126.8699
 51
233.13009
  0
ARC
  8
0
  6
CONTINUOUS
 62
     7
 10
30.549511
 20
148.5889
 40
0.5625
 50
126.8699
 51
233.13009
  0
ARC
  8
0
  6
CONTINUOUS
 62
     7
 10
32.235271
 20
148.5889
 40
5.7617307
 50
4.4794524
 51
36.00833
  0
ARC
  8
0
  6
CONTINUOUS
 62
     7
 10
32.235271
 20
148.5889
 40
4.8617306
 50
5.3108776
 51
36.00833
  0
ARC
  8
0
  6
CONTINUOUS
 62
     7
 10
37.188732
 20
148.5889
 40
5.7617307
 50
184.47945
 51
216.00833
  0
ARC
  8
0
  6
CONTINUOUS
 62
     7
 10
188.82303
 20
144.94101
 40
1.8
 50
216.00833
 51
323.99168
  0
ARC
  8
0
  6
CONTINUOUS
 62
     7
 10
188.82303
 20
144.94101
 40
2.7
 50
216.00833
 51
323.99168
  0
ARC
  8
0
  6
CONTINUOUS
 62
     7
 10
188.82303
 20
148.54099
 40
1.8
 50
36.00833
 51
143.99168
  0
ARC
  8
0
  6
CONTINUOUS
 62
     7
 10
188.82303
 20
148.54099
 40
2.7
 50
36.00833
 51
143.99168
  0
ARC
  8
0
  6
CONTINUOUS
 62
     7
 10
186.3463
 20
146.741
 40
5.7617307
 50
323.99168
 51
355.52055
  0
ARC
  8
0
  6
CONTINUOUS
 62
     7
 10
186.3463
 20
146.741
 40
4.8617306
 50
323.99168
 51
354.68912
  0
ARC
  8
0
  6
CONTINUOUS
 62
     7
 10
191.29976
 20
146.741
 40
4.8617306
 50
143.99167
 51
216.00833
  0
ARC
  8
0
  6
CONTINUOUS
 62
     7
 10
191.29976
 20
146.741
 40
5.7617307
 50
143.99167
 51
175.52055
  0
ARC
  8
0
  6
CONTINUOUS
 62
     7
 10
192.98553
 20
146.741
 40
0.5625
 50
306.8699
 51
53.130098
  0
ARC
  8
0
  6
CONTINUOUS
 62
     7
 10
189.16054
 20
146.741
 40
0.5625
 50
126.8699
 51
233.13009
  0
ARC
  8
0
  6
CONTINUOUS
 62
     7
 10
184.66054
 20
146.741
 40
0.5625
 50
126.8699
 51
233.13009
  0
ARC
  8
0
  6
CONTINUOUS
 62
     7
 10
186.3463
 20
146.741
 40
5.7617307
 50
4.4794524
 51
36.00833
  0
ARC
  8
0
  6
CONTINUOUS
 62
     7
 10
186.3463
 20
146.741
 40
4.8617306
 50
5.3108776
 51
36.00833
  0
ARC
  8
0
  6
CONTINUOUS
 62
     7
 10
191.29976
 20
146.741
 40
5.7617307
 50
184.47945
 51
216.00833
  0
ARC
  8
0
  6
CONTINUOUS
 62
     7
 10
-349.21109
 20
32.410904
 40
1.8
 50
216.00833
 51
323.99168
  0
ARC
  8
0
  6
CONTINUOUS
 62
     7
 10
-349.21109
 20
32.410904
 40
2.7
 50
216.00833
 51
323.99168
  0
ARC
  8
0
  6
CONTINUOUS
 62
     7
 10
-349.21109
 20
36.01091
 40
1.8
 50
36.00833
 51
143.99168
  0
ARC
  8
0
  6
CONTINUOUS
 62
     7
 10
-349.21109
 20
36.01091
 40
2.7
 50
36.00833
 51
143.99168
  0
ARC
  8
0
  6
CONTINUOUS
 62
     7
 10
-351.68784
 20
34.210892
 40
5.7617307
 50
323.99168
 51
355.52055
  0
ARC
  8
0
  6
CONTINUOUS
 62
     7
 10
-351.68784
 20
34.210892
 40
4.8617306
 50
323.99168
 51
354.68912
  0
ARC
  8
0
  6
CONTINUOUS
 62
     7
 10
-346.73438
 20
34.210892
 40
4.8617306
 50
143.99167
 51
216.00833
  0
ARC
  8
0
  6
CONTINUOUS
 62
     7
 10
-346.73438
 20
34.210892
 40
5.7617307
 50
143.99167
 51
175.52055
  0
ARC
  8
0
  6
CONTINUOUS
 62
     7
 10
-345.04858
 20
34.210892
 40
0.5625
 50
306.8699
 51
53.130098
  0
ARC
  8
0
  6
CONTINUOUS
 62
     7
 10
-348.8736
 20
34.210892
 40
0.5625
 50
126.8699
 51
233.13009
  0
ARC
  8
0
  6
CONTINUOUS
 62
     7
 10
-353.3736
 20
34.210892
 40
0.5625
 50
126.8699
 51
233.13009
  0
ARC
  8
0
  6
CONTINUOUS
 62
     7
 10
-351.68784
 20
34.210892
 40
5.7617307
 50
4.4794524
 51
36.00833
  0
ARC
  8
0
  6
CONTINUOUS
 62
     7
 10
-351.68784
 20
34.210892
 40
4.8617306
 50
5.3108776
 51
36.00833
  0
ARC
  8
0
  6
CONTINUOUS
 62
     7
 10
-346.73438
 20
34.210892
 40
5.7617307
 50
184.47945
 51
216.00833
  0
ARC
  8
0
  6
CONTINUOUS
 62
     7
 10
-203.40097
 20
30.791931
 40
1.8
 50
216.00833
 51
323.99168
  0
ARC
  8
0
  6
CONTINUOUS
 62
     7
 10
-203.40097
 20
30.791931
 40
2.7
 50
216.00833
 51
323.99168
  0
ARC
  8
0
  6
CONTINUOUS
 62
     7
 10
-203.40097
 20
34.391922
 40
1.8
 50
36.00833
 51
143.99168
  0
ARC
  8
0
  6
CONTINUOUS
 62
     7
 10
-203.40097
 20
34.391922
 40
2.7
 50
36.00833
 51
143.99168
  0
ARC
  8
0
  6
CONTINUOUS
 62
     7
 10
-205.8777
 20
32.591919
 40
5.7617307
 50
323.99168
 51
355.52055
  0
ARC
  8
0
  6
CONTINUOUS
 62
     7
 10
-205.8777
 20
32.591919
 40
4.8617306
 50
323.99168
 51
354.68912
  0
ARC
  8
0
  6
CONTINUOUS
 62
     7
 10
-200.92424
 20
32.591919
 40
4.8617306
 50
143.99167
 51
216.00833
  0
ARC
  8
0
  6
CONTINUOUS
 62
     7
 10
-200.92424
 20
32.591919
 40
5.7617307
 50
143.99167
 51
175.52055
  0
ARC
  8
0
  6
CONTINUOUS
 62
     7
 10
-199.23846
 20
32.591919
 40
0.5625
 50
306.8699
 51
53.130098
  0
ARC
  8
0
  6
CONTINUOUS
 62
     7
 10
-203.06346
 20
32.591919
 40
0.5625
 50
126.8699
 51
233.13009
  0
ARC
  8
0
  6
CONTINUOUS
 62
     7
 10
-207.56346
 20
32.591919
 40
0.5625
 50
126.8699
 51
233.13009
  0
ARC
  8
0
  6
CONTINUOUS
 62
     7
 10
-205.8777
 20
32.591919
 40
5.7617307
 50
4.4794524
 51
36.00833
  0
ARC
  8
0
  6
CONTINUOUS
 62
     7
 10
-205.8777
 20
32.591919
 40
4.8617306
 50
5.3108776
 51
36.00833
  0
ARC
  8
0
  6
CONTINUOUS
 62
     7
 10
-200.92424
 20
32.591919
 40
5.7617307
 50
184.47945
 51
216.00833
  0
ARC
  8
0
  6
CONTINUOUS
 62
     7
 10
-44.216915
 20
31.278896
 40
1.8
 50
216.00833
 51
323.99168
  0
ARC
  8
0
  6
CONTINUOUS
 62
     7
 10
-44.216915
 20
31.278896
 40
2.7
 50
216.00833
 51
323.99168
  0
ARC
  8
0
  6
CONTINUOUS
 62
     7
 10
-44.216915
 20
34.878899
 40
1.8
 50
36.00833
 51
143.99168
  0
ARC
  8
0
  6
CONTINUOUS
 62
     7
 10
-44.216915
 20
34.878899
 40
2.7
 50
36.00833
 51
143.99168
  0
ARC
  8
0
  6
CONTINUOUS
 62
     7
 10
-46.693645
 20
33.078899
 40
5.7617307
 50
323.99168
 51
355.52055
  0
ARC
  8
0
  6
CONTINUOUS
 62
     7
 10
-46.693645
 20
33.078899
 40
4.8617306
 50
323.99168
 51
354.68912
  0
ARC
  8
0
  6
CONTINUOUS
 62
     7
 10
-41.740185
 20
33.078899
 40
4.8617306
 50
143.99167
 51
216.00833
  0
ARC
  8
0
  6
CONTINUOUS
 62
     7
 10
-41.740185
 20
33.078899
 40
5.7617307
 50
143.99167
 51
175.52055
  0
ARC
  8
0
  6
CONTINUOUS
 62
     7
 10
-40.054417
 20
33.078899
 40
0.5625
 50
306.8699
 51
53.130098
  0
ARC
  8
0
  6
CONTINUOUS
 62
     7
 10
-43.879414
 20
33.078899
 40
0.5625
 50
126.8699
 51
233.13009
  0
ARC
  8
0
  6
CONTINUOUS
 62
     7
 10
-48.379414
 20
33.078899
 40
0.5625
 50
126.8699
 51
233.13009
  0
ARC
  8
0
  6
CONTINUOUS
 62
     7
 10
-46.693645
 20
33.078899
 40
5.7617307
 50
4.4794524
 51
36.00833
  0
ARC
  8
0
  6
CONTINUOUS
 62
     7
 10
-46.693645
 20
33.078899
 40
4.8617306
 50
5.3108776
 51
36.00833
  0
ARC
  8
0
  6
CONTINUOUS
 62
     7
 10
-41.740185
 20
33.078899
 40
5.7617307
 50
184.47945
 51
216.00833
  0
ARC
  8
0
  6
CONTINUOUS
 62
     7
 10
113.15267
 20
27.793499
 40
2.4000001
 50
216.00833
 51
323.99168
  0
ARC
  8
0
  6
CONTINUOUS
 62
     7
 10
113.15267
 20
27.793499
 40
3.5999999
 50
216.00833
 51
323.99168
  0
ARC
  8
0
  6
CONTINUOUS
 62
     7
 10
113.15267
 20
32.593487
 40
2.4000001
 50
36.00833
 51
143.99168
  0
ARC
  8
0
  6
CONTINUOUS
 62
     7
 10
113.15267
 20
32.593487
 40
3.5999999
 50
36.00833
 51
143.99168
  0
ARC
  8
0
  6
CONTINUOUS
 62
     7
 10
109.85036
 20
30.193493
 40
7.6823077
 50
323.99168
 51
355.52055
  0
ARC
  8
0
  6
CONTINUOUS
 62
     7
 10
109.85036
 20
30.193493
 40
6.4823079
 50
323.99168
 51
354.68912
  0
ARC
  8
0
  6
CONTINUOUS
 62
     7
 10
116.45498
 20
30.193493
 40
6.4823079
 50
143.99167
 51
216.00833
  0
ARC
  8
0
  6
CONTINUOUS
 62
     7
 10
116.45498
 20
30.193493
 40
7.6823077
 50
143.99167
 51
175.52055
  0
ARC
  8
0
  6
CONTINUOUS
 62
     7
 10
118.70267
 20
30.193493
 40
0.75
 50
306.8699
 51
53.130098
  0
ARC
  8
0
  6
CONTINUOUS
 62
     7
 10
113.60267
 20
30.193493
 40
0.75
 50
126.8699
 51
233.13009
  0
ARC
  8
0
  6
CONTINUOUS
 62
     7
 10
107.60267
 20
30.193493
 40
0.75
 50
126.8699
 51
233.13009
  0
ARC
  8
0
  6
CONTINUOUS
 62
     7
 10
109.85036
 20
30.193493
 40
6.4823079
 50
5.3108776
 51
36.00833
  0
ARC
  8
0
  6
CONTINUOUS
 62
     7
 10
109.85036
 20
30.193493
 40
7.6823077
 50
4.4794524
 51
36.00833
  0
ARC
  8
0
  6
CONTINUOUS
 62
     7
 10
116.45498
 20
30.193493
 40
7.6823077
 50
184.47945
 51
216.00833
  0
ARC
  8
0
  6
CONTINUOUS
 62
     7
 10
263.66351
 20
27.919268
 40
2.4000001
 50
216.00833
 51
323.99168
  0
ARC
  8
0
  6
CONTINUOUS
 62
     7
 10
263.66351
 20
27.919268
 40
3.5999999
 50
216.00833
 51
323.99168
  0
ARC
  8
0
  6
CONTINUOUS
 62
     7
 10
263.66351
 20
32.719254
 40
2.4000001
 50
36.00833
 51
143.99168
  0
ARC
  8
0
  6
CONTINUOUS
 62
     7
 10
263.66351
 20
32.719254
 40
3.5999999
 50
36.00833
 51
143.99168
  0
ARC
  8
0
  6
CONTINUOUS
 62
     7
 10
260.36121
 20
30.319262
 40
7.6823077
 50
323.99168
 51
355.52055
  0
ARC
  8
0
  6
CONTINUOUS
 62
     7
 10
260.36121
 20
30.319262
 40
6.4823079
 50
323.99168
 51
354.68912
  0
ARC
  8
0
  6
CONTINUOUS
 62
     7
 10
266.96582
 20
30.319262
 40
6.4823079
 50
143.99167
 51
216.00833
  0
ARC
  8
0
  6
CONTINUOUS
 62
     7
 10
266.96582
 20
30.319262
 40
7.6823077
 50
143.99167
 51
175.52055
  0
ARC
  8
0
  6
CONTINUOUS
 62
     7
 10
269.21353
 20
30.319262
 40
0.75
 50
306.8699
 51
53.130098
  0
ARC
  8
0
  6
CONTINUOUS
 62
     7
 10
264.11353
 20
30.319262
 40
0.75
 50
126.8699
 51
233.13009
  0
ARC
  8
0
  6
CONTINUOUS
 62
     7
 10
258.11353
 20
30.319262
 40
0.75
 50
126.8699
 51
233.13009
  0
ARC
  8
0
  6
CONTINUOUS
 62
     7
 10
260.36121
 20
30.319262
 40
6.4823079
 50
5.3108776
 51
36.00833
  0
ARC
  8
0
  6
CONTINUOUS
 62
     7
 10
260.36121
 20
30.319262
 40
7.6823077
 50
4.4794524
 51
36.00833
  0
ARC
  8
0
  6
CONTINUOUS
 62
     7
 10
266.96582
 20
30.319262
 40
7.6823077
 50
184.47945
 51
216.00833
  0
ARC
  8
0
  6
CONTINUOUS
 62
     7
 10
-357.75745
 20
-132.646
 40
3
 50
216.00833
 51
323.99168
  0
ARC
  8
0
  6
CONTINUOUS
 62
     7
 10
-357.75745
 20
-132.646
 40
4.5
 50
216.00833
 51
323.99168
  0
ARC
  8
0
  6
CONTINUOUS
 62
     7
 10
-357.75745
 20
-126.646
 40
3
 50
36.00833
 51
143.99168
  0
ARC
  8
0
  6
CONTINUOUS
 62
     7
 10
-357.75745
 20
-126.646
 40
4.5
 50
36.00833
 51
143.99168
  0
ARC
  8
0
  6
CONTINUOUS
 62
     7
 10
-361.88535
 20
-129.646
 40
9.6028843
 50
323.99168
 51
355.52055
  0
ARC
  8
0
  6
CONTINUOUS
 62
     7
 10
-361.88535
 20
-129.646
 40
8.1028843
 50
323.99168
 51
354.68912
  0
ARC
  8
0
  6
CONTINUOUS
 62
     7
 10
-353.62958
 20
-129.646
 40
8.1028843
 50
143.99167
 51
216.00833
  0
ARC
  8
0
  6
CONTINUOUS
 62
     7
 10
-353.62958
 20
-129.646
 40
9.6028843
 50
143.99167
 51
175.52055
  0
ARC
  8
0
  6
CONTINUOUS
 62
     7
 10
-350.81995
 20
-129.646
 40
0.9375
 50
306.8699
 51
53.130098
  0
ARC
  8
0
  6
CONTINUOUS
 62
     7
 10
-357.19495
 20
-129.646
 40
0.9375
 50
126.8699
 51
233.13009
  0
ARC
  8
0
  6
CONTINUOUS
 62
     7
 10
-364.69495
 20
-129.646
 40
0.9375
 50
126.8699
 51
233.13009
  0
ARC
  8
0
  6
CONTINUOUS
 62
     7
 10
-361.88535
 20
-129.646
 40
9.6028843
 50
4.4794524
 51
36.00833
  0
ARC
  8
0
  6
CONTINUOUS
 62
     7
 10
-361.88535
 20
-129.646
 40
8.1028843
 50
5.3108776
 51
36.00833
  0
ARC
  8
0
  6
CONTINUOUS
 62
     7
 10
-353.62958
 20
-129.646
 40
9.6028843
 50
184.47945
 51
216.00833
  0
ARC
  8
0
  6
CONTINUOUS
 62
     7
 10
-207.50873
 20
-133.8624
 40
3.5999999
 50
216.00833
 51
323.99168
  0
ARC
  8
0
  6
CONTINUOUS
 62
     7
 10
-207.50873
 20
-133.8624
 40
5.4000001
 50
216.00833
 51
323.99168
  0
ARC
  8
0
  6
CONTINUOUS
 62
     7
 10
-207.50873
 20
-126.66239
 40
3.5999999
 50
36.00833
 51
143.99168
  0
ARC
  8
0
  6
CONTINUOUS
 62
     7
 10
-207.50873
 20
-126.66239
 40
5.4000001
 50
36.00833
 51
143.99168
  0
ARC
  8
0
  6
CONTINUOUS
 62
     7
 10
-212.46219
 20
-130.26239
 40
11.523461
 50
323.99168
 51
355.52055
  0
ARC
  8
0
  6
CONTINUOUS
 62
     7
 10
-212.46219
 20
-130.26239
 40
9.7234612
 50
323.99168
 51
354.68912
  0
ARC
  8
0
  6
CONTINUOUS
 62
     7
 10
-202.55527
 20
-130.26239
 40
9.7234612
 50
143.99167
 51
216.00833
  0
ARC
  8
0
  6
CONTINUOUS
 62
     7
 10
-202.55527
 20
-130.26239
 40
11.523461
 50
143.99167
 51
175.52055
  0
ARC
  8
0
  6
CONTINUOUS
 62
     7
 10
-199.18373
 20
-130.26239
 40
1.125
 50
306.8699
 51
53.130098
  0
ARC
  8
0
  6
CONTINUOUS
 62
     7
 10
-206.83372
 20
-130.26239
 40
1.125
 50
126.8699
 51
233.13009
  0
ARC
  8
0
  6
CONTINUOUS
 62
     7
 10
-215.83372
 20
-130.26239
 40
1.125
 50
126.8699
 51
233.13009
  0
ARC
  8
0
  6
CONTINUOUS
 62
     7
 10
-212.46219
 20
-130.26239
 40
11.523461
 50
4.4794524
 51
36.00833
  0
ARC
  8
0
  6
CONTINUOUS
 62
     7
 10
-212.46219
 20
-130.26239
 40
9.7234612
 50
5.3108776
 51
36.00833
  0
ARC
  8
0
  6
CONTINUOUS
 62
     7
 10
-202.55527
 20
-130.26239
 40
11.523461
 50
184.47945
 51
216.00833
  0
ARC
  8
0
  6
CONTINUOUS
 62
     7
 10
-34.002136
 20
-133.92926
 40
3.5999999
 50
216.00833
 51
323.99168
  0
ARC
  8
0
  6
CONTINUOUS
 62
     7
 10
-34.002136
 20
-133.92926
 40
5.4000001
 50
216.00833
 51
323.99168
  0
ARC
  8
0
  6
CONTINUOUS
 62
     7
 10
-34.002136
 20
-126.72924
 40
3.5999999
 50
36.00833
 51
143.99168
  0
ARC
  8
0
  6
CONTINUOUS
 62
     7
 10
-34.002136
 20
-126.72924
 40
5.4000001
 50
36.00833
 51
143.99168
  0
ARC
  8
0
  6
CONTINUOUS
 62
     7
 10
-38.955597
 20
-130.32925
 40
11.523461
 50
323.99168
 51
355.52055
  0
ARC
  8
0
  6
CONTINUOUS
 62
     7
 10
-38.955597
 20
-130.32925
 40
9.7234612
 50
323.99168
 51
354.68912
  0
ARC
  8
0
  6
CONTINUOUS
 62
     7
 10
-29.048668
 20
-130.32925
 40
9.7234612
 50
143.99167
 51
216.00833
  0
ARC
  8
0
  6
CONTINUOUS
 62
     7
 10
-29.048668
 20
-130.32925
 40
11.523461
 50
143.99167
 51
175.52055
  0
ARC
  8
0
  6
CONTINUOUS
 62
     7
 10
-25.677132
 20
-130.32925
 40
1.125
 50
306.8699
 51
53.130098
  0
ARC
  8
0
  6
CONTINUOUS
 62
     7
 10
-33.327133
 20
-130.32925
 40
1.125
 50
126.8699
 51
233.13009
  0
ARC
  8
0
  6
CONTINUOUS
 62
     7
 10
-42.327133
 20
-130.32925
 40
1.125
 50
126.8699
 51
233.13009
  0
ARC
  8
0
  6
CONTINUOUS
 62
     7
 10
-38.955597
 20
-130.32925
 40
11.523461
 50
4.4794524
 51
36.00833
  0
ARC
  8
0
  6
CONTINUOUS
 62
     7
 10
-38.955597
 20
-130.32925
 40
9.7234612
 50
5.3108776
 51
36.00833
  0
ARC
  8
0
  6
CONTINUOUS
 62
     7
 10
-29.048668
 20
-130.32925
 40
11.523461
 50
184.47945
 51
216.00833
  0
ARC
  8
0
  6
CONTINUOUS
 62
     7
 10
153.37628
 20
-137.51321
 40
3.5999999
 50
216.00833
 51
323.99168
  0
ARC
  8
0
  6
CONTINUOUS
 62
     7
 10
153.37628
 20
-137.51321
 40
5.4000001
 50
216.00833
 51
323.99168
  0
ARC
  8
0
  6
CONTINUOUS
 62
     7
 10
153.37628
 20
-130.31326
 40
3.5999999
 50
36.00833
 51
143.99168
  0
ARC
  8
0
  6
CONTINUOUS
 62
     7
 10
153.37628
 20
-130.31326
 40
5.4000001
 50
36.00833
 51
143.99168
  0
ARC
  8
0
  6
CONTINUOUS
 62
     7
 10
148.42282
 20
-133.91324
 40
11.523461
 50
323.99168
 51
355.52055
  0
ARC
  8
0
  6
CONTINUOUS
 62
     7
 10
148.42282
 20
-133.91324
 40
9.7234612
 50
323.99168
 51
354.68912
  0
ARC
  8
0
  6
CONTINUOUS
 62
     7
 10
158.32974
 20
-133.91324
 40
9.7234612
 50
143.99167
 51
216.00833
  0
ARC
  8
0
  6
CONTINUOUS
 62
     7
 10
158.32974
 20
-133.91324
 40
11.523461
 50
143.99167
 51
175.52055
  0
ARC
  8
0
  6
CONTINUOUS
 62
     7
 10
161.70126
 20
-133.91324
 40
1.125
 50
306.8699
 51
53.130098
  0
ARC
  8
0
  6
CONTINUOUS
 62
     7
 10
154.05127
 20
-133.91324
 40
1.125
 50
126.8699
 51
233.13009
  0
ARC
  8
0
  6
CONTINUOUS
 62
     7
 10
145.05127
 20
-133.91324
 40
1.125
 50
126.8699
 51
233.13009
  0
ARC
  8
0
  6
CONTINUOUS
 62
     7
 10
148.42282
 20
-133.91324
 40
11.523461
 50
4.4794524
 51
36.00833
  0
ARC
  8
0
  6
CONTINUOUS
 62
     7
 10
148.42282
 20
-133.91324
 40
9.7234612
 50
5.3108776
 51
36.00833
  0
ARC
  8
0
  6
CONTINUOUS
 62
     7
 10
158.32974
 20
-133.91324
 40
11.523461
 50
184.47945
 51
216.00833
  0
ARC
  8
0
  6
CONTINUOUS
 62
     7
 10
-286.84644
 20
135.1436
 40
1
 50
90.000003
 51
135
  0
ARC
  8
0
  6
CONTINUOUS
 62
     7
 10
-288.67487
 20
136.1436
 40
1
 50
270
 51
315
  0
ARC
  8
0
  6
CONTINUOUS
 62
     7
 10
-286.84644
 20
170.1436
 40
1
 50
225
 51
270
  0
ARC
  8
0
  6
CONTINUOUS
 62
     7
 10
-288.67487
 20
169.1436
 40
1
 50
45.000001
 51
90.000003
  0
ARC
  8
0
  6
CONTINUOUS
 62
     7
 10
-329.84644
 20
133.1436
 40
1
 50
225
 51
270
  0
ARC
  8
0
  6
CONTINUOUS
 62
     7
 10
-329.84644
 20
172.1436
 40
1
 50
89.999996
 51
135
  0
ARC
  8
0
  6
CONTINUOUS
 62
     7
 10
-331.67487
 20
173.1436
 40
1
 50
270
 51
315
  0
ARC
  8
0
  6
CONTINUOUS
 62
     7
 10
-331.67487
 20
132.1436
 40
1
 50
45.000001
 51
89.999996
  0
ARC
  8
0
  6
CONTINUOUS
 62
     7
 10
44.979584
 20
119.55433
 40
1
 50
45.000001
 51
89.999996
  0
ARC
  8
0
  6
CONTINUOUS
 62
     7
 10
47.808014
 20
119.55433
 40
1
 50
225
 51
270
  0
ARC
  8
0
  6
CONTINUOUS
 62
     7
 10
47.808014
 20
177.55432
 40
1
 50
89.999996
 51
135
  0
ARC
  8
0
  6
CONTINUOUS
 62
     7
 10
44.979584
 20
177.55432
 40
1
 50
270
 51
315
  0
ARC
  8
0
  6
CONTINUOUS
 62
     7
 10
-318.75772
 20
-79.09951
 40
1.5
 50
225
 51
270
  0
ARC
  8
0
  6
CONTINUOUS
 62
     7
 10
-322.50034
 20
-79.59951
 40
1.5
 50
45.000001
 51
89.999996
  0
ARC
  8
0
  6
CONTINUOUS
 62
     7
 10
-347.77615
 20
-177.34952
 40
1.5
 50
30.000004
 51
89.999996
  0
ARC
  8
0
  6
CONTINUOUS
 62
     7
 10
-343.01303
 20
-179.59952
 40
1.5
 50
210
 51
270
  0
ARC
  8
0
  6
CONTINUOUS
 62
     7
 10
-343.01303
 20
-79.59951
 40
1.5
 50
89.999996
 51
150
  0
ARC
  8
0
  6
CONTINUOUS
 62
     7
 10
-347.77615
 20
-81.84951
 40
1.5
 50
270
 51
330
  0
ARC
  8
0
  6
CONTINUOUS
 62
     7
 10
-322.50034
 20
-179.59952
 40
1.5
 50
270
 51
315
  0
ARC
  8
0
  6
CONTINUOUS
 62
     7
 10
-318.75772
 20
-180.09952
 40
1.5
 50
89.999996
 51
135
  0
ARC
  8
0
  6
CONTINUOUS
 62
     7
 10
6.3224764
 20
-73.308922
 40
1.5
 50
225
 51
270
  0
ARC
  8
0
  6
CONTINUOUS
 62
     7
 10
2.5798616
 20
-73.808922
 40
1.5
 50
45.000001
 51
89.999996
  0
ARC
  8
0
  6
CONTINUOUS
 62
     7
 10
-23.840305
 20
-184.30896
 40
1.5
 50
30.000004
 51
89.999996
  0
ARC
  8
0
  6
CONTINUOUS
 62
     7
 10
-18.932835
 20
-186.80896
 40
1.5
 50
210
 51
270
  0
ARC
  8
0
  6
CONTINUOUS
 62
     7
 10
-23.840305
 20
-76.308983
 40
1.5
 50
270
 51
330
  0
ARC
  8
0
  6
CONTINUOUS
 62
     7
 10
-18.932835
 20
-73.808983
 40
1.5
 50
89.999996
 51
150
  0
ARC
  8
0
  6
CONTINUOUS
 62
     7
 10
2.5798616
 20
-186.80896
 40
1.5
 50
270
 51
315
  0
ARC
  8
0
  6
CONTINUOUS
 62
     7
 10
6.3224764
 20
-187.30896
 40
1.5
 50
89.999996
 51
135
  0
ARC
  8
0
  6
CONTINUOUS
 62
     7
 10
196.11533
 20
-62.908329
 40
1.5
 50
225
 51
270
  0
ARC
  8
0
  6
CONTINUOUS
 62
     7
 10
192.37265
 20
-63.408329
 40
1.5
 50
45.000001
 51
89.999996
  0
ARC
  8
0
  6
CONTINUOUS
 62
     7
 10
163.37521
 20
-200.90834
 40
1.5
 50
30.000004
 51
89.999996
  0
ARC
  8
0
  6
CONTINUOUS
 62
     7
 10
168.86002
 20
-204.40834
 40
1.5
 50
210
 51
270
  0
ARC
  8
0
  6
CONTINUOUS
 62
     7
 10
168.86002
 20
-63.408329
 40
1.5
 50
89.999996
 51
150
  0
ARC
  8
0
  6
CONTINUOUS
 62
     7
 10
163.37521
 20
-66.908333
 40
1.5
 50
270
 51
330
  0
ARC
  8
0
  6
CONTINUOUS
 62
     7
 10
192.37265
 20
-204.40834
 40
1.5
 50
270
 51
315
  0
ARC
  8
0
  6
CONTINUOUS
 62
     7
 10
196.11533
 20
-204.90834
 40
1.5
 50
89.999996
 51
135
  0
ARC
  8
0
  6
CONTINUOUS
 62
     7
 10
276.6687
 20
-8.1817589
 40
1
 50
225
 51
270
  0
ARC
  8
0
  6
CONTINUOUS
 62
     7
 10
276.6687
 20
68.818245
 40
1
 50
89.999996
 51
135
  0
ARC
  8
0
  6
CONTINUOUS
 62
     7
 10
273.34027
 20
68.318245
 40
1
 50
270
 51
315
  0
ARC
  8
0
  6
CONTINUOUS
 62
     7
 10
273.34027
 20
-7.6817589
 40
1
 50
45.000001
 51
89.999996
  0
ARC
  8
0
  6
CONTINUOUS
 62
     7
 10
-215.34854
 20
126.84716
 40
1
 50
45.000001
 51
89.999996
  0
ARC
  8
0
  6
CONTINUOUS
 62
     7
 10
-213.02011
 20
127.34716
 40
1
 50
225
 51
270
  0
ARC
  8
0
  6
CONTINUOUS
 62
     7
 10
-213.02011
 20
174.34715
 40
1
 50
89.999996
 51
135
  0
ARC
  8
0
  6
CONTINUOUS
 62
     7
 10
-215.34854
 20
174.84715
 40
1
 50
270
 51
315
  0
ARC
  8
0
  6
CONTINUOUS
 62
     7
 10
-338.60052
 20
2.2783012
 40
1
 50
45.000001
 51
89.999996
  0
ARC
  8
0
  6
CONTINUOUS
 62
     7
 10
-336.02209
 20
2.5283051
 40
1
 50
225
 51
270
  0
ARC
  8
0
  6
CONTINUOUS
 62
     7
 10
-336.02209
 20
66.028305
 40
1
 50
89.999996
 51
135
  0
ARC
  8
0
  6
CONTINUOUS
 62
     7
 10
-338.60052
 20
66.278305
 40
1
 50
270
 51
315
  0
ARC
  8
0
  6
CONTINUOUS
 62
     7
 10
-133.31487
 20
-171.30899
 40
1
 50
45.000001
 51
90.000003
  0
ARC
  8
0
  6
CONTINUOUS
 62
     7
 10
-111.2252
 20
-92.308983
 40
1
 50
210
 51
270
  0
ARC
  8
0
  6
CONTINUOUS
 62
     7
 10
-114.978
 20
-89.808983
 40
1
 50
30.000001
 51
90.000003
  0
ARC
  8
0
  6
CONTINUOUS
 62
     7
 10
-130.98643
 20
-89.808983
 40
1
 50
90.000003
 51
135
  0
ARC
  8
0
  6
CONTINUOUS
 62
     7
 10
-133.31487
 20
-89.308983
 40
1
 50
270
 51
315
  0
ARC
  8
0
  6
CONTINUOUS
 62
     7
 10
-111.2252
 20
-168.30899
 40
1
 50
90.000003
 51
150
  0
ARC
  8
0
  6
CONTINUOUS
 62
     7
 10
-114.978
 20
-170.80899
 40
1
 50
270
 51
330
  0
ARC
  8
0
  6
CONTINUOUS
 62
     7
 10
-130.98643
 20
-170.80899
 40
1
 50
225
 51
270
  0
ARC
  8
0
  6
CONTINUOUS
 62
     7
 10
-167.34854
 20
167.34715
 40
1
 50
45.000001
 51
90.000003
  0
ARC
  8
0
  6
CONTINUOUS
 62
     7
 10
-165.52011
 20
133.34715
 40
1
 50
90.000003
 51
135
  0
ARC
  8
0
  6
CONTINUOUS
 62
     7
 10
-167.34854
 20
134.34715
 40
1
 50
270
 51
315
  0
ARC
  8
0
  6
CONTINUOUS
 62
     7
 10
-165.52011
 20
168.34715
 40
1
 50
225
 51
270
  0
ARC
  8
0
  6
CONTINUOUS
 62
     7
 10
-30.786598
 20
169.5507
 40
1
 50
225
 51
270
  0
ARC
  8
0
  6
CONTINUOUS
 62
     7
 10
-32.615028
 20
168.5507
 40
1
 50
45.000001
 51
90.000003
  0
ARC
  8
0
  6
CONTINUOUS
 62
     7
 10
-32.615028
 20
129.5507
 40
1
 50
270
 51
315
  0
ARC
  8
0
  6
CONTINUOUS
 62
     7
 10
-30.786598
 20
128.5507
 40
1
 50
90.000003
 51
135
  0
ARC
  8
0
  6
CONTINUOUS
 62
     7
 10
-80.615082
 20
173.0507
 40
1
 50
270
 51
315
  0
ARC
  8
0
  6
CONTINUOUS
 62
     7
 10
-80.615082
 20
125.05071
 40
1
 50
45.000001
 51
89.999996
  0
ARC
  8
0
  6
CONTINUOUS
 62
     7
 10
-78.286652
 20
125.55071
 40
1
 50
225
 51
270
  0
ARC
  8
0
  6
CONTINUOUS
 62
     7
 10
-78.286652
 20
172.5507
 40
1
 50
89.999996
 51
135
  0
ARC
  8
0
  6
CONTINUOUS
 62
     7
 10
254.03018
 20
123.35717
 40
1
 50
270
 51
315
  0
ARC
  8
0
  6
CONTINUOUS
 62
     7
 10
256.35861
 20
122.85717
 40
1
 50
90.000003
 51
135
  0
ARC
  8
0
  6
CONTINUOUS
 62
     7
 10
256.35861
 20
170.85716
 40
1
 50
225
 51
270
  0
ARC
  8
0
  6
CONTINUOUS
 62
     7
 10
254.03018
 20
170.35716
 40
1
 50
45.000001
 51
90.000003
  0
ARC
  8
0
  6
CONTINUOUS
 62
     7
 10
101.80807
 20
128.05432
 40
1
 50
90.000003
 51
135
  0
ARC
  8
0
  6
CONTINUOUS
 62
     7
 10
101.80807
 20
169.05432
 40
1
 50
225
 51
270
  0
ARC
  8
0
  6
CONTINUOUS
 62
     7
 10
99.979645
 20
168.05432
 40
1
 50
45.000001
 51
90.000003
  0
ARC
  8
0
  6
CONTINUOUS
 62
     7
 10
99.979645
 20
129.05432
 40
1
 50
270
 51
315
  0
ARC
  8
0
  6
CONTINUOUS
 62
     7
 10
-279.60046
 20
14.778305
 40
1
 50
270
 51
315
  0
ARC
  8
0
  6
CONTINUOUS
 62
     7
 10
-277.77203
 20
13.778305
 40
1
 50
90.000003
 51
135
  0
ARC
  8
0
  6
CONTINUOUS
 62
     7
 10
-277.77203
 20
54.778305
 40
1
 50
225
 51
270
  0
ARC
  8
0
  6
CONTINUOUS
 62
     7
 10
-279.60046
 20
53.778305
 40
1
 50
45.000001
 51
90.000003
  0
ARC
  8
0
  6
CONTINUOUS
 62
     7
 10
198.53012
 20
175.85715
 40
1
 50
270
 51
315
  0
ARC
  8
0
  6
CONTINUOUS
 62
     7
 10
198.53012
 20
117.85715
 40
1
 50
45.000001
 51
89.999996
  0
ARC
  8
0
  6
CONTINUOUS
 62
     7
 10
201.35855
 20
117.85715
 40
1
 50
225
 51
270
  0
ARC
  8
0
  6
CONTINUOUS
 62
     7
 10
201.35855
 20
175.85715
 40
1
 50
89.999996
 51
135
  0
ARC
  8
0
  6
CONTINUOUS
 62
     7
 10
-133.70969
 20
56.081131
 40
1
 50
45.000001
 51
90.000003
  0
ARC
  8
0
  6
CONTINUOUS
 62
     7
 10
-133.70969
 20
9.081131
 40
1
 50
270
 51
315
  0
ARC
  8
0
  6
CONTINUOUS
 62
     7
 10
-131.38126
 20
8.581131
 40
1
 50
90.000003
 51
135
  0
ARC
  8
0
  6
CONTINUOUS
 62
     7
 10
-131.38126
 20
56.581131
 40
1
 50
225
 51
270
  0
ARC
  8
0
  6
CONTINUOUS
 62
     7
 10
25.758465
 20
4.1468582
 40
1
 50
270
 51
315
  0
ARC
  8
0
  6
CONTINUOUS
 62
     7
 10
28.586895
 20
4.1468582
 40
1
 50
90.000003
 51
135
  0
ARC
  8
0
  6
CONTINUOUS
 62
     7
 10
28.586895
 20
62.146858
 40
1
 50
225
 51
270
  0
ARC
  8
0
  6
CONTINUOUS
 62
     7
 10
25.758465
 20
62.146858
 40
1
 50
45.000001
 51
90.000003
  0
ARC
  8
0
  6
CONTINUOUS
 62
     7
 10
-34.2416
 20
65.146858
 40
1
 50
270
 51
315
  0
ARC
  8
0
  6
CONTINUOUS
 62
     7
 10
-34.2416
 20
1.1468544
 40
1
 50
45.000001
 51
89.999996
  0
ARC
  8
0
  6
CONTINUOUS
 62
     7
 10
-31.66317
 20
1.3968544
 40
1
 50
225
 51
270
  0
ARC
  8
0
  6
CONTINUOUS
 62
     7
 10
-31.66317
 20
64.896858
 40
1
 50
89.999996
 51
135
  0
ARC
  8
0
  6
CONTINUOUS
 62
     7
 10
339.59036
 20
-1.4317589
 40
1
 50
270
 51
315
  0
ARC
  8
0
  6
CONTINUOUS
 62
     7
 10
342.16879
 20
-1.6817589
 40
1
 50
90.000003
 51
135
  0
ARC
  8
0
  6
CONTINUOUS
 62
     7
 10
342.16879
 20
62.318245
 40
1
 50
225
 51
270
  0
ARC
  8
0
  6
CONTINUOUS
 62
     7
 10
339.59036
 20
62.068245
 40
1
 50
45.000001
 51
90.000003
  0
ARC
  8
0
  6
CONTINUOUS
 62
     7
 10
-190.63132
 20
64.331131
 40
1
 50
89.999996
 51
135
  0
ARC
  8
0
  6
CONTINUOUS
 62
     7
 10
-193.20975
 20
64.581131
 40
1
 50
270
 51
315
  0
ARC
  8
0
  6
CONTINUOUS
 62
     7
 10
-193.20975
 20
0.5811348
 40
1
 50
45.000001
 51
89.999996
  0
ARC
  8
0
  6
CONTINUOUS
 62
     7
 10
-190.63132
 20
0.8311348
 40
1
 50
225
 51
270
  0
ARC
  8
0
  6
CONTINUOUS
 62
     7
 10
188.85805
 20
59.318245
 40
1
 50
45.000001
 51
90.000003
  0
ARC
  8
0
  6
CONTINUOUS
 62
     7
 10
188.85805
 20
1.3182411
 40
1
 50
270
 51
315
  0
ARC
  8
0
  6
CONTINUOUS
 62
     7
 10
191.68648
 20
1.3182411
 40
1
 50
90.000003
 51
135
  0
ARC
  8
0
  6
CONTINUOUS
 62
     7
 10
191.68648
 20
59.318245
 40
1
 50
225
 51
270
  0
ARC
  8
0
  6
CONTINUOUS
 62
     7
 10
122.85799
 20
-7.6817589
 40
1
 50
45.000001
 51
89.999996
  0
ARC
  8
0
  6
CONTINUOUS
 62
     7
 10
126.18642
 20
-8.1817589
 40
1
 50
225
 51
270
  0
ARC
  8
0
  6
CONTINUOUS
 62
     7
 10
126.18642
 20
68.818245
 40
1
 50
89.999996
 51
135
  0
ARC
  8
0
  6
CONTINUOUS
 62
     7
 10
122.85799
 20
68.318245
 40
1
 50
270
 51
315
  0
ARC
  8
0
  6
CONTINUOUS
 62
     7
 10
-303.58356
 20
176.1436
 40
6
 50
238.61182
 51
270
  0
ARC
  8
0
  6
CONTINUOUS
 62
     7
 10
-303.58356
 20
129.1436
 40
6
 50
90.000003
 51
121.38812
  0
ARC
  8
0
  6
CONTINUOUS
 62
     7
 10
-314.26062
 20
146.6436
 40
14.5
 50
270
 51
301.3882
  0
ARC
  8
0
  6
CONTINUOUS
 62
     7
 10
-314.26062
 20
158.6436
 40
14.5
 50
58.611745
 51
89.999962
  0
ARC
  8
0
  6
CONTINUOUS
 62
     7
 10
-180.9343
 20
172.34715
 40
4
 50
214.22886
 51
269.99998
  0
ARC
  8
0
  6
CONTINUOUS
 62
     7
 10
-180.9343
 20
129.34715
 40
4
 50
90.000016
 51
145.77114
  0
ARC
  8
0
  6
CONTINUOUS
 62
     7
 10
-194.16306
 20
138.34715
 40
12
 50
270
 51
325.77115
  0
ARC
  8
0
  6
CONTINUOUS
 62
     7
 10
-194.16306
 20
163.34715
 40
12
 50
34.228861
 51
90.000003
  0
ARC
  8
0
  6
CONTINUOUS
 62
     7
 10
-60.20084
 20
138.5507
 40
14
 50
269.99993
 51
306.86986
  0
ARC
  8
0
  6
CONTINUOUS
 62
     7
 10
-48.200844
 20
122.55071
 40
6
 50
89.999962
 51
126.86985
  0
ARC
  8
0
  6
CONTINUOUS
 62
     7
 10
-60.20084
 20
159.5507
 40
14
 50
53.130085
 51
90.000016
  0
ARC
  8
0
  6
CONTINUOUS
 62
     7
 10
-48.200844
 20
175.5507
 40
6
 50
233.1301
 51
269.99998
  0
ARC
  8
0
  6
CONTINUOUS
 62
     7
 10
68.839844
 20
161.55432
 40
17
 50
42.684912
 51
90.000003
  0
ARC
  8
0
  6
CONTINUOUS
 62
     7
 10
68.839844
 20
135.55432
 40
17.00001
 50
270
 51
317.31511
  0
ARC
  8
0
  6
CONTINUOUS
 62
     7
 10
90.525093
 20
181.55432
 40
12.5
 50
222.68491
 51
270
  0
ARC
  8
0
  6
CONTINUOUS
 62
     7
 10
90.525108
 20
115.55433
 40
12.5
 50
90.000003
 51
137.31511
  0
ARC
  8
0
  6
CONTINUOUS
 62
     7
 10
222.11505
 20
160.35716
 40
16.5
 50
53.805556
 51
89.999962
  0
ARC
  8
0
  6
CONTINUOUS
 62
     7
 10
222.11505
 20
133.35716
 40
16.50001
 50
269.99998
 51
306.19447
  0
ARC
  8
0
  6
CONTINUOUS
 62
     7
 10
238.94508
 20
183.35716
 40
12
 50
233.80556
 51
270
  0
ARC
  8
0
  6
CONTINUOUS
 62
     7
 10
238.94511
 20
110.35717
 40
12
 50
90.000003
 51
126.19448
  0
ARC
  8
0
  6
CONTINUOUS
 62
     7
 10
-314.18628
 20
45.278305
 40
21.75
 50
43.146879
 51
89.999962
  0
ARC
  8
0
  6
CONTINUOUS
 62
     7
 10
-314.18628
 20
23.278305
 40
21.75
 50
269.99998
 51
316.85312
  0
ARC
  8
0
  6
CONTINUOUS
 62
     7
 10
-285.91415
 20
-3.2216988
 40
17
 50
90.000003
 51
136.85313
  0
ARC
  8
0
  6
CONTINUOUS
 62
     7
 10
-285.91415
 20
71.778297
 40
17
 50
223.14687
 51
270
  0
ARC
  8
0
  6
CONTINUOUS
 62
     7
 10
-168.7955
 20
19.581131
 40
19.75
 50
269.99998
 51
310.30695
  0
ARC
  8
0
  6
CONTINUOUS
 62
     7
 10
-168.7955
 20
45.581131
 40
19.75
 50
49.693055
 51
89.999962
  0
ARC
  8
0
  6
CONTINUOUS
 62
     7
 10
-146.31635
 20
-6.9188652
 40
15
 50
90.000003
 51
130.30695
  0
ARC
  8
0
  6
CONTINUOUS
 62
     7
 10
-146.31635
 20
72.081139
 40
15
 50
229.69305
 51
270
  0
ARC
  8
0
  6
CONTINUOUS
 62
     7
 10
-7.4463
 20
53.646851
 40
12.250008
 50
64.735638
 51
89.999962
  0
ARC
  8
0
  6
CONTINUOUS
 62
     7
 10
-7.4463
 20
12.646858
 40
12.25
 50
269.99998
 51
295.26442
  0
ARC
  8
0
  6
CONTINUOUS
 62
     7
 10
4.8240938
 20
-13.353142
 40
16.5
 50
90.000003
 51
115.26441
  0
ARC
  8
0
  6
CONTINUOUS
 62
     7
 10
4.8240728
 20
79.646858
 40
16.5
 50
244.73564
 51
270
  0
ARC
  8
0
  6
CONTINUOUS
 62
     7
 10
149.27223
 20
44.818237
 40
25.000002
 50
48.590304
 51
90.000003
  0
ARC
  8
0
  6
CONTINUOUS
 62
     7
 10
149.27223
 20
15.818245
 40
25
 50
270
 51
311.40964
  0
ARC
  8
0
  6
CONTINUOUS
 62
     7
 10
174.40688
 20
-12.681759
 40
13.000004
 50
90.000016
 51
131.40963
  0
ARC
  8
0
  6
CONTINUOUS
 62
     7
 10
174.40688
 20
73.318245
 40
13.000003
 50
228.59032
 51
270
  0
ARC
  8
0
  6
CONTINUOUS
 62
     7
 10
299.75452
 20
48.818237
 40
21.000002
 50
51.467791
 51
89.999962
  0
ARC
  8
0
  6
CONTINUOUS
 62
     7
 10
299.75452
 20
11.818245
 40
21
 50
269.99998
 51
308.53221
  0
ARC
  8
0
  6
CONTINUOUS
 62
     7
 10
319.06613
 20
-12.431759
 40
10
 50
90.000003
 51
128.53221
  0
ARC
  8
0
  6
CONTINUOUS
 62
     7
 10
319.06613
 20
73.068245
 40
10
 50
231.46779
 51
270
  0
ARC
  8
0
  6
CONTINUOUS
 62
     7
 10
36.873318
 20
-79.808952
 40
1.5
 50
258.7771
 51
315
  0
ARC
  8
0
  6
CONTINUOUS
 62
     7
 10
36.873318
 20
-180.80896
 40
1.5
 50
45.000001
 51
90.000003
  0
ARC
  8
0
  6
CONTINUOUS
 62
     7
 10
40.615932
 20
-180.30896
 40
1.5
 50
225
 51
270
  0
ARC
  8
0
  6
CONTINUOUS
 62
     7
 10
65.891754
 20
-82.558952
 40
1.5
 50
210
 51
270
  0
ARC
  8
0
  6
CONTINUOUS
 62
     7
 10
61.128628
 20
-80.308952
 40
1.5
 50
30.000001
 51
90.000003
  0
ARC
  8
0
  6
CONTINUOUS
 62
     7
 10
61.128628
 20
-180.30896
 40
1.5
 50
270
 51
330
  0
ARC
  8
0
  6
CONTINUOUS
 62
     7
 10
65.891754
 20
-178.05896
 40
1.5
 50
90.000003
 51
150
  0
ARC
  8
0
  6
CONTINUOUS
 62
     7
 10
40.615932
 20
-80.308952
 40
1.5
 50
90.000003
 51
135
  0
ARC
  8
0
  6
CONTINUOUS
 62
     7
 10
236.94449
 20
-76.908363
 40
1.5
 50
270
 51
315
  0
ARC
  8
0
  6
CONTINUOUS
 62
     7
 10
236.94449
 20
-190.9084
 40
1.5
 50
45.000001
 51
90.000003
  0
ARC
  8
0
  6
CONTINUOUS
 62
     7
 10
240.6871
 20
-190.4084
 40
1.5
 50
225
 51
270
  0
ARC
  8
0
  6
CONTINUOUS
 62
     7
 10
267.1073
 20
-79.908363
 40
1.5
 50
210
 51
270
  0
ARC
  8
0
  6
CONTINUOUS
 62
     7
 10
262.1998
 20
-77.408363
 40
1.5
 50
30.000001
 51
90.000003
  0
ARC
  8
0
  6
CONTINUOUS
 62
     7
 10
267.1073
 20
-187.90833
 40
1.5
 50
90.000003
 51
150
  0
ARC
  8
0
  6
CONTINUOUS
 62
     7
 10
262.1998
 20
-190.40834
 40
1.5
 50
270
 51
330
  0
ARC
  8
0
  6
CONTINUOUS
 62
     7
 10
240.6871
 20
-77.408363
 40
1.5
 50
90.000003
 51
135
  0
ARC
  8
0
  6
CONTINUOUS
 62
     7
 10
-167.50589
 20
-187.30896
 40
1.5
 50
89.999996
 51
135
  0
ARC
  8
0
  6
CONTINUOUS
 62
     7
 10
-167.50589
 20
-73.308922
 40
1.5
 50
225
 51
270
  0
ARC
  8
0
  6
CONTINUOUS
 62
     7
 10
-171.2485
 20
-73.808922
 40
1.5
 50
45.000001
 51
89.999996
  0
ARC
  8
0
  6
CONTINUOUS
 62
     7
 10
-197.66867
 20
-184.30896
 40
1.5
 50
30.000004
 51
89.999996
  0
ARC
  8
0
  6
CONTINUOUS
 62
     7
 10
-192.7612
 20
-186.80896
 40
1.5
 50
210
 51
270
  0
ARC
  8
0
  6
CONTINUOUS
 62
     7
 10
-197.66867
 20
-76.308983
 40
1.5
 50
270
 51
330
  0
ARC
  8
0
  6
CONTINUOUS
 62
     7
 10
-192.7612
 20
-73.808983
 40
1.5
 50
89.999996
 51
150
  0
ARC
  8
0
  6
CONTINUOUS
 62
     7
 10
-171.2485
 20
-186.80896
 40
1.5
 50
270
 51
315
  0
ARC
  8
0
  6
CONTINUOUS
 62
     7
 10
-288.0939
 20
-170.09949
 40
1
 50
225
 51
270
  0
ARC
  8
0
  6
CONTINUOUS
 62
     7
 10
-290.42233
 20
-170.59949
 40
1
 50
45.000001
 51
90.000003
  0
ARC
  8
0
  6
CONTINUOUS
 62
     7
 10
-268.33267
 20
-91.59948
 40
1
 50
210
 51
270
  0
ARC
  8
0
  6
CONTINUOUS
 62
     7
 10
-272.08548
 20
-89.09948
 40
1
 50
30.000001
 51
90.000003
  0
ARC
  8
0
  6
CONTINUOUS
 62
     7
 10
-288.0939
 20
-89.09948
 40
1
 50
90.000003
 51
135
  0
ARC
  8
0
  6
CONTINUOUS
 62
     7
 10
-290.42233
 20
-88.59948
 40
1
 50
270
 51
315
  0
ARC
  8
0
  6
CONTINUOUS
 62
     7
 10
-268.33267
 20
-167.59949
 40
1
 50
90.000003
 51
150
  0
ARC
  8
0
  6
CONTINUOUS
 62
     7
 10
-272.08548
 20
-170.09949
 40
1
 50
270
 51
330
  0
ARC
  8
0
  6
CONTINUOUS
 62
     7
 10
-314.91013
 20
-108.59948
 40
27.999969
 50
47.65745
 51
89.999962
  0
ARC
  8
0
  6
CONTINUOUS
 62
     7
 10
-314.91013
 20
-150.59949
 40
28.000031
 50
269.99998
 51
312.34266
  0
ARC
  8
0
  6
CONTINUOUS
 62
     7
 10
-291.67227
 20
-83.09948
 40
6.5
 50
227.65745
 51
270
  0
ARC
  8
0
  6
CONTINUOUS
 62
     7
 10
-291.67218
 20
-176.09949
 40
6.5
 50
90.000003
 51
132.34266
  0
ARC
  8
0
  6
CONTINUOUS
 62
     7
 10
-162.75697
 20
-100.80898
 40
26.000061
 50
34.289824
 51
89.999962
  0
ARC
  8
0
  6
CONTINUOUS
 62
     7
 10
-133.42688
 20
-80.808983
 40
9.5
 50
214.28983
 51
270
  0
ARC
  8
0
  6
CONTINUOUS
 62
     7
 10
-162.75697
 20
-159.80899
 40
25.999969
 50
269.99998
 51
325.71008
  0
ARC
  8
0
  6
CONTINUOUS
 62
     7
 10
-133.42699
 20
-179.80899
 40
9.5
 50
90.000003
 51
145.71008
  0
ARC
  8
0
  6
CONTINUOUS
 62
     7
 10
11.025723
 20
-110.80898
 40
36.000061
 50
62.614352
 51
89.999962
  0
ARC
  8
0
  6
CONTINUOUS
 62
     7
 10
37.704441
 20
-59.308949
 40
22
 50
242.61435
 51
267.07388
  0
ARC
  8
0
  6
CONTINUOUS
 62
     7
 10
11.025723
 20
-149.80899
 40
35.999969
 50
269.99998
 51
297.38561
  0
ARC
  8
0
  6
CONTINUOUS
 62
     7
 10
37.704361
 20
-201.30896
 40
22
 50
91.716996
 51
117.38561
  0
ARC
  8
0
  6
CONTINUOUS
 62
     7
 10
202.24124
 20
-172.40833
 40
31
 50
269.99998
 51
317.59102
  0
ARC
  8
0
  6
CONTINUOUS
 62
     7
 10
202.24124
 20
-95.408333
 40
31
 50
42.408928
 51
89.999962
  0
ARC
  8
0
  6
CONTINUOUS
 62
     7
 10
233.99026
 20
-66.408333
 40
12.000006
 50
222.40897
 51
270
  0
ARC
  8
0
  6
CONTINUOUS
 62
     7
 10
233.99026
 20
-201.40834
 40
12.000006
 50
90.000016
 51
137.59096
  0
TEXT
  8
0
  6
CONTINUOUS
 62
     7
 10
-96.008823
 20
266.58456
 40
10
 41
0.84260121
  1
ＲＣＦ－ＭＫ－ＲＳ（径違いソケット）
  0
TEXT
  8
0
  6
CONTINUOUS
 62
     7
 10
-343.78298
 20
189.56561
 40
10
 41
0.84633858
  1
３／４×１／２
  0
TEXT
  8
0
  6
CONTINUOUS
 62
     7
 10
-212.63305
 20
189.56561
 40
10
 41
0.84891105
  1
１×１／２
  0
TEXT
  8
0
  6
CONTINUOUS
 62
     7
 10
-77.352406
 20
187.50026
 40
10
 41
0.84891105
  1
１×３／４
  0
TEXT
  8
0
  6
CONTINUOUS
 62
     7
 10
27.980614
 20
188.53294
 40
10
 41
0.84555565
  1
１１／４×３／４
  0
TEXT
  8
0
  6
CONTINUOUS
 62
     7
 10
195.27424
 20
187.50026
 40
10
 41
0.84739783
  1
１１／４×１
  0
TEXT
  8
0
  6
CONTINUOUS
 62
     7
 10
-345.84835
 20
82.167244
 40
10
 41
0.84555565
  1
１１／２×３／４
  0
TEXT
  8
0
  6
CONTINUOUS
 62
     7
 10
-193.0122
 20
80.101891
 40
10
 41
0.84739783
  1
１１／２×１
  0
TEXT
  8
0
  6
CONTINUOUS
 62
     7
 10
-45.339432
 20
79.069214
 40
10
 41
0.8449534
  1
１１／２×１１／４
  0
TEXT
  8
0
  6
CONTINUOUS
 62
     7
 10
119.88884
 20
82.167244
 40
10
 41
0.84739783
  1
２×１１／４
  0
TEXT
  8
0
  6
CONTINUOUS
 62
     7
 10
270.65962
 20
81.134567
 40
10
 41
0.84739783
  1
２×１１／２
  0
TEXT
  8
0
  6
CONTINUOUS
 62
     7
 10
-333.45623
 20
-67.570877
 40
10
 41
0.84739783
  1
２１／２×２
  0
TEXT
  8
0
  6
CONTINUOUS
 62
     7
 10
-176.48937
 20
-61.374817
 40
10
 41
0.85534224
  1
３×２
  0
TEXT
  8
0
  6
CONTINUOUS
 62
     7
 10
-11.2611
 20
-59.309464
 40
10
 41
0.84739783
  1
３×２１／２
  0
TEXT
  8
0
  6
CONTINUOUS
 62
     7
 10
198.37226
 20
-52.080727
 40
10
 41
0.85534224
  1
４×３
  0
ENDSEC
  0
EOF
