  0
SECTION
  2
HEADER
  9
$EXTMAX
 10
297.25922
 20
211.66544
  9
$EXTMIN
 10
-297.25922
 20
-210.82214
  0
ENDSEC
  0
SECTION
  2
TABLES
  0
TABLE
  2
LTYPE
 70
    22
  0
LTYPE
  2
CONTINUOUS
 70
    64
  3
Solid line
 72
    65
 73
     0
 40
0.000000
  0
LTYPE
  2
DASHED
 70
    64
  3
__ __ __ __ __ __ __ __ __ __ __ __ __ __ __
 72
    65
 73
     2
 40
3.500000
 49
2.000000
 49
-1.500000
  0
LTYPE
  2
CENTER
 70
    64
  3
____ _ ____ _ ____ _ ____ _ ____ _ ____ _ ____
 72
    65
 73
     4
 40
17.500000
 49
13.000000
 49
-1.500000
 49
1.500000
 49
-1.500000
  0
LTYPE
  2
PHANTOM
 70
    64
  3
_____ _ _ _____ _ _ _____ _ _ _____ _ _ ____  
 72
    65
 73
     6
 40
15.500000
 49
8.000000
 49
-1.500000
 49
1.500000
 49
-1.500000
 49
1.500000
 49
-1.500000
  0
LTYPE
  2
DOT
 70
    64
  3
. . . . . . . . . . . . . . . . . . . . . . . .
 72
    65
 73
     2
 40
0.25
 49
0.0
 49
-0.25
  0
ENDTAB
  0
TABLE
  2
LAYER
 70
     1
  0
LAYER
  2
0
 70
     0
 62
     7
  6
CONTINUOUS
  0
ENDTAB
  0
TABLE
  2
STYLE
 70
     1
  0
STYLE
  2
STANDARD
 70
     0
 40
0.000000
 41
1.000000
 50
0.000000
 71
     0
 42
0.200000
  3
txt
  4
BIGFONT
  0
ENDTAB
  0
TABLE
  2
VIEW
 70
     0
  0
ENDTAB
  0
ENDSEC
  0
SECTION
  2
BLOCKS
  0
ENDSEC
  0
SECTION
  2
ENTITIES
  0
POINT
  8
0
  6
CONTINUOUS
 62
     7
 10
-157.47491
 20
-349.823
  0
POINT
  8
0
  6
CONTINUOUS
 62
     7
 10
95.173927
 20
-354.87598
  0
POINT
  8
0
  6
CONTINUOUS
 62
     7
 10
118.70809
 20
-56.750328
  0
POINT
  8
0
  6
CONTINUOUS
 62
     7
 10
-62.392174
 20
-55.813816
  0
POINT
  8
0
  6
CONTINUOUS
 62
     7
 10
-211.37334
 20
-63.487629
  0
POINT
  8
0
  6
CONTINUOUS
 62
     7
 10
97.92997
 20
126.99247
  0
POINT
  8
0
  6
CONTINUOUS
 62
     7
 10
-51.758602
 20
126.00115
  0
POINT
  8
0
  6
CONTINUOUS
 62
     7
 10
-188.56007
 20
127.98378
  0
POINT
  8
0
  6
CONTINUOUS
 62
     7
 10
94.949905
 20
-457.70239
  0
POINT
  8
0
  6
CONTINUOUS
 62
     7
 10
-188.66449
 20
87.319885
  0
POINT
  8
0
  6
CONTINUOUS
 62
     7
 10
-211.45969
 20
-123.56432
  0
POINT
  8
0
  6
CONTINUOUS
 62
     7
 10
118.51836
 20
-135.45581
  0
POINT
  8
0
  6
CONTINUOUS
 62
     7
 10
-52.013844
 20
82.222931
  0
POINT
  8
0
  6
CONTINUOUS
 62
     7
 10
97.744812
 20
71.48848
  0
POINT
  8
0
  6
CONTINUOUS
 62
     7
 10
-62.260151
 20
-122.98327
  0
POINT
  8
0
  6
CONTINUOUS
 62
     7
 10
-157.60216
 20
-441.06177
  0
LINE
  8
0
  6
CONTINUOUS
 62
     7
 10
287
 20
-220
 11
287
 21
-620
  0
LINE
  8
0
  6
CONTINUOUS
 62
     7
 10
-287
 20
-220
 11
287
 21
-220
  0
LINE
  8
0
  6
CONTINUOUS
 62
     7
 10
-287
 20
-220
 11
-287
 21
-620
  0
LINE
  8
0
  6
CONTINUOUS
 62
     7
 10
-287
 20
-620
 11
287
 21
-620
  0
LINE
  8
0
  6
CENTER
 62
     7
 10
-211.18686
 20
127.98378
 11
-131.2572
 21
127.98378
  0
LINE
  8
0
  6
CENTER
 62
     7
 10
-188.56007
 20
149.02823
 11
-188.56007
 21
72.394646
  0
LINE
  8
0
  6
CENTER
 62
     7
 10
-51.758602
 20
151.50029
 11
-51.758602
 21
63.74247
  0
LINE
  8
0
  6
CENTER
 62
     7
 10
-78.108093
 20
126.00115
 11
15.340721
 21
126.00115
  0
LINE
  8
0
  6
CENTER
 62
     7
 10
66.100174
 20
126.99247
 11
173.47594
 21
126.99247
  0
LINE
  8
0
  6
CENTER
 62
     7
 10
97.92997
 20
154.47943
 11
97.92997
 21
54.912807
  0
LINE
  8
0
  6
CENTER
 62
     7
 10
-211.37334
 20
-30.987801
 11
-211.37334
 21
-140.31584
  0
LINE
  8
0
  6
CENTER
 62
     7
 10
-244.63878
 20
-63.487629
 11
-130.75539
 21
-63.487629
  0
LINE
  8
0
  6
CENTER
 62
     7
 10
-99.844185
 20
-55.813816
 11
27.705202
 21
-55.813816
  0
LINE
  8
0
  6
CENTER
 62
     7
 10
-62.392174
 20
-22.527891
 11
-62.392174
 21
-143.56966
  0
LINE
  8
0
  6
CENTER
 62
     7
 10
118.70809
 20
-18.62332
 11
118.70809
 21
-155.93414
  0
LINE
  8
0
  6
CENTER
 62
     7
 10
71.306267
 20
-56.750328
 11
218.37852
 21
-56.750328
  0
LINE
  8
0
  6
CENTER
 62
     7
 10
-157.47491
 20
-301.70486
 11
-157.47491
 21
-459.18933
  0
LINE
  8
0
  6
CENTER
 62
     7
 10
-208.52147
 20
-349.823
 11
-44.5294
 21
-349.823
  0
LINE
  8
0
  6
CENTER
 62
     7
 10
95.173927
 20
-295.84802
 11
95.173927
 21
-478.06143
  0
LINE
  8
0
  6
CENTER
 62
     7
 10
21.848343
 20
-354.87598
 11
226.18767
 21
-354.87598
  0
LINE
  8
0
  6
CONTINUOUS
 62
     7
 10
-138.56007
 20
144.48378
 11
-138.56007
 21
111.48378
  0
LINE
  8
0
  6
CONTINUOUS
 62
     7
 10
-155.14586
 20
144.48378
 11
-138.56007
 21
144.48378
  0
LINE
  8
0
  6
CONTINUOUS
 62
     7
 10
-155.56007
 20
143.80423
 11
-155.56007
 21
112.35651
  0
LINE
  8
0
  6
CONTINUOUS
 62
     7
 10
-156.2672
 20
145.19089
 11
-155.85298
 21
144.77669
  0
LINE
  8
0
  6
CONTINUOUS
 62
     7
 10
-176.06007
 20
145.48378
 11
-156.97429
 21
145.48378
  0
LINE
  8
0
  6
CONTINUOUS
 62
     7
 10
-156.56007
 20
144.72241
 11
-156.56007
 21
111.43833
  0
LINE
  8
0
  6
CONTINUOUS
 62
     7
 10
-164.06007
 20
110.48378
 11
-156.97429
 21
110.48378
  0
LINE
  8
0
  6
CONTINUOUS
 62
     7
 10
-156.2672
 20
110.77668
 11
-155.85298
 21
111.1909
  0
LINE
  8
0
  6
CONTINUOUS
 62
     7
 10
-155.14586
 20
111.48378
 11
-138.56007
 21
111.48378
  0
LINE
  8
0
  6
CONTINUOUS
 62
     7
 10
-169.06007
 20
78.98378
 11
-208.06007
 21
78.98378
  0
LINE
  8
0
  6
CONTINUOUS
 62
     7
 10
-169.06007
 20
95.569572
 11
-169.06007
 21
78.98378
  0
LINE
  8
0
  6
CONTINUOUS
 62
     7
 10
-168.06007
 20
106.48378
 11
-168.06007
 21
97.397995
  0
LINE
  8
0
  6
CONTINUOUS
 62
     7
 10
-170.07645
 20
95.98378
 11
-207.29205
 21
95.98378
  0
LINE
  8
0
  6
CONTINUOUS
 62
     7
 10
-168.35297
 20
96.690887
 11
-168.76718
 21
96.276672
  0
LINE
  8
0
  6
CONTINUOUS
 62
     7
 10
-169.0444
 20
96.98378
 11
-208.2056
 21
96.98378
  0
LINE
  8
0
  6
CONTINUOUS
 62
     7
 10
-209.06007
 20
112.48378
 11
-209.06007
 21
97.397995
  0
LINE
  8
0
  6
CONTINUOUS
 62
     7
 10
-208.76718
 20
96.690887
 11
-208.35297
 21
96.27668
  0
LINE
  8
0
  6
CONTINUOUS
 62
     7
 10
-208.06007
 20
95.569572
 11
-208.06007
 21
78.98378
  0
LINE
  8
0
  6
CONTINUOUS
 62
     7
 10
-28.758595
 20
71.001152
 11
-74.758606
 21
71.001152
  0
LINE
  8
0
  6
CONTINUOUS
 62
     7
 10
-28.758595
 20
92.586937
 11
-28.758595
 21
71.001152
  0
LINE
  8
0
  6
CONTINUOUS
 62
     7
 10
-27.258595
 20
100.50115
 11
-27.258595
 21
94.915367
  0
LINE
  8
0
  6
CONTINUOUS
 62
     7
 10
-30.430187
 20
93.001152
 11
-73.209808
 21
93.001152
  0
LINE
  8
0
  6
CONTINUOUS
 62
     7
 10
-27.551493
 20
94.20826
 11
-28.465706
 21
93.294044
  0
LINE
  8
0
  6
CONTINUOUS
 62
     7
 10
-29.085499
 20
94.501152
 11
-74.646576
 21
94.501152
  0
LINE
  8
0
  6
CONTINUOUS
 62
     7
 10
-76.258606
 20
110.50115
 11
-76.258606
 21
94.915359
  0
LINE
  8
0
  6
CONTINUOUS
 62
     7
 10
-74.758606
 20
92.586937
 11
-74.758606
 21
71.001152
  0
LINE
  8
0
  6
CONTINUOUS
 62
     7
 10
-75.965706
 20
94.20826
 11
-75.051498
 21
93.294052
  0
LINE
  8
0
  6
CONTINUOUS
 62
     7
 10
125.92998
 20
60.99247
 11
69.92997
 21
60.99247
  0
LINE
  8
0
  6
CONTINUOUS
 62
     7
 10
125.92998
 20
81.57827
 11
125.92998
 21
60.99247
  0
LINE
  8
0
  6
CONTINUOUS
 62
     7
 10
127.92998
 20
97.49247
 11
127.92998
 21
84.406685
  0
LINE
  8
0
  6
CONTINUOUS
 62
     7
 10
123.65776
 20
81.99247
 11
70.93721
 21
81.99247
  0
LINE
  8
0
  6
CONTINUOUS
 62
     7
 10
127.63708
 20
83.699585
 11
126.22287
 21
82.28537
  0
LINE
  8
0
  6
CONTINUOUS
 62
     7
 10
125.80922
 20
83.99247
 11
69.647919
 21
83.99247
  0
LINE
  8
0
  6
CONTINUOUS
 62
     7
 10
67.92997
 20
106.99248
 11
67.92997
 21
84.406685
  0
LINE
  8
0
  6
CONTINUOUS
 62
     7
 10
68.22287
 20
83.699585
 11
69.637085
 21
82.28537
  0
LINE
  8
0
  6
CONTINUOUS
 62
     7
 10
69.92997
 20
81.57827
 11
69.92997
 21
60.99247
  0
LINE
  8
0
  6
CONTINUOUS
 62
     7
 10
-180.37334
 20
-134.48764
 11
-242.37334
 21
-134.48764
  0
LINE
  8
0
  6
CONTINUOUS
 62
     7
 10
-180.37334
 20
-113.90185
 11
-180.37334
 21
-134.48764
  0
LINE
  8
0
  6
CONTINUOUS
 62
     7
 10
-178.62334
 20
-98.487633
 11
-178.62334
 21
-111.32342
  0
LINE
  8
0
  6
CONTINUOUS
 62
     7
 10
-182.39555
 20
-113.48763
 11
-240.35905
 21
-113.48763
  0
LINE
  8
0
  6
CONTINUOUS
 62
     7
 10
-178.91623
 20
-112.03053
 11
-180.08044
 21
-113.19475
  0
LINE
  8
0
  6
CONTINUOUS
 62
     7
 10
-244.12334
 20
-89.987625
 11
-244.12334
 21
-111.32342
  0
LINE
  8
0
  6
CONTINUOUS
 62
     7
 10
-243.83046
 20
-112.03053
 11
-242.66624
 21
-113.19475
  0
LINE
  8
0
  6
CONTINUOUS
 62
     7
 10
-242.37334
 20
-113.90185
 11
-242.37334
 21
-134.48764
  0
LINE
  8
0
  6
CONTINUOUS
 62
     7
 10
-180.70354
 20
-111.73763
 11
-241.97275
 21
-111.73763
  0
LINE
  8
0
  6
CONTINUOUS
 62
     7
 10
-25.39217
 20
-133.81381
 11
-99.392174
 21
-133.81381
  0
LINE
  8
0
  6
CONTINUOUS
 62
     7
 10
-25.39217
 20
-113.22803
 11
-25.39217
 21
-133.81381
  0
LINE
  8
0
  6
CONTINUOUS
 62
     7
 10
-22.89217
 20
-93.56382
 11
-22.89217
 21
-109.8996
  0
LINE
  8
0
  6
CONTINUOUS
 62
     7
 10
-27.607464
 20
-112.81382
 11
-97.519295
 21
-112.81382
  0
LINE
  8
0
  6
CONTINUOUS
 62
     7
 10
-23.185064
 20
-110.60671
 11
-25.099277
 21
-112.52093
  0
LINE
  8
0
  6
CONTINUOUS
 62
     7
 10
-25.677216
 20
-110.31382
 11
-99.901344
 21
-110.31382
  0
LINE
  8
0
  6
CONTINUOUS
 62
     7
 10
-101.89217
 20
-84.563812
 11
-101.89217
 21
-109.8996
  0
LINE
  8
0
  6
CONTINUOUS
 62
     7
 10
-101.59927
 20
-110.60671
 11
-99.685059
 21
-112.52093
  0
LINE
  8
0
  6
CONTINUOUS
 62
     7
 10
-99.392174
 20
-113.22803
 11
-99.392174
 21
-133.81381
  0
LINE
  8
0
  6
CONTINUOUS
 62
     7
 10
164.9581
 20
-146.75032
 11
72.458092
 21
-146.75032
  0
LINE
  8
0
  6
CONTINUOUS
 62
     7
 10
164.9581
 20
-125.61636
 11
164.9581
 21
-146.75032
  0
LINE
  8
0
  6
CONTINUOUS
 62
     7
 10
163.50696
 20
-124.75033
 11
73.923164
 21
-124.75033
  0
LINE
  8
0
  6
CONTINUOUS
 62
     7
 10
160.67393
 20
-467.87598
 11
29.673931
 21
-467.87598
  0
LINE
  8
0
  6
CONTINUOUS
 62
     7
 10
160.67393
 20
-447.742
 11
160.67393
 21
-467.87598
  0
LINE
  8
0
  6
CONTINUOUS
 62
     7
 10
167.17393
 20
-419.87598
 11
167.17393
 21
-442.25717
  0
LINE
  8
0
  6
CONTINUOUS
 62
     7
 10
158.82426
 20
-446.87598
 11
31.250072
 21
-446.87598
  0
LINE
  8
0
  6
CONTINUOUS
 62
     7
 10
166.42393
 20
-443.55621
 11
161.42393
 21
-446.44296
  0
LINE
  8
0
  6
CONTINUOUS
 62
     7
 10
163.68114
 20
-443.1232
 11
26.069408
 21
-443.1232
  0
LINE
  8
0
  6
CONTINUOUS
 62
     7
 10
23.173931
 20
-418.74451
 11
23.173931
 21
-442.25717
  0
LINE
  8
0
  6
CONTINUOUS
 62
     7
 10
23.923933
 20
-443.55621
 11
28.923929
 21
-446.44296
  0
LINE
  8
0
  6
CONTINUOUS
 62
     7
 10
29.673931
 20
-447.742
 11
29.673931
 21
-467.87598
  0
LINE
  8
0
  6
CONTINUOUS
 62
     7
 10
170.2081
 20
-102.25033
 11
170.2081
 21
-120.85323
  0
LINE
  8
0
  6
CONTINUOUS
 62
     7
 10
72.458092
 20
-125.37167
 11
72.458092
 21
-146.75032
  0
LINE
  8
0
  6
CONTINUOUS
 62
     7
 10
-104.97491
 20
-430.68903
 11
-104.97491
 21
-451.823
  0
LINE
  8
0
  6
CONTINUOUS
 62
     7
 10
-99.474915
 20
-408.323
 11
-99.474915
 21
-425.78156
  0
LINE
  8
0
  6
CONTINUOUS
 62
     7
 10
-104.97491
 20
-451.823
 11
-209.97491
 21
-451.823
  0
LINE
  8
0
  6
CONTINUOUS
 62
     7
 10
-107.25916
 20
-429.823
 11
-207.97917
 21
-429.823
  0
LINE
  8
0
  6
CONTINUOUS
 62
     7
 10
-100.22492
 20
-427.08057
 11
-104.2249
 21
-429.38995
  0
LINE
  8
0
  6
CONTINUOUS
 62
     7
 10
-102.05315
 20
-426.64752
 11
-213.34764
 21
-426.64752
  0
LINE
  8
0
  6
CONTINUOUS
 62
     7
 10
169.45808
 20
-122.15226
 11
165.7081
 21
-124.31732
  0
LINE
  8
0
  6
CONTINUOUS
 62
     7
 10
168.38089
 20
-121.71926
 11
68.719154
 21
-121.71926
  0
LINE
  8
0
  6
CONTINUOUS
 62
     7
 10
67.208092
 20
-99.719254
 11
67.208092
 21
-120.85323
  0
LINE
  8
0
  6
CONTINUOUS
 62
     7
 10
67.958076
 20
-122.15226
 11
71.708084
 21
-124.31733
  0
LINE
  8
0
  6
CONTINUOUS
 62
     7
 10
-209.97491
 20
-430.68903
 11
-209.97491
 21
-451.823
  0
LINE
  8
0
  6
CONTINUOUS
 62
     7
 10
-215.47491
 20
-403.64752
 11
-215.47491
 21
-425.78156
  0
LINE
  8
0
  6
CONTINUOUS
 62
     7
 10
-214.72493
 20
-427.08054
 11
-210.72493
 21
-429.38995
  0
LINE
  8
0
  6
CONTINUOUS
 62
     7
 10
168.38089
 20
-99.719261
 11
68.719154
 21
-99.719261
  0
LINE
  8
0
  6
CONTINUOUS
 62
     7
 10
166.84496
 20
-97.219261
 11
70.681023
 21
-97.219261
  0
LINE
  8
0
  6
CONTINUOUS
 62
     7
 10
-102.05315
 20
-403.64752
 11
-213.34764
 21
-403.64752
  0
LINE
  8
0
  6
CONTINUOUS
 62
     7
 10
163.68114
 20
-418.1232
 11
26.069408
 21
-418.1232
  0
LINE
  8
0
  6
CONTINUOUS
 62
     7
 10
162.04198
 20
-415.6232
 11
26.96928
 21
-415.6232
  0
LINE
  8
0
  6
CONTINUOUS
 62
     7
 10
69.708092
 20
-96.597923
 11
69.708092
 21
-97.75032
  0
LINE
  8
0
  6
CONTINUOUS
 62
     7
 10
67.64743
 20
-99.279922
 11
69.268761
 21
-97.658592
  0
LINE
  8
0
  6
CONTINUOUS
 62
     7
 10
-212.97493
 20
-397.823
 11
-212.97493
 21
-400.52625
  0
LINE
  8
0
  6
CONTINUOUS
 62
     7
 10
-215.03561
 20
-403.20822
 11
-213.41428
 21
-401.58688
  0
LINE
  8
0
  6
CONTINUOUS
 62
     7
 10
25.673931
 20
-405.37598
 11
25.673931
 21
-415.00186
  0
LINE
  8
0
  6
CONTINUOUS
 62
     7
 10
23.613262
 20
-417.68387
 11
25.234592
 21
-416.06253
  0
LINE
  8
0
  6
CONTINUOUS
 62
     7
 10
8.2413988
 20
145.50116
 11
8.2413988
 21
106.50115
  0
LINE
  8
0
  6
CONTINUOUS
 62
     7
 10
-8.3443937
 20
145.50116
 11
8.2413988
 21
145.50116
  0
LINE
  8
0
  6
CONTINUOUS
 62
     7
 10
-40.258602
 20
146.50116
 11
-10.172816
 21
146.50116
  0
LINE
  8
0
  6
CONTINUOUS
 62
     7
 10
-8.7586012
 20
144.48479
 11
-8.7586012
 21
107.26917
  0
LINE
  8
0
  6
CONTINUOUS
 62
     7
 10
-9.4657097
 20
146.20825
 11
-9.0514975
 21
145.79404
  0
LINE
  8
0
  6
CONTINUOUS
 62
     7
 10
-9.7586012
 20
145.51683
 11
-9.7586012
 21
106.35564
  0
LINE
  8
0
  6
CONTINUOUS
 62
     7
 10
-22.258595
 20
105.50115
 11
-10.172816
 21
105.50115
  0
LINE
  8
0
  6
CONTINUOUS
 62
     7
 10
-9.4657097
 20
105.79404
 11
-9.0514927
 21
106.20826
  0
LINE
  8
0
  6
CONTINUOUS
 62
     7
 10
-8.3443937
 20
106.50115
 11
8.2413988
 21
106.50115
  0
LINE
  8
0
  6
CONTINUOUS
 62
     7
 10
165.92996
 20
149.99248
 11
165.92996
 21
103.99247
  0
LINE
  8
0
  6
CONTINUOUS
 62
     7
 10
144.34418
 20
149.99248
 11
165.92996
 21
149.99248
  0
LINE
  8
0
  6
CONTINUOUS
 62
     7
 10
112.42997
 20
151.49248
 11
142.01575
 21
151.49248
  0
LINE
  8
0
  6
CONTINUOUS
 62
     7
 10
143.92996
 20
148.32089
 11
143.92996
 21
105.54127
  0
LINE
  8
0
  6
CONTINUOUS
 62
     7
 10
142.72285
 20
151.19958
 11
143.63707
 21
150.28537
  0
LINE
  8
0
  6
CONTINUOUS
 62
     7
 10
142.42996
 20
149.66557
 11
142.42996
 21
104.1045
  0
LINE
  8
0
  6
CONTINUOUS
 62
     7
 10
132.92998
 20
102.49247
 11
142.01575
 21
102.49247
  0
LINE
  8
0
  6
CONTINUOUS
 62
     7
 10
144.34418
 20
103.99247
 11
165.92996
 21
103.99247
  0
LINE
  8
0
  6
CONTINUOUS
 62
     7
 10
142.72285
 20
102.78536
 11
143.63707
 21
103.69958
  0
LINE
  8
0
  6
CONTINUOUS
 62
     7
 10
-137.37334
 20
-35.487621
 11
-137.37334
 21
-91.487633
  0
LINE
  8
0
  6
CONTINUOUS
 62
     7
 10
-157.95914
 20
-35.487621
 11
-137.37334
 21
-35.487621
  0
LINE
  8
0
  6
CONTINUOUS
 62
     7
 10
-187.62334
 20
-33.487621
 11
-160.78755
 21
-33.487621
  0
LINE
  8
0
  6
CONTINUOUS
 62
     7
 10
-158.37334
 20
-37.759838
 11
-158.37334
 21
-90.480392
  0
LINE
  8
0
  6
CONTINUOUS
 62
     7
 10
-160.08046
 20
-33.780521
 11
-158.66624
 21
-35.194736
  0
LINE
  8
0
  6
CONTINUOUS
 62
     7
 10
-160.37334
 20
-35.608379
 11
-160.37334
 21
-91.769684
  0
LINE
  8
0
  6
CONTINUOUS
 62
     7
 10
-173.62334
 20
-93.487633
 11
-160.78755
 21
-93.487633
  0
LINE
  8
0
  6
CONTINUOUS
 62
     7
 10
-160.08046
 20
-93.194733
 11
-158.66624
 21
-91.780518
  0
LINE
  8
0
  6
CONTINUOUS
 62
     7
 10
-157.95914
 20
-91.487633
 11
-137.37334
 21
-91.487633
  0
LINE
  8
0
  6
CONTINUOUS
 62
     7
 10
18.607834
 20
-24.813814
 11
18.607834
 21
-86.81382
  0
LINE
  8
0
  6
CONTINUOUS
 62
     7
 10
-1.9779513
 20
-24.813814
 11
18.607834
 21
-24.813814
  0
LINE
  8
0
  6
CONTINUOUS
 62
     7
 10
-40.392174
 20
-23.063814
 11
-4.5563817
 21
-23.063814
  0
LINE
  8
0
  6
CONTINUOUS
 62
     7
 10
-2.3921664
 20
-26.836027
 11
-2.3921664
 21
-84.79953
  0
LINE
  8
0
  6
CONTINUOUS
 62
     7
 10
-3.8492689
 20
-23.356705
 11
-2.6850557
 21
-24.520918
  0
LINE
  8
0
  6
CONTINUOUS
 62
     7
 10
-17.89217
 20
-88.56382
 11
-4.5563817
 21
-88.56382
  0
LINE
  8
0
  6
CONTINUOUS
 62
     7
 10
-3.8492763
 20
-88.27092
 11
-2.6850576
 21
-87.106705
  0
LINE
  8
0
  6
CONTINUOUS
 62
     7
 10
-1.9779513
 20
-86.81382
 11
18.607834
 21
-86.81382
  0
LINE
  8
0
  6
CONTINUOUS
 62
     7
 10
-4.1421666
 20
-25.144014
 11
-4.1421666
 21
-86.413223
  0
LINE
  8
0
  6
CONTINUOUS
 62
     7
 10
209.70808
 20
-19.750324
 11
209.70808
 21
-93.750328
  0
LINE
  8
0
  6
CONTINUOUS
 62
     7
 10
189.12228
 20
-19.750324
 11
209.70808
 21
-19.750324
  0
LINE
  8
0
  6
CONTINUOUS
 62
     7
 10
170.62228
 20
-17.250324
 11
185.79387
 21
-17.250324
  0
LINE
  8
0
  6
CONTINUOUS
 62
     7
 10
188.70808
 20
-21.965618
 11
188.70808
 21
-91.877449
  0
LINE
  8
0
  6
CONTINUOUS
 62
     7
 10
186.50098
 20
-17.543221
 11
188.41518
 21
-19.457424
  0
LINE
  8
0
  6
CONTINUOUS
 62
     7
 10
186.20808
 20
-20.03537
 11
186.20808
 21
-94.259499
  0
LINE
  8
0
  6
CONTINUOUS
 62
     7
 10
176.2081
 20
-96.250328
 11
185.79387
 21
-96.250328
  0
LINE
  8
0
  6
CONTINUOUS
 62
     7
 10
186.50098
 20
-95.957428
 11
188.41519
 21
-94.043213
  0
LINE
  8
0
  6
CONTINUOUS
 62
     7
 10
189.12228
 20
-93.750328
 11
209.70808
 21
-93.750328
  0
LINE
  8
0
  6
CONTINUOUS
 62
     7
 10
-52.474922
 20
-303.573
 11
-52.474922
 21
-396.073
  0
LINE
  8
0
  6
CONTINUOUS
 62
     7
 10
-73.608894
 20
-303.573
 11
-52.474922
 21
-303.573
  0
LINE
  8
0
  6
CONTINUOUS
 62
     7
 10
-74.474922
 20
-305.02414
 11
-74.474922
 21
-394.60794
  0
LINE
  8
0
  6
CONTINUOUS
 62
     7
 10
-98.884712
 20
-298.323
 11
-78.372017
 21
-298.323
  0
LINE
  8
0
  6
CONTINUOUS
 62
     7
 10
-73.853584
 20
-396.073
 11
-52.474922
 21
-396.073
  0
LINE
  8
0
  6
CONTINUOUS
 62
     7
 10
-77.072983
 20
-299.073
 11
-74.907921
 21
-302.823
  0
LINE
  8
0
  6
CONTINUOUS
 62
     7
 10
-77.505989
 20
-300.15021
 11
-77.505989
 21
-399.81195
  0
LINE
  8
0
  6
CONTINUOUS
 62
     7
 10
-92.474915
 20
-401.323
 11
-78.372017
 21
-401.323
  0
LINE
  8
0
  6
CONTINUOUS
 62
     7
 10
-77.072983
 20
-400.57303
 11
-74.907913
 21
-396.823
  0
LINE
  8
0
  6
CONTINUOUS
 62
     7
 10
-99.505989
 20
-300.15021
 11
-99.505989
 21
-399.81195
  0
LINE
  8
0
  6
CONTINUOUS
 62
     7
 10
-115.97492
 20
-300.823
 11
-102.62733
 21
-300.823
  0
LINE
  8
0
  6
CONTINUOUS
 62
     7
 10
-99.945328
 20
-298.76233
 11
-101.56666
 21
-300.38367
  0
LINE
  8
0
  6
CONTINUOUS
 62
     7
 10
-102.00599
 20
-301.68613
 11
-102.00599
 21
-397.85007
  0
LINE
  8
0
  6
CONTINUOUS
 62
     7
 10
195.03996
 20
-302.37598
 11
216.17393
 21
-302.37598
  0
LINE
  8
0
  6
CONTINUOUS
 62
     7
 10
168.6198
 20
-296.87598
 11
190.13249
 21
-296.87598
  0
LINE
  8
0
  6
CONTINUOUS
 62
     7
 10
216.17393
 20
-302.37598
 11
216.17393
 21
-407.37598
  0
LINE
  8
0
  6
CONTINUOUS
 62
     7
 10
194.17393
 20
-304.66022
 11
194.17393
 21
-405.38022
  0
LINE
  8
0
  6
CONTINUOUS
 62
     7
 10
191.43149
 20
-297.62598
 11
193.74088
 21
-301.62595
  0
LINE
  8
0
  6
CONTINUOUS
 62
     7
 10
190.99846
 20
-299.45419
 11
190.99846
 21
-410.74869
  0
LINE
  8
0
  6
CONTINUOUS
 62
     7
 10
195.03996
 20
-407.37598
 11
216.17393
 21
-407.37598
  0
LINE
  8
0
  6
CONTINUOUS
 62
     7
 10
174.17393
 20
-412.87598
 11
190.13249
 21
-412.87598
  0
LINE
  8
0
  6
CONTINUOUS
 62
     7
 10
191.43149
 20
-412.12601
 11
193.74089
 21
-408.12598
  0
LINE
  8
0
  6
CONTINUOUS
 62
     7
 10
167.99846
 20
-299.45419
 11
167.99846
 21
-410.74869
  0
LINE
  8
0
  6
CONTINUOUS
 62
     7
 10
167.55916
 20
-297.31531
 11
165.93782
 21
-298.93665
  0
LINE
  8
0
  6
CONTINUOUS
 62
     7
 10
131.67393
 20
-299.37598
 11
164.87718
 21
-299.37598
  0
LINE
  8
0
  6
CONTINUOUS
 62
     7
 10
165.49846
 20
-301.00555
 11
165.49846
 21
-403.84158
  0
LINE
  8
0
  6
CONTINUOUS
 62
     7
 10
170.20808
 20
-20.250328
 11
170.20808
 21
-93.250328
  0
LINE
  8
0
  6
CONTINUOUS
 62
     7
 10
167.70808
 20
-21.965618
 11
167.70808
 21
-91.877449
  0
LINE
  8
0
  6
CONTINUOUS
 62
     7
 10
169.91518
 20
-17.543215
 11
168.00096
 21
-19.457424
  0
LINE
  8
0
  6
CONTINUOUS
 62
     7
 10
147.70808
 20
-19.750324
 11
167.29387
 21
-19.750324
  0
LINE
  8
0
  6
CONTINUOUS
 62
     7
 10
-209.87848
 20
-401.14752
 11
-105.04253
 21
-401.14752
  0
LINE
  8
0
  6
CONTINUOUS
 62
     7
 10
-287
 20
200
 11
-287
 21
-200
  0
LINE
  8
0
  6
CONTINUOUS
 62
     7
 10
287
 20
200
 11
287
 21
-200
  0
LINE
  8
0
  6
CONTINUOUS
 62
     7
 10
-287
 20
-200
 11
287
 21
-200
  0
LINE
  8
0
  6
CONTINUOUS
 62
     7
 10
-287
 20
200
 11
287
 21
200
  0
LINE
  8
0
  6
CONTINUOUS
 62
     7
 10
-188.21449
 20
91.819885
 11
-188.21449
 21
90.58728
  0
LINE
  8
0
  6
CONTINUOUS
 62
     7
 10
-189.11449
 20
91.819885
 11
-189.11449
 21
90.58728
  0
LINE
  8
0
  6
CONTINUOUS
 62
     7
 10
-189.11449
 20
84.05249
 11
-189.11449
 21
82.819885
  0
LINE
  8
0
  6
CONTINUOUS
 62
     7
 10
-188.21449
 20
84.05249
 11
-188.21449
 21
82.819885
  0
LINE
  8
0
  6
CONTINUOUS
 62
     7
 10
-189.11449
 20
89.684021
 11
-189.11449
 21
87.319885
  0
LINE
  8
0
  6
CONTINUOUS
 62
     7
 10
-188.21449
 20
89.684021
 11
-188.21449
 21
87.319885
  0
LINE
  8
0
  6
CONTINUOUS
 62
     7
 10
-210.85968
 20
-117.56432
 11
-210.85968
 21
-119.20778
  0
LINE
  8
0
  6
CONTINUOUS
 62
     7
 10
-212.05969
 20
-117.56432
 11
-212.05969
 21
-119.20778
  0
LINE
  8
0
  6
CONTINUOUS
 62
     7
 10
-212.05969
 20
-127.92085
 11
-212.05969
 21
-129.56432
  0
LINE
  8
0
  6
CONTINUOUS
 62
     7
 10
-210.85968
 20
-127.92085
 11
-210.85968
 21
-129.56432
  0
LINE
  8
0
  6
CONTINUOUS
 62
     7
 10
-212.05969
 20
-120.41214
 11
-212.05969
 21
-123.56432
  0
LINE
  8
0
  6
CONTINUOUS
 62
     7
 10
-210.85968
 20
-120.41214
 11
-210.85968
 21
-123.56432
  0
LINE
  8
0
  6
CONTINUOUS
 62
     7
 10
119.26836
 20
-127.95581
 11
119.26836
 21
-130.01013
  0
LINE
  8
0
  6
CONTINUOUS
 62
     7
 10
117.76836
 20
-127.95581
 11
117.76836
 21
-130.01013
  0
LINE
  8
0
  6
CONTINUOUS
 62
     7
 10
117.76836
 20
-140.90147
 11
117.76836
 21
-142.95581
  0
LINE
  8
0
  6
CONTINUOUS
 62
     7
 10
119.26836
 20
-140.90147
 11
119.26836
 21
-142.95581
  0
LINE
  8
0
  6
CONTINUOUS
 62
     7
 10
117.76836
 20
-131.51559
 11
117.76836
 21
-135.45581
  0
LINE
  8
0
  6
CONTINUOUS
 62
     7
 10
119.26836
 20
-131.51559
 11
119.26836
 21
-135.45581
  0
LINE
  8
0
  6
CONTINUOUS
 62
     7
 10
95.84993
 20
-448.70239
 11
95.84993
 21
-451.1676
  0
LINE
  8
0
  6
CONTINUOUS
 62
     7
 10
94.049942
 20
-448.70239
 11
94.049942
 21
-451.1676
  0
LINE
  8
0
  6
CONTINUOUS
 62
     7
 10
94.049942
 20
-464.23718
 11
94.049942
 21
-466.70239
  0
LINE
  8
0
  6
CONTINUOUS
 62
     7
 10
95.84993
 20
-464.23718
 11
95.84993
 21
-466.70239
  0
LINE
  8
0
  6
CONTINUOUS
 62
     7
 10
94.049942
 20
-452.97412
 11
94.049942
 21
-457.70239
  0
LINE
  8
0
  6
CONTINUOUS
 62
     7
 10
95.84993
 20
-452.97412
 11
95.84993
 21
-457.70239
  0
LINE
  8
0
  6
CONTINUOUS
 62
     7
 10
-51.413837
 20
88.222923
 11
-51.413837
 21
86.57946
  0
LINE
  8
0
  6
CONTINUOUS
 62
     7
 10
-52.61385
 20
88.222923
 11
-52.61385
 21
86.57946
  0
LINE
  8
0
  6
CONTINUOUS
 62
     7
 10
-52.61385
 20
77.866394
 11
-52.61385
 21
76.222931
  0
LINE
  8
0
  6
CONTINUOUS
 62
     7
 10
-51.413837
 20
77.866394
 11
-51.413837
 21
76.222931
  0
LINE
  8
0
  6
CONTINUOUS
 62
     7
 10
-52.61385
 20
85.375099
 11
-52.61385
 21
82.222931
  0
LINE
  8
0
  6
CONTINUOUS
 62
     7
 10
-51.413837
 20
85.375099
 11
-51.413837
 21
82.222931
  0
LINE
  8
0
  6
CONTINUOUS
 62
     7
 10
98.344818
 20
77.48848
 11
98.344818
 21
75.845016
  0
LINE
  8
0
  6
CONTINUOUS
 62
     7
 10
97.144806
 20
77.48848
 11
97.144806
 21
75.845016
  0
LINE
  8
0
  6
CONTINUOUS
 62
     7
 10
97.144806
 20
67.131943
 11
97.144806
 21
65.48848
  0
LINE
  8
0
  6
CONTINUOUS
 62
     7
 10
98.344818
 20
67.131943
 11
98.344818
 21
65.48848
  0
LINE
  8
0
  6
CONTINUOUS
 62
     7
 10
97.144806
 20
74.640656
 11
97.144806
 21
71.48848
  0
LINE
  8
0
  6
CONTINUOUS
 62
     7
 10
98.344818
 20
74.640656
 11
98.344818
 21
71.48848
  0
LINE
  8
0
  6
CONTINUOUS
 62
     7
 10
-61.510151
 20
-115.48327
 11
-61.510151
 21
-117.5376
  0
LINE
  8
0
  6
CONTINUOUS
 62
     7
 10
-63.010151
 20
-115.48327
 11
-63.010151
 21
-117.5376
  0
LINE
  8
0
  6
CONTINUOUS
 62
     7
 10
-63.010151
 20
-128.42894
 11
-63.010151
 21
-130.48326
  0
LINE
  8
0
  6
CONTINUOUS
 62
     7
 10
-61.510151
 20
-128.42894
 11
-61.510151
 21
-130.48326
  0
LINE
  8
0
  6
CONTINUOUS
 62
     7
 10
-63.010151
 20
-119.04305
 11
-63.010151
 21
-122.98327
  0
LINE
  8
0
  6
CONTINUOUS
 62
     7
 10
-61.510151
 20
-119.04305
 11
-61.510151
 21
-122.98327
  0
LINE
  8
0
  6
CONTINUOUS
 62
     7
 10
-156.70213
 20
-432.06177
 11
-156.70213
 21
-434.52698
  0
LINE
  8
0
  6
CONTINUOUS
 62
     7
 10
-158.50212
 20
-432.06177
 11
-158.50212
 21
-434.52698
  0
LINE
  8
0
  6
CONTINUOUS
 62
     7
 10
-158.50212
 20
-447.59656
 11
-158.50212
 21
-450.06177
  0
LINE
  8
0
  6
CONTINUOUS
 62
     7
 10
-156.70213
 20
-447.59656
 11
-156.70213
 21
-450.06177
  0
LINE
  8
0
  6
CONTINUOUS
 62
     7
 10
-158.50212
 20
-436.3335
 11
-158.50212
 21
-441.06177
  0
LINE
  8
0
  6
CONTINUOUS
 62
     7
 10
-156.70213
 20
-436.3335
 11
-156.70213
 21
-441.06177
  0
ARC
  8
0
  6
CONTINUOUS
 62
     7
 10
-155.14586
 20
145.48378
 40
1
 50
225
 51
270
  0
ARC
  8
0
  6
CONTINUOUS
 62
     7
 10
-156.97429
 20
144.48378
 40
1
 50
45.000001
 51
90.000003
  0
ARC
  8
0
  6
CONTINUOUS
 62
     7
 10
-155.14586
 20
110.48378
 40
1
 50
90.000003
 51
135
  0
ARC
  8
0
  6
CONTINUOUS
 62
     7
 10
-156.97429
 20
111.48378
 40
1
 50
270
 51
315
  0
ARC
  8
0
  6
CONTINUOUS
 62
     7
 10
-168.06007
 20
95.569572
 40
1
 50
135
 51
179.99999
  0
ARC
  8
0
  6
CONTINUOUS
 62
     7
 10
-169.06007
 20
97.397995
 40
1
 50
315
 51
2.5044793E-006
  0
ARC
  8
0
  6
CONTINUOUS
 62
     7
 10
-208.06007
 20
97.397995
 40
1
 50
179.99999
 51
225
  0
ARC
  8
0
  6
CONTINUOUS
 62
     7
 10
-209.06007
 20
95.569572
 40
1
 50
2.5044793E-006
 51
45.000001
  0
ARC
  8
0
  6
CONTINUOUS
 62
     7
 10
-27.758595
 20
92.586937
 40
1
 50
135
 51
179.99999
  0
ARC
  8
0
  6
CONTINUOUS
 62
     7
 10
-28.258595
 20
94.915367
 40
1
 50
315
 51
2.5044793E-006
  0
ARC
  8
0
  6
CONTINUOUS
 62
     7
 10
-75.258606
 20
94.915359
 40
1
 50
179.99999
 51
225
  0
ARC
  8
0
  6
CONTINUOUS
 62
     7
 10
-75.758606
 20
92.586937
 40
1
 50
2.5044793E-006
 51
45.000001
  0
ARC
  8
0
  6
CONTINUOUS
 62
     7
 10
126.92998
 20
81.57827
 40
1
 50
135
 51
179.99999
  0
ARC
  8
0
  6
CONTINUOUS
 62
     7
 10
126.92998
 20
84.406685
 40
1
 50
315
 51
2.5044793E-006
  0
ARC
  8
0
  6
CONTINUOUS
 62
     7
 10
68.92997
 20
84.406685
 40
1
 50
179.99999
 51
225
  0
ARC
  8
0
  6
CONTINUOUS
 62
     7
 10
68.92997
 20
81.57827
 40
1
 50
2.5044793E-006
 51
45.000001
  0
ARC
  8
0
  6
CONTINUOUS
 62
     7
 10
-179.37334
 20
-113.90185
 40
1
 50
135
 51
179.99999
  0
ARC
  8
0
  6
CONTINUOUS
 62
     7
 10
-179.62334
 20
-111.32342
 40
1
 50
315
 51
2.5044793E-006
  0
ARC
  8
0
  6
CONTINUOUS
 62
     7
 10
-243.12334
 20
-111.32342
 40
1
 50
179.99999
 51
225
  0
ARC
  8
0
  6
CONTINUOUS
 62
     7
 10
-243.37334
 20
-113.90185
 40
1
 50
2.5044793E-006
 51
45.000001
  0
ARC
  8
0
  6
CONTINUOUS
 62
     7
 10
-24.39217
 20
-113.22803
 40
1
 50
135
 51
179.99999
  0
ARC
  8
0
  6
CONTINUOUS
 62
     7
 10
-23.89217
 20
-109.8996
 40
1
 50
315
 51
2.5044793E-006
  0
ARC
  8
0
  6
CONTINUOUS
 62
     7
 10
-100.89217
 20
-109.8996
 40
1
 50
179.99999
 51
225
  0
ARC
  8
0
  6
CONTINUOUS
 62
     7
 10
-100.39217
 20
-113.22803
 40
1
 50
2.5044793E-006
 51
45.000001
  0
ARC
  8
0
  6
CONTINUOUS
 62
     7
 10
162.17393
 20
-447.742
 40
1.5
 50
120
 51
179.99999
  0
ARC
  8
0
  6
CONTINUOUS
 62
     7
 10
165.67393
 20
-442.25717
 40
1.5
 50
300
 51
2.5044796E-006
  0
ARC
  8
0
  6
CONTINUOUS
 62
     7
 10
24.673931
 20
-442.25717
 40
1.5
 50
179.99999
 51
240.00001
  0
ARC
  8
0
  6
CONTINUOUS
 62
     7
 10
28.173931
 20
-447.742
 40
1.5
 50
2.5044796E-006
 51
59.999995
  0
ARC
  8
0
  6
CONTINUOUS
 62
     7
 10
-103.47491
 20
-430.68903
 40
1.5
 50
120
 51
179.99999
  0
ARC
  8
0
  6
CONTINUOUS
 62
     7
 10
-100.97491
 20
-425.78156
 40
1.5
 50
300
 51
2.5044796E-006
  0
ARC
  8
0
  6
CONTINUOUS
 62
     7
 10
166.4581
 20
-125.61636
 40
1.5
 50
120
 51
179.99999
  0
ARC
  8
0
  6
CONTINUOUS
 62
     7
 10
168.7081
 20
-120.85323
 40
1.5
 50
300
 51
2.504479E-006
  0
ARC
  8
0
  6
CONTINUOUS
 62
     7
 10
68.708092
 20
-120.85323
 40
1.5
 50
179.99999
 51
240.00001
  0
ARC
  8
0
  6
CONTINUOUS
 62
     7
 10
70.958092
 20
-125.61636
 40
1.5
 50
2.504479E-006
 51
59.999995
  0
ARC
  8
0
  6
CONTINUOUS
 62
     7
 10
-211.47491
 20
-430.68903
 40
1.5
 50
2.5044796E-006
 51
59.999995
  0
ARC
  8
0
  6
CONTINUOUS
 62
     7
 10
-213.97491
 20
-425.78156
 40
1.5
 50
179.99999
 51
240.00001
  0
ARC
  8
0
  6
CONTINUOUS
 62
     7
 10
68.208092
 20
-96.597923
 40
1.5
 50
315
 51
2.504479E-006
  0
ARC
  8
0
  6
CONTINUOUS
 62
     7
 10
68.708092
 20
-100.34054
 40
1.5
 50
135
 51
179.99999
  0
ARC
  8
0
  6
CONTINUOUS
 62
     7
 10
-214.47493
 20
-400.52625
 40
1.5
 50
315
 51
2.5044796E-006
  0
ARC
  8
0
  6
CONTINUOUS
 62
     7
 10
-213.97493
 20
-404.26886
 40
1.5
 50
135
 51
179.99999
  0
ARC
  8
0
  6
CONTINUOUS
 62
     7
 10
24.173931
 20
-415.00186
 40
1.5
 50
315
 51
2.5044796E-006
  0
ARC
  8
0
  6
CONTINUOUS
 62
     7
 10
24.673931
 20
-418.74451
 40
1.5
 50
135
 51
179.99999
  0
ARC
  8
0
  6
CONTINUOUS
 62
     7
 10
-8.3443937
 20
105.50115
 40
1
 50
90.000003
 51
135
  0
ARC
  8
0
  6
CONTINUOUS
 62
     7
 10
-8.3443937
 20
146.50116
 40
1
 50
225
 51
270
  0
ARC
  8
0
  6
CONTINUOUS
 62
     7
 10
-10.172816
 20
145.50116
 40
1
 50
45.000001
 51
90.000003
  0
ARC
  8
0
  6
CONTINUOUS
 62
     7
 10
-10.172816
 20
106.50115
 40
1
 50
270
 51
315
  0
ARC
  8
0
  6
CONTINUOUS
 62
     7
 10
144.34418
 20
102.99247
 40
1
 50
90.000003
 51
135
  0
ARC
  8
0
  6
CONTINUOUS
 62
     7
 10
144.34418
 20
150.99248
 40
1
 50
225
 51
270
  0
ARC
  8
0
  6
CONTINUOUS
 62
     7
 10
142.01575
 20
150.49248
 40
1
 50
45.000001
 51
90.000003
  0
ARC
  8
0
  6
CONTINUOUS
 62
     7
 10
142.01575
 20
103.49247
 40
1
 50
270
 51
315
  0
ARC
  8
0
  6
CONTINUOUS
 62
     7
 10
-157.95914
 20
-92.487633
 40
1
 50
90.000003
 51
135
  0
ARC
  8
0
  6
CONTINUOUS
 62
     7
 10
-157.95914
 20
-34.487621
 40
1
 50
225
 51
270
  0
ARC
  8
0
  6
CONTINUOUS
 62
     7
 10
-160.78755
 20
-34.487621
 40
1
 50
45.000001
 51
90.000003
  0
ARC
  8
0
  6
CONTINUOUS
 62
     7
 10
-160.78755
 20
-92.487633
 40
1
 50
270
 51
315
  0
ARC
  8
0
  6
CONTINUOUS
 62
     7
 10
-1.9779513
 20
-87.81382
 40
1
 50
90.000003
 51
135
  0
ARC
  8
0
  6
CONTINUOUS
 62
     7
 10
-1.9779513
 20
-23.813814
 40
1
 50
225
 51
270
  0
ARC
  8
0
  6
CONTINUOUS
 62
     7
 10
-4.5563817
 20
-24.063814
 40
1
 50
45.000001
 51
90.000003
  0
ARC
  8
0
  6
CONTINUOUS
 62
     7
 10
-4.5563817
 20
-87.56382
 40
1
 50
270
 51
315
  0
ARC
  8
0
  6
CONTINUOUS
 62
     7
 10
189.12228
 20
-94.750328
 40
1
 50
90.000003
 51
135
  0
ARC
  8
0
  6
CONTINUOUS
 62
     7
 10
189.12228
 20
-18.750324
 40
1
 50
225
 51
270
  0
ARC
  8
0
  6
CONTINUOUS
 62
     7
 10
185.79387
 20
-18.250324
 40
1
 50
45.000001
 51
90.000003
  0
ARC
  8
0
  6
CONTINUOUS
 62
     7
 10
185.79387
 20
-95.250328
 40
1
 50
270
 51
315
  0
ARC
  8
0
  6
CONTINUOUS
 62
     7
 10
-73.608894
 20
-302.073
 40
1.5
 50
210
 51
270
  0
ARC
  8
0
  6
CONTINUOUS
 62
     7
 10
-78.372017
 20
-299.823
 40
1.5
 50
30.000001
 51
90.000003
  0
ARC
  8
0
  6
CONTINUOUS
 62
     7
 10
-78.372017
 20
-399.823
 40
1.5
 50
270
 51
330
  0
ARC
  8
0
  6
CONTINUOUS
 62
     7
 10
-73.608894
 20
-397.573
 40
1.5
 50
90.000003
 51
150
  0
ARC
  8
0
  6
CONTINUOUS
 62
     7
 10
-98.884712
 20
-299.823
 40
1.5
 50
90.000003
 51
135
  0
ARC
  8
0
  6
CONTINUOUS
 62
     7
 10
-102.62733
 20
-299.323
 40
1.5
 50
270
 51
315
  0
ARC
  8
0
  6
CONTINUOUS
 62
     7
 10
195.03996
 20
-300.87598
 40
1.5
 50
210
 51
270
  0
ARC
  8
0
  6
CONTINUOUS
 62
     7
 10
190.13249
 20
-298.37598
 40
1.5
 50
30.000001
 51
90.000003
  0
ARC
  8
0
  6
CONTINUOUS
 62
     7
 10
195.03996
 20
-408.87598
 40
1.5
 50
90.000003
 51
150
  0
ARC
  8
0
  6
CONTINUOUS
 62
     7
 10
190.13249
 20
-411.37598
 40
1.5
 50
270
 51
330
  0
ARC
  8
0
  6
CONTINUOUS
 62
     7
 10
168.6198
 20
-298.37598
 40
1.5
 50
90.000003
 51
135
  0
ARC
  8
0
  6
CONTINUOUS
 62
     7
 10
164.87718
 20
-297.87598
 40
1.5
 50
270
 51
315
  0
ARC
  8
0
  6
CONTINUOUS
 62
     7
 10
-176.06007
 20
112.48378
 40
33
 50
90.000003
 51
180.00001
  0
ARC
  8
0
  6
CONTINUOUS
 62
     7
 10
-164.06007
 20
106.48378
 40
4
 50
90.000003
 51
180.00001
  0
ARC
  8
0
  6
CONTINUOUS
 62
     7
 10
-40.258602
 20
110.50115
 40
36
 50
90.000003
 51
180.00001
  0
ARC
  8
0
  6
CONTINUOUS
 62
     7
 10
-22.258595
 20
100.50115
 40
5
 50
90.000003
 51
180.00001
  0
ARC
  8
0
  6
CONTINUOUS
 62
     7
 10
112.42997
 20
106.99248
 40
44.5
 50
90.000003
 51
180.00001
  0
ARC
  8
0
  6
CONTINUOUS
 62
     7
 10
132.92998
 20
97.49247
 40
5
 50
90.000003
 51
180.00001
  0
ARC
  8
0
  6
CONTINUOUS
 62
     7
 10
-187.62334
 20
-89.987625
 40
56.5
 50
90.000003
 51
180.00001
  0
ARC
  8
0
  6
CONTINUOUS
 62
     7
 10
-173.62334
 20
-98.487633
 40
5
 50
90.000003
 51
180.00001
  0
ARC
  8
0
  6
CONTINUOUS
 62
     7
 10
-17.89217
 20
-93.56382
 40
5
 50
90.000003
 51
180.00001
  0
ARC
  8
0
  6
CONTINUOUS
 62
     7
 10
-40.392174
 20
-84.563812
 40
61.5
 50
90.000003
 51
180.00001
  0
ARC
  8
0
  6
CONTINUOUS
 62
     7
 10
176.2081
 20
-102.25033
 40
6
 50
90.000003
 51
180.00001
  0
ARC
  8
0
  6
CONTINUOUS
 62
     7
 10
170.62228
 20
-18.250324
 40
1
 50
89.999996
 51
135
  0
ARC
  8
0
  6
CONTINUOUS
 62
     7
 10
167.29387
 20
-18.750324
 40
1
 50
270
 51
315
  0
ARC
  8
0
  6
CONTINUOUS
 62
     7
 10
147.70808
 20
-97.75032
 40
78
 50
90.000003
 51
180.00001
  0
ARC
  8
0
  6
CONTINUOUS
 62
     7
 10
-115.97492
 20
-397.823
 40
97
 50
90.000003
 51
180.00001
  0
ARC
  8
0
  6
CONTINUOUS
 62
     7
 10
-92.474915
 20
-408.323
 40
7
 50
90.000003
 51
180.00001
  0
ARC
  8
0
  6
CONTINUOUS
 62
     7
 10
131.67393
 20
-405.37598
 40
106
 50
90.000003
 51
180.00001
  0
ARC
  8
0
  6
CONTINUOUS
 62
     7
 10
174.17393
 20
-419.87598
 40
7
 50
90.000003
 51
180.00001
  0
ARC
  8
0
  6
CONTINUOUS
 62
     7
 10
-186.86449
 20
87.319885
 40
1.8
 50
306.00833
 51
53.991676
  0
ARC
  8
0
  6
CONTINUOUS
 62
     7
 10
-186.86449
 20
87.319885
 40
2.7
 50
306.00833
 51
53.991676
  0
ARC
  8
0
  6
CONTINUOUS
 62
     7
 10
-190.46449
 20
87.319885
 40
1.8
 50
126.00833
 51
233.99168
  0
ARC
  8
0
  6
CONTINUOUS
 62
     7
 10
-190.46449
 20
87.319885
 40
2.7
 50
126.00833
 51
233.99168
  0
ARC
  8
0
  6
CONTINUOUS
 62
     7
 10
-188.66449
 20
84.843155
 40
5.7617307
 50
53.991676
 51
85.520553
  0
ARC
  8
0
  6
CONTINUOUS
 62
     7
 10
-188.66449
 20
84.843155
 40
4.8617306
 50
53.991676
 51
84.689121
  0
ARC
  8
0
  6
CONTINUOUS
 62
     7
 10
-188.66449
 20
89.796616
 40
4.8617306
 50
233.99167
 51
306.00832
  0
ARC
  8
0
  6
CONTINUOUS
 62
     7
 10
-188.66449
 20
89.796616
 40
5.7617307
 50
233.99167
 51
265.52055
  0
ARC
  8
0
  6
CONTINUOUS
 62
     7
 10
-188.66449
 20
91.482391
 40
0.5625
 50
36.869897
 51
143.1301
  0
ARC
  8
0
  6
CONTINUOUS
 62
     7
 10
-188.66449
 20
87.657379
 40
0.5625
 50
216.8699
 51
323.13009
  0
ARC
  8
0
  6
CONTINUOUS
 62
     7
 10
-188.66449
 20
83.157379
 40
0.5625
 50
216.8699
 51
323.13009
  0
ARC
  8
0
  6
CONTINUOUS
 62
     7
 10
-188.66449
 20
84.843155
 40
5.7617307
 50
94.479452
 51
126.00833
  0
ARC
  8
0
  6
CONTINUOUS
 62
     7
 10
-188.66449
 20
84.843155
 40
4.8617306
 50
95.310878
 51
126.00833
  0
ARC
  8
0
  6
CONTINUOUS
 62
     7
 10
-188.66449
 20
89.796616
 40
5.7617307
 50
274.47945
 51
306.00833
  0
ARC
  8
0
  6
CONTINUOUS
 62
     7
 10
-209.05969
 20
-123.56432
 40
2.4000001
 50
306.00833
 51
53.991676
  0
ARC
  8
0
  6
CONTINUOUS
 62
     7
 10
-209.05969
 20
-123.56432
 40
3.5999999
 50
306.00833
 51
53.991676
  0
ARC
  8
0
  6
CONTINUOUS
 62
     7
 10
-213.85968
 20
-123.56432
 40
2.4000001
 50
126.00833
 51
233.99168
  0
ARC
  8
0
  6
CONTINUOUS
 62
     7
 10
-213.85968
 20
-123.56432
 40
3.5999999
 50
126.00833
 51
233.99168
  0
ARC
  8
0
  6
CONTINUOUS
 62
     7
 10
-211.45969
 20
-126.86662
 40
7.6823077
 50
53.991676
 51
85.520553
  0
ARC
  8
0
  6
CONTINUOUS
 62
     7
 10
-211.45969
 20
-126.86662
 40
6.4823079
 50
53.991676
 51
84.689121
  0
ARC
  8
0
  6
CONTINUOUS
 62
     7
 10
-211.45969
 20
-120.26201
 40
6.4823079
 50
233.99167
 51
306.00832
  0
ARC
  8
0
  6
CONTINUOUS
 62
     7
 10
-211.45969
 20
-120.26201
 40
7.6823077
 50
233.99167
 51
265.52055
  0
ARC
  8
0
  6
CONTINUOUS
 62
     7
 10
-211.45969
 20
-118.01431
 40
0.75
 50
36.869897
 51
143.1301
  0
ARC
  8
0
  6
CONTINUOUS
 62
     7
 10
-211.45969
 20
-123.11432
 40
0.75
 50
216.8699
 51
323.13009
  0
ARC
  8
0
  6
CONTINUOUS
 62
     7
 10
-211.45969
 20
-129.11432
 40
0.75
 50
216.8699
 51
323.13009
  0
ARC
  8
0
  6
CONTINUOUS
 62
     7
 10
-211.45969
 20
-126.86662
 40
6.4823079
 50
95.310878
 51
126.00833
  0
ARC
  8
0
  6
CONTINUOUS
 62
     7
 10
-211.45969
 20
-126.86662
 40
7.6823077
 50
94.479452
 51
126.00833
  0
ARC
  8
0
  6
CONTINUOUS
 62
     7
 10
-211.45969
 20
-120.26201
 40
7.6823077
 50
274.47945
 51
306.00833
  0
ARC
  8
0
  6
CONTINUOUS
 62
     7
 10
121.51836
 20
-135.45581
 40
3
 50
306.00833
 51
53.991676
  0
ARC
  8
0
  6
CONTINUOUS
 62
     7
 10
121.51836
 20
-135.45581
 40
4.5
 50
306.00833
 51
53.991676
  0
ARC
  8
0
  6
CONTINUOUS
 62
     7
 10
115.51836
 20
-135.45581
 40
3
 50
126.00833
 51
233.99168
  0
ARC
  8
0
  6
CONTINUOUS
 62
     7
 10
115.51836
 20
-135.45581
 40
4.5
 50
126.00833
 51
233.99168
  0
ARC
  8
0
  6
CONTINUOUS
 62
     7
 10
118.51836
 20
-139.58369
 40
9.6028843
 50
53.991676
 51
85.520553
  0
ARC
  8
0
  6
CONTINUOUS
 62
     7
 10
118.51836
 20
-139.58369
 40
8.1028843
 50
53.991676
 51
84.689121
  0
ARC
  8
0
  6
CONTINUOUS
 62
     7
 10
118.51836
 20
-131.32793
 40
8.1028843
 50
233.99167
 51
306.00832
  0
ARC
  8
0
  6
CONTINUOUS
 62
     7
 10
118.51836
 20
-131.32793
 40
9.6028843
 50
233.99167
 51
265.52055
  0
ARC
  8
0
  6
CONTINUOUS
 62
     7
 10
118.51836
 20
-128.51831
 40
0.9375
 50
36.869897
 51
143.1301
  0
ARC
  8
0
  6
CONTINUOUS
 62
     7
 10
118.51836
 20
-134.89331
 40
0.9375
 50
216.8699
 51
323.13009
  0
ARC
  8
0
  6
CONTINUOUS
 62
     7
 10
118.51836
 20
-142.39331
 40
0.9375
 50
216.8699
 51
323.13009
  0
ARC
  8
0
  6
CONTINUOUS
 62
     7
 10
118.51836
 20
-139.58369
 40
9.6028843
 50
94.479452
 51
126.00833
  0
ARC
  8
0
  6
CONTINUOUS
 62
     7
 10
118.51836
 20
-139.58369
 40
8.1028843
 50
95.310878
 51
126.00833
  0
ARC
  8
0
  6
CONTINUOUS
 62
     7
 10
118.51836
 20
-131.32793
 40
9.6028843
 50
274.47945
 51
306.00833
  0
ARC
  8
0
  6
CONTINUOUS
 62
     7
 10
98.549942
 20
-457.70239
 40
3.5999999
 50
306.00833
 51
53.991676
  0
ARC
  8
0
  6
CONTINUOUS
 62
     7
 10
98.549942
 20
-457.70239
 40
5.4000001
 50
306.00833
 51
53.991676
  0
ARC
  8
0
  6
CONTINUOUS
 62
     7
 10
91.34993
 20
-457.70239
 40
3.5999999
 50
126.00833
 51
233.99168
  0
ARC
  8
0
  6
CONTINUOUS
 62
     7
 10
91.34993
 20
-457.70239
 40
5.4000001
 50
126.00833
 51
233.99168
  0
ARC
  8
0
  6
CONTINUOUS
 62
     7
 10
94.949905
 20
-462.65588
 40
11.523461
 50
53.991676
 51
85.520553
  0
ARC
  8
0
  6
CONTINUOUS
 62
     7
 10
94.949905
 20
-462.65588
 40
9.7234612
 50
53.991676
 51
84.689121
  0
ARC
  8
0
  6
CONTINUOUS
 62
     7
 10
94.949905
 20
-452.74896
 40
9.7234612
 50
233.99167
 51
306.00832
  0
ARC
  8
0
  6
CONTINUOUS
 62
     7
 10
94.949905
 20
-452.74896
 40
11.523461
 50
233.99167
 51
265.52055
  0
ARC
  8
0
  6
CONTINUOUS
 62
     7
 10
94.949905
 20
-449.37738
 40
1.125
 50
36.869897
 51
143.1301
  0
ARC
  8
0
  6
CONTINUOUS
 62
     7
 10
94.949905
 20
-457.0274
 40
1.125
 50
216.8699
 51
323.13009
  0
ARC
  8
0
  6
CONTINUOUS
 62
     7
 10
94.949905
 20
-466.0274
 40
1.125
 50
216.8699
 51
323.13009
  0
ARC
  8
0
  6
CONTINUOUS
 62
     7
 10
94.949905
 20
-462.65588
 40
11.523461
 50
94.479452
 51
126.00833
  0
ARC
  8
0
  6
CONTINUOUS
 62
     7
 10
94.949905
 20
-462.65588
 40
9.7234612
 50
95.310878
 51
126.00833
  0
ARC
  8
0
  6
CONTINUOUS
 62
     7
 10
94.949905
 20
-452.74896
 40
11.523461
 50
274.47945
 51
306.00833
  0
ARC
  8
0
  6
CONTINUOUS
 62
     7
 10
-49.61385
 20
82.222931
 40
2.4000001
 50
306.00833
 51
53.991676
  0
ARC
  8
0
  6
CONTINUOUS
 62
     7
 10
-49.61385
 20
82.222931
 40
3.5999999
 50
306.00833
 51
53.991676
  0
ARC
  8
0
  6
CONTINUOUS
 62
     7
 10
-54.413837
 20
82.222931
 40
2.4000001
 50
126.00833
 51
233.99168
  0
ARC
  8
0
  6
CONTINUOUS
 62
     7
 10
-54.413837
 20
82.222931
 40
3.5999999
 50
126.00833
 51
233.99168
  0
ARC
  8
0
  6
CONTINUOUS
 62
     7
 10
-52.013844
 20
78.920624
 40
7.6823077
 50
53.991676
 51
85.520553
  0
ARC
  8
0
  6
CONTINUOUS
 62
     7
 10
-52.013844
 20
78.920624
 40
6.4823079
 50
53.991676
 51
84.689121
  0
ARC
  8
0
  6
CONTINUOUS
 62
     7
 10
-52.013844
 20
85.52523
 40
6.4823079
 50
233.99167
 51
306.00832
  0
ARC
  8
0
  6
CONTINUOUS
 62
     7
 10
-52.013844
 20
85.52523
 40
7.6823077
 50
233.99167
 51
265.52055
  0
ARC
  8
0
  6
CONTINUOUS
 62
     7
 10
-52.013844
 20
87.772926
 40
0.75
 50
36.869897
 51
143.1301
  0
ARC
  8
0
  6
CONTINUOUS
 62
     7
 10
-52.013844
 20
82.672928
 40
0.75
 50
216.8699
 51
323.13009
  0
ARC
  8
0
  6
CONTINUOUS
 62
     7
 10
-52.013844
 20
76.672928
 40
0.75
 50
216.8699
 51
323.13009
  0
ARC
  8
0
  6
CONTINUOUS
 62
     7
 10
-52.013844
 20
78.920624
 40
6.4823079
 50
95.310878
 51
126.00833
  0
ARC
  8
0
  6
CONTINUOUS
 62
     7
 10
-52.013844
 20
78.920624
 40
7.6823077
 50
94.479452
 51
126.00833
  0
ARC
  8
0
  6
CONTINUOUS
 62
     7
 10
-52.013844
 20
85.52523
 40
7.6823077
 50
274.47945
 51
306.00833
  0
ARC
  8
0
  6
CONTINUOUS
 62
     7
 10
100.14481
 20
71.48848
 40
2.4000001
 50
306.00833
 51
53.991676
  0
ARC
  8
0
  6
CONTINUOUS
 62
     7
 10
100.14481
 20
71.48848
 40
3.5999999
 50
306.00833
 51
53.991676
  0
ARC
  8
0
  6
CONTINUOUS
 62
     7
 10
95.344818
 20
71.48848
 40
2.4000001
 50
126.00833
 51
233.99168
  0
ARC
  8
0
  6
CONTINUOUS
 62
     7
 10
95.344818
 20
71.48848
 40
3.5999999
 50
126.00833
 51
233.99168
  0
ARC
  8
0
  6
CONTINUOUS
 62
     7
 10
97.744812
 20
68.186172
 40
7.6823077
 50
53.991676
 51
85.520553
  0
ARC
  8
0
  6
CONTINUOUS
 62
     7
 10
97.744812
 20
68.186172
 40
6.4823079
 50
53.991676
 51
84.689121
  0
ARC
  8
0
  6
CONTINUOUS
 62
     7
 10
97.744812
 20
74.790787
 40
6.4823079
 50
233.99167
 51
306.00832
  0
ARC
  8
0
  6
CONTINUOUS
 62
     7
 10
97.744812
 20
74.790787
 40
7.6823077
 50
233.99167
 51
265.52055
  0
ARC
  8
0
  6
CONTINUOUS
 62
     7
 10
97.744812
 20
77.038483
 40
0.75
 50
36.869897
 51
143.1301
  0
ARC
  8
0
  6
CONTINUOUS
 62
     7
 10
97.744812
 20
71.938477
 40
0.75
 50
216.8699
 51
323.13009
  0
ARC
  8
0
  6
CONTINUOUS
 62
     7
 10
97.744812
 20
65.938477
 40
0.75
 50
216.8699
 51
323.13009
  0
ARC
  8
0
  6
CONTINUOUS
 62
     7
 10
97.744812
 20
68.186172
 40
6.4823079
 50
95.310878
 51
126.00833
  0
ARC
  8
0
  6
CONTINUOUS
 62
     7
 10
97.744812
 20
68.186172
 40
7.6823077
 50
94.479452
 51
126.00833
  0
ARC
  8
0
  6
CONTINUOUS
 62
     7
 10
97.744812
 20
74.790787
 40
7.6823077
 50
274.47945
 51
306.00833
  0
ARC
  8
0
  6
CONTINUOUS
 62
     7
 10
-59.260151
 20
-122.98327
 40
3
 50
306.00833
 51
53.991676
  0
ARC
  8
0
  6
CONTINUOUS
 62
     7
 10
-59.260151
 20
-122.98327
 40
4.5
 50
306.00833
 51
53.991676
  0
ARC
  8
0
  6
CONTINUOUS
 62
     7
 10
-65.260147
 20
-122.98327
 40
3
 50
126.00833
 51
233.99168
  0
ARC
  8
0
  6
CONTINUOUS
 62
     7
 10
-65.260147
 20
-122.98327
 40
4.5
 50
126.00833
 51
233.99168
  0
ARC
  8
0
  6
CONTINUOUS
 62
     7
 10
-62.260151
 20
-127.11115
 40
9.6028843
 50
53.991676
 51
85.520553
  0
ARC
  8
0
  6
CONTINUOUS
 62
     7
 10
-62.260151
 20
-127.11115
 40
8.1028843
 50
53.991676
 51
84.689121
  0
ARC
  8
0
  6
CONTINUOUS
 62
     7
 10
-62.260151
 20
-118.85538
 40
8.1028843
 50
233.99167
 51
306.00832
  0
ARC
  8
0
  6
CONTINUOUS
 62
     7
 10
-62.260151
 20
-118.85538
 40
9.6028843
 50
233.99167
 51
265.52055
  0
ARC
  8
0
  6
CONTINUOUS
 62
     7
 10
-62.260151
 20
-116.04577
 40
0.9375
 50
36.869897
 51
143.1301
  0
ARC
  8
0
  6
CONTINUOUS
 62
     7
 10
-62.260151
 20
-122.42077
 40
0.9375
 50
216.8699
 51
323.13009
  0
ARC
  8
0
  6
CONTINUOUS
 62
     7
 10
-62.260151
 20
-129.92076
 40
0.9375
 50
216.8699
 51
323.13009
  0
ARC
  8
0
  6
CONTINUOUS
 62
     7
 10
-62.260151
 20
-127.11115
 40
9.6028843
 50
94.479452
 51
126.00833
  0
ARC
  8
0
  6
CONTINUOUS
 62
     7
 10
-62.260151
 20
-127.11115
 40
8.1028843
 50
95.310878
 51
126.00833
  0
ARC
  8
0
  6
CONTINUOUS
 62
     7
 10
-62.260151
 20
-118.85538
 40
9.6028843
 50
274.47945
 51
306.00833
  0
ARC
  8
0
  6
CONTINUOUS
 62
     7
 10
-154.00212
 20
-441.06177
 40
3.5999999
 50
306.00833
 51
53.991676
  0
ARC
  8
0
  6
CONTINUOUS
 62
     7
 10
-154.00212
 20
-441.06177
 40
5.4000001
 50
306.00833
 51
53.991676
  0
ARC
  8
0
  6
CONTINUOUS
 62
     7
 10
-161.20213
 20
-441.06177
 40
3.5999999
 50
126.00833
 51
233.99168
  0
ARC
  8
0
  6
CONTINUOUS
 62
     7
 10
-161.20213
 20
-441.06177
 40
5.4000001
 50
126.00833
 51
233.99168
  0
ARC
  8
0
  6
CONTINUOUS
 62
     7
 10
-157.60216
 20
-446.01526
 40
11.523461
 50
53.991676
 51
85.520553
  0
ARC
  8
0
  6
CONTINUOUS
 62
     7
 10
-157.60216
 20
-446.01526
 40
9.7234612
 50
53.991676
 51
84.689121
  0
ARC
  8
0
  6
CONTINUOUS
 62
     7
 10
-157.60216
 20
-436.10834
 40
9.7234612
 50
233.99167
 51
306.00832
  0
ARC
  8
0
  6
CONTINUOUS
 62
     7
 10
-157.60216
 20
-436.10834
 40
11.523461
 50
233.99167
 51
265.52055
  0
ARC
  8
0
  6
CONTINUOUS
 62
     7
 10
-157.60216
 20
-432.73676
 40
1.125
 50
36.869897
 51
143.1301
  0
ARC
  8
0
  6
CONTINUOUS
 62
     7
 10
-157.60216
 20
-440.38678
 40
1.125
 50
216.8699
 51
323.13009
  0
ARC
  8
0
  6
CONTINUOUS
 62
     7
 10
-157.60216
 20
-449.38678
 40
1.125
 50
216.8699
 51
323.13009
  0
ARC
  8
0
  6
CONTINUOUS
 62
     7
 10
-157.60216
 20
-446.01526
 40
11.523461
 50
94.479452
 51
126.00833
  0
ARC
  8
0
  6
CONTINUOUS
 62
     7
 10
-157.60216
 20
-446.01526
 40
9.7234612
 50
95.310878
 51
126.00833
  0
ARC
  8
0
  6
CONTINUOUS
 62
     7
 10
-157.60216
 20
-436.10834
 40
11.523461
 50
274.47945
 51
306.00833
  0
TEXT
  8
0
  6
CONTINUOUS
 62
     7
 10
-206.02215
 20
162.07101
 40
10
 41
0.84634979
  1
３／４×１／２
  0
TEXT
  8
0
  6
CONTINUOUS
 62
     7
 10
-49.951037
 20
159.09824
 40
10
 41
0.84892707
  1
１×３／４
  0
TEXT
  8
0
  6
CONTINUOUS
 62
     7
 10
94.228937
 20
162.07101
 40
10
 41
0.84741102
  1
１１／４×１
  0
TEXT
  8
0
  6
CONTINUOUS
 62
     7
 10
-232.77718
 20
-10.350397
 40
10
 41
0.84496202
  1
１１／２×１１／４
  0
TEXT
  8
0
  6
CONTINUOUS
 62
     7
 10
-58.869387
 20
-5.8912229
 40
10
 41
0.84741102
  1
２×１１／２
  0
TEXT
  8
0
  6
CONTINUOUS
 62
     7
 10
-64.013979
 20
183.82947
 40
10
 41
0.8427416
  1
ＲＣＦ－ＭＫ－ＲＬ（径違いエルボ）
  0
TEXT
  8
0
  6
CONTINUOUS
 62
     7
 10
119.49759
 20
-5.8912229
 40
10
 41
0.84741102
  1
２１／２×２
  0
TEXT
  8
0
  6
CONTINUOUS
 62
     7
 10
-152.51205
 20
-286.81921
 40
10
 41
0.84741102
  1
３×２１／２
  0
TEXT
  8
0
  6
CONTINUOUS
 62
     7
 10
120.98398
 20
-277.90085
 40
10
 41
0.85537026
  1
４×３
  0
ENDSEC
  0
EOF
