  0
SECTION
  2
HEADER
  9
$EXTMAX
 10
296.17499
 20
209.41667
  9
$EXTMIN
 10
-298.56836
 20
-209.41667
  0
ENDSEC
  0
SECTION
  2
TABLES
  0
TABLE
  2
LTYPE
 70
    22
  0
LTYPE
  2
CONTINUOUS
 70
    64
  3
Solid line
 72
    65
 73
     0
 40
0.000000
  0
LTYPE
  2
DASHED
 70
    64
  3
__ __ __ __ __ __ __ __ __ __ __ __ __ __ __
 72
    65
 73
     2
 40
3.500000
 49
2.000000
 49
-1.500000
  0
LTYPE
  2
CENTER
 70
    64
  3
____ _ ____ _ ____ _ ____ _ ____ _ ____ _ ____
 72
    65
 73
     4
 40
17.500000
 49
13.000000
 49
-1.500000
 49
1.500000
 49
-1.500000
  0
LTYPE
  2
PHANTOM
 70
    64
  3
_____ _ _ _____ _ _ _____ _ _ _____ _ _ ____  
 72
    65
 73
     6
 40
15.500000
 49
8.000000
 49
-1.500000
 49
1.500000
 49
-1.500000
 49
1.500000
 49
-1.500000
  0
LTYPE
  2
DOT
 70
    64
  3
. . . . . . . . . . . . . . . . . . . . . . . .
 72
    65
 73
     2
 40
0.25
 49
0.0
 49
-0.25
  0
ENDTAB
  0
TABLE
  2
LAYER
 70
     1
  0
LAYER
  2
0
 70
     0
 62
     7
  6
CONTINUOUS
  0
ENDTAB
  0
TABLE
  2
STYLE
 70
     1
  0
STYLE
  2
STANDARD
 70
     0
 40
0.000000
 41
1.000000
 50
0.000000
 71
     0
 42
0.200000
  3
txt
  4
BIGFONT
  0
ENDTAB
  0
TABLE
  2
VIEW
 70
     0
  0
ENDTAB
  0
ENDSEC
  0
SECTION
  2
BLOCKS
  0
ENDSEC
  0
SECTION
  2
ENTITIES
  0
POINT
  8
0
  6
CONTINUOUS
 62
     7
 10
-215.56076
 20
106.20798
  0
POINT
  8
0
  6
CONTINUOUS
 62
     7
 10
-116.05914
 20
106.20798
  0
POINT
  8
0
  6
CONTINUOUS
 62
     7
 10
-0.29163256
 20
106.20798
  0
POINT
  8
0
  6
CONTINUOUS
 62
     7
 10
136.58641
 20
106.20798
  0
POINT
  8
0
  6
CONTINUOUS
 62
     7
 10
-55.486908
 20
-71.235931
  0
POINT
  8
0
  6
CONTINUOUS
 62
     7
 10
-216.20592
 20
-71.235931
  0
POINT
  8
0
  6
CONTINUOUS
 62
     7
 10
-101.47755
 20
-381.12888
  0
POINT
  8
0
  6
CONTINUOUS
 62
     7
 10
462.24091
 20
26.937931
  0
POINT
  8
0
  6
CONTINUOUS
 62
     7
 10
663.49988
 20
26.937931
  0
POINT
  8
0
  6
CONTINUOUS
 62
     7
 10
-101.43619
 20
-497.79581
  0
POINT
  8
0
  6
CONTINUOUS
 62
     7
 10
-116.2075
 20
62.040619
  0
POINT
  8
0
  6
CONTINUOUS
 62
     7
 10
-216.11508
 20
-134.39728
  0
POINT
  8
0
  6
CONTINUOUS
 62
     7
 10
-215.43224
 20
67.747665
  0
POINT
  8
0
  6
CONTINUOUS
 62
     7
 10
-0.35333118
 20
52.918137
  0
POINT
  8
0
  6
CONTINUOUS
 62
     7
 10
136.75922
 20
45.239368
  0
POINT
  8
0
  6
CONTINUOUS
 62
     7
 10
-55.570576
 20
-143.91119
  0
POINT
  8
0
  6
CONTINUOUS
 62
     7
 10
462.04269
 20
-60.515358
  0
POINT
  8
0
  6
CONTINUOUS
 62
     7
 10
663.23322
 20
-70.765129
  0
LINE
  8
0
  6
CONTINUOUS
 62
     7
 10
881
 20
-220
 11
881
 21
-620
  0
LINE
  8
0
  6
CONTINUOUS
 62
     7
 10
307
 20
-220
 11
881
 21
-220
  0
LINE
  8
0
  6
CONTINUOUS
 62
     7
 10
307
 20
-220
 11
307
 21
-620
  0
LINE
  8
0
  6
CONTINUOUS
 62
     7
 10
307
 20
-620
 11
881
 21
-620
  0
LINE
  8
0
  6
CONTINUOUS
 62
     7
 10
-168.56076
 20
122.70798
 11
-168.56076
 21
89.707985
  0
LINE
  8
0
  6
CONTINUOUS
 62
     7
 10
-185.14655
 20
122.70798
 11
-168.56076
 21
122.70798
  0
LINE
  8
0
  6
CONTINUOUS
 62
     7
 10
-185.56076
 20
122.02844
 11
-185.56076
 21
90.580719
  0
LINE
  8
0
  6
CONTINUOUS
 62
     7
 10
-186.26787
 20
123.41509
 11
-185.85367
 21
123.00089
  0
LINE
  8
0
  6
CONTINUOUS
 62
     7
 10
-204.06076
 20
123.70798
 11
-186.97498
 21
123.70798
  0
LINE
  8
0
  6
CONTINUOUS
 62
     7
 10
-186.56076
 20
122.94662
 11
-186.56076
 21
89.662537
  0
LINE
  8
0
  6
CONTINUOUS
 62
     7
 10
-195.06076
 20
88.707985
 11
-186.97498
 21
88.707985
  0
LINE
  8
0
  6
CONTINUOUS
 62
     7
 10
-186.26788
 20
89.000885
 11
-185.85367
 21
89.4151
  0
LINE
  8
0
  6
CONTINUOUS
 62
     7
 10
-185.14655
 20
89.707985
 11
-168.56076
 21
89.707985
  0
LINE
  8
0
  6
CONTINUOUS
 62
     7
 10
-64.059135
 20
125.70798
 11
-64.059135
 21
86.707985
  0
LINE
  8
0
  6
CONTINUOUS
 62
     7
 10
-80.644928
 20
125.70798
 11
-64.059135
 21
125.70798
  0
LINE
  8
0
  6
CONTINUOUS
 62
     7
 10
-101.55914
 20
126.70798
 11
-82.473351
 21
126.70798
  0
LINE
  8
0
  6
CONTINUOUS
 62
     7
 10
-81.059135
 20
124.69162
 11
-81.059135
 21
87.476006
  0
LINE
  8
0
  6
CONTINUOUS
 62
     7
 10
-81.766243
 20
126.41509
 11
-81.352036
 21
126.00089
  0
LINE
  8
0
  6
CONTINUOUS
 62
     7
 10
-82.059135
 20
125.72366
 11
-82.059135
 21
86.562469
  0
LINE
  8
0
  6
CONTINUOUS
 62
     7
 10
-91.559135
 20
85.707985
 11
-82.473351
 21
85.707985
  0
LINE
  8
0
  6
CONTINUOUS
 62
     7
 10
-81.766243
 20
86.000885
 11
-81.352028
 21
86.415092
  0
LINE
  8
0
  6
CONTINUOUS
 62
     7
 10
-80.644928
 20
86.707985
 11
-64.059135
 21
86.707985
  0
LINE
  8
0
  6
CONTINUOUS
 62
     7
 10
63.708366
 20
129.20799
 11
63.708366
 21
83.207985
  0
LINE
  8
0
  6
CONTINUOUS
 62
     7
 10
42.122581
 20
129.20799
 11
63.708366
 21
129.20799
  0
LINE
  8
0
  6
CONTINUOUS
 62
     7
 10
18.208368
 20
130.70799
 11
39.794155
 21
130.70799
  0
LINE
  8
0
  6
CONTINUOUS
 62
     7
 10
41.708366
 20
127.5364
 11
41.708366
 21
84.756783
  0
LINE
  8
0
  6
CONTINUOUS
 62
     7
 10
40.501263
 20
130.4151
 11
41.415478
 21
129.50089
  0
LINE
  8
0
  6
CONTINUOUS
 62
     7
 10
40.208366
 20
128.88109
 11
40.208366
 21
83.320015
  0
LINE
  8
0
  6
CONTINUOUS
 62
     7
 10
28.208368
 20
81.707985
 11
39.794155
 21
81.707985
  0
LINE
  8
0
  6
CONTINUOUS
 62
     7
 10
42.122581
 20
83.207985
 11
63.708366
 21
83.207985
  0
LINE
  8
0
  6
CONTINUOUS
 62
     7
 10
40.501259
 20
82.000877
 11
41.41547
 21
82.915092
  0
LINE
  8
0
  6
CONTINUOUS
 62
     7
 10
208.58641
 20
134.20799
 11
208.58641
 21
78.207985
  0
LINE
  8
0
  6
CONTINUOUS
 62
     7
 10
188.00061
 20
134.20799
 11
208.58641
 21
134.20799
  0
LINE
  8
0
  6
CONTINUOUS
 62
     7
 10
159.0864
 20
136.20799
 11
185.1722
 21
136.20799
  0
LINE
  8
0
  6
CONTINUOUS
 62
     7
 10
187.58641
 20
131.93578
 11
187.58641
 21
79.215225
  0
LINE
  8
0
  6
CONTINUOUS
 62
     7
 10
185.8793
 20
135.9151
 11
187.29352
 21
134.50089
  0
LINE
  8
0
  6
CONTINUOUS
 62
     7
 10
185.58641
 20
134.08723
 11
185.58641
 21
77.925934
  0
LINE
  8
0
  6
CONTINUOUS
 62
     7
 10
171.58641
 20
76.207985
 11
185.1722
 21
76.207985
  0
LINE
  8
0
  6
CONTINUOUS
 62
     7
 10
185.8793
 20
76.500885
 11
187.29352
 21
77.9151
  0
LINE
  8
0
  6
CONTINUOUS
 62
     7
 10
188.00061
 20
78.207985
 11
208.58641
 21
78.207985
  0
LINE
  8
0
  6
CONTINUOUS
 62
     7
 10
-142.20592
 20
-40.235928
 11
-142.20592
 21
-102.23593
  0
LINE
  8
0
  6
CONTINUOUS
 62
     7
 10
-162.7917
 20
-40.235928
 11
-142.20592
 21
-40.235928
  0
LINE
  8
0
  6
CONTINUOUS
 62
     7
 10
-190.45592
 20
-38.485928
 11
-165.37013
 21
-38.485928
  0
LINE
  8
0
  6
CONTINUOUS
 62
     7
 10
-163.20592
 20
-42.258141
 11
-163.20592
 21
-100.22164
  0
LINE
  8
0
  6
CONTINUOUS
 62
     7
 10
-164.66302
 20
-38.778816
 11
-163.49881
 21
-39.943031
  0
LINE
  8
0
  6
CONTINUOUS
 62
     7
 10
-177.45592
 20
-103.98593
 11
-165.37013
 21
-103.98593
  0
LINE
  8
0
  6
CONTINUOUS
 62
     7
 10
-164.66302
 20
-103.69304
 11
-163.49881
 21
-102.52882
  0
LINE
  8
0
  6
CONTINUOUS
 62
     7
 10
-162.7917
 20
-102.23593
 11
-142.20592
 21
-102.23593
  0
LINE
  8
0
  6
CONTINUOUS
 62
     7
 10
-164.95592
 20
-40.566128
 11
-164.95592
 21
-101.83533
  0
LINE
  8
0
  6
CONTINUOUS
 62
     7
 10
27.513092
 20
-34.235928
 11
27.513092
 21
-108.23593
  0
LINE
  8
0
  6
CONTINUOUS
 62
     7
 10
6.9273057
 20
-34.235928
 11
27.513092
 21
-34.235928
  0
LINE
  8
0
  6
CONTINUOUS
 62
     7
 10
-23.486908
 20
-31.735928
 11
3.5988786
 21
-31.735928
  0
LINE
  8
0
  6
CONTINUOUS
 62
     7
 10
6.513092
 20
-36.451221
 11
6.513092
 21
-106.36305
  0
LINE
  8
0
  6
CONTINUOUS
 62
     7
 10
4.3059864
 20
-32.02882
 11
6.2201991
 21
-33.943035
  0
LINE
  8
0
  6
CONTINUOUS
 62
     7
 10
4.013092
 20
-34.520973
 11
4.013092
 21
-108.7451
  0
LINE
  8
0
  6
CONTINUOUS
 62
     7
 10
-8.986908
 20
-110.73593
 11
3.5988786
 21
-110.73593
  0
LINE
  8
0
  6
CONTINUOUS
 62
     7
 10
4.3059864
 20
-110.44303
 11
6.2202005
 21
-108.52882
  0
LINE
  8
0
  6
CONTINUOUS
 62
     7
 10
6.9273057
 20
-108.23593
 11
27.513092
 21
-108.23593
  0
LINE
  8
0
  6
CONTINUOUS
 62
     7
 10
561.24091
 20
73.187935
 11
561.24091
 21
-19.312069
  0
LINE
  8
0
  6
CONTINUOUS
 62
     7
 10
540.10693
 20
73.187935
 11
561.24091
 21
73.187935
  0
LINE
  8
0
  6
CONTINUOUS
 62
     7
 10
539.24091
 20
71.736794
 11
539.24091
 21
-17.847
  0
LINE
  8
0
  6
CONTINUOUS
 62
     7
 10
25.522451
 20
-315.62888
 11
25.522451
 21
-446.62888
  0
LINE
  8
0
  6
CONTINUOUS
 62
     7
 10
5.3884768
 20
-315.62888
 11
25.522451
 21
-315.62888
  0
LINE
  8
0
  6
CONTINUOUS
 62
     7
 10
-23.609005
 20
-309.12888
 11
-0.096350729
 21
-309.12888
  0
LINE
  8
0
  6
CONTINUOUS
 62
     7
 10
4.5224514
 20
-317.47855
 11
4.5224514
 21
-445.05273
  0
LINE
  8
0
  6
CONTINUOUS
 62
     7
 10
1.2026974
 20
-309.87888
 11
4.0894465
 21
-314.87888
  0
LINE
  8
0
  6
CONTINUOUS
 62
     7
 10
0.76967466
 20
-312.62167
 11
0.76967466
 21
-450.2334
  0
LINE
  8
0
  6
CONTINUOUS
 62
     7
 10
-19.477549
 20
-453.12888
 11
-0.096350729
 21
-453.12888
  0
LINE
  8
0
  6
CONTINUOUS
 62
     7
 10
1.2026755
 20
-452.37888
 11
4.0894246
 21
-447.37888
  0
LINE
  8
0
  6
CONTINUOUS
 62
     7
 10
5.3884768
 20
-446.62888
 11
25.522451
 21
-446.62888
  0
LINE
  8
0
  6
CONTINUOUS
 62
     7
 10
514.83112
 20
78.437935
 11
535.34381
 21
78.437935
  0
LINE
  8
0
  6
CONTINUOUS
 62
     7
 10
539.86224
 20
-19.312069
 11
561.24091
 21
-19.312069
  0
LINE
  8
0
  6
CONTINUOUS
 62
     7
 10
750.36591
 20
79.437935
 11
771.49988
 21
79.437935
  0
LINE
  8
0
  6
CONTINUOUS
 62
     7
 10
723.94574
 20
84.937935
 11
745.45844
 21
84.937935
  0
LINE
  8
0
  6
CONTINUOUS
 62
     7
 10
771.49988
 20
79.437935
 11
771.49988
 21
-25.562069
  0
LINE
  8
0
  6
CONTINUOUS
 62
     7
 10
749.49988
 20
77.153687
 11
749.49988
 21
-23.566317
  0
LINE
  8
0
  6
CONTINUOUS
 62
     7
 10
746.75745
 20
84.18792
 11
749.06683
 21
80.187943
  0
LINE
  8
0
  6
CONTINUOUS
 62
     7
 10
746.3244
 20
82.359703
 11
746.3244
 21
-28.93479
  0
LINE
  8
0
  6
CONTINUOUS
 62
     7
 10
536.64282
 20
77.687935
 11
538.80792
 21
73.937935
  0
LINE
  8
0
  6
CONTINUOUS
 62
     7
 10
536.20984
 20
76.610733
 11
536.20984
 21
-23.05101
  0
LINE
  8
0
  6
CONTINUOUS
 62
     7
 10
521.24091
 20
-24.562069
 11
535.34381
 21
-24.562069
  0
LINE
  8
0
  6
CONTINUOUS
 62
     7
 10
536.64282
 20
-23.812084
 11
538.80792
 21
-20.062075
  0
LINE
  8
0
  6
CONTINUOUS
 62
     7
 10
750.36591
 20
-25.562069
 11
771.49988
 21
-25.562069
  0
LINE
  8
0
  6
CONTINUOUS
 62
     7
 10
729.49988
 20
-31.062069
 11
745.45844
 21
-31.062069
  0
LINE
  8
0
  6
CONTINUOUS
 62
     7
 10
746.75745
 20
-30.312084
 11
749.06683
 21
-26.31208
  0
LINE
  8
0
  6
CONTINUOUS
 62
     7
 10
-287
 20
-220
 11
-287
 21
-620
  0
LINE
  8
0
  6
CONTINUOUS
 62
     7
 10
-287
 20
-220
 11
287
 21
-220
  0
LINE
  8
0
  6
CONTINUOUS
 62
     7
 10
287
 20
-220
 11
287
 21
-620
  0
LINE
  8
0
  6
CONTINUOUS
 62
     7
 10
-287
 20
-620
 11
287
 21
-620
  0
LINE
  8
0
  6
CENTER
 62
     7
 10
-242.08246
 20
106.20798
 11
-158.47484
 21
106.20798
  0
LINE
  8
0
  6
CENTER
 62
     7
 10
-215.56076
 20
131.18097
 11
-215.56076
 21
50.599541
  0
LINE
  8
0
  6
CONTINUOUS
 62
     7
 10
-232.06076
 20
59.207989
 11
-199.06076
 21
59.207989
  0
LINE
  8
0
  6
CONTINUOUS
 62
     7
 10
-232.06076
 20
75.793777
 11
-232.06076
 21
59.207989
  0
LINE
  8
0
  6
CONTINUOUS
 62
     7
 10
-231.38123
 20
76.207985
 11
-199.93349
 21
76.207985
  0
LINE
  8
0
  6
CONTINUOUS
 62
     7
 10
-232.76788
 20
76.915092
 11
-232.35367
 21
76.500877
  0
LINE
  8
0
  6
CONTINUOUS
 62
     7
 10
-233.06076
 20
94.707985
 11
-233.06076
 21
77.6222
  0
LINE
  8
0
  6
CONTINUOUS
 62
     7
 10
-232.29941
 20
77.207985
 11
-199.0153
 21
77.207985
  0
LINE
  8
0
  6
CONTINUOUS
 62
     7
 10
-198.06076
 20
85.707985
 11
-198.06076
 21
77.6222
  0
LINE
  8
0
  6
CONTINUOUS
 62
     7
 10
-198.35367
 20
76.9151
 11
-198.76788
 21
76.500885
  0
LINE
  8
0
  6
CONTINUOUS
 62
     7
 10
-199.06076
 20
75.793777
 11
-199.06076
 21
59.207989
  0
LINE
  8
0
  6
CENTER
 62
     7
 10
-116.05914
 20
132.15771
 11
-116.05914
 21
45.715816
  0
LINE
  8
0
  6
CONTINUOUS
 62
     7
 10
-135.55914
 20
54.207989
 11
-96.559135
 21
54.207989
  0
LINE
  8
0
  6
CONTINUOUS
 62
     7
 10
-135.55914
 20
70.793777
 11
-135.55914
 21
54.207989
  0
LINE
  8
0
  6
CONTINUOUS
 62
     7
 10
-136.55914
 20
91.707985
 11
-136.55914
 21
72.6222
  0
LINE
  8
0
  6
CONTINUOUS
 62
     7
 10
-134.54277
 20
71.207985
 11
-97.327156
 21
71.207985
  0
LINE
  8
0
  6
CONTINUOUS
 62
     7
 10
-136.26625
 20
71.915092
 11
-135.85204
 21
71.500877
  0
LINE
  8
0
  6
CONTINUOUS
 62
     7
 10
-135.57481
 20
72.207985
 11
-96.41362
 21
72.207985
  0
LINE
  8
0
  6
CONTINUOUS
 62
     7
 10
-95.559135
 20
81.707985
 11
-95.559135
 21
72.6222
  0
LINE
  8
0
  6
CONTINUOUS
 62
     7
 10
-95.852028
 20
71.915092
 11
-96.266243
 21
71.500877
  0
LINE
  8
0
  6
CONTINUOUS
 62
     7
 10
-96.559135
 20
70.793777
 11
-96.559135
 21
54.207989
  0
LINE
  8
0
  6
CENTER
 62
     7
 10
-0.29163256
 20
135.72153
 11
-0.29163256
 21
29.539392
  0
LINE
  8
0
  6
CONTINUOUS
 62
     7
 10
-23.291632
 20
42.207989
 11
22.708368
 21
42.207989
  0
LINE
  8
0
  6
CONTINUOUS
 62
     7
 10
-23.291632
 20
63.793774
 11
-23.291632
 21
42.207989
  0
LINE
  8
0
  6
CONTINUOUS
 62
     7
 10
-24.791632
 20
87.707993
 11
-24.791632
 21
66.1222
  0
LINE
  8
0
  6
CONTINUOUS
 62
     7
 10
-21.620047
 20
64.207985
 11
21.159571
 21
64.207985
  0
LINE
  8
0
  6
CONTINUOUS
 62
     7
 10
-24.498739
 20
65.415092
 11
-23.584526
 21
64.500885
  0
LINE
  8
0
  6
CONTINUOUS
 62
     7
 10
-22.964727
 20
65.707985
 11
22.596338
 21
65.707985
  0
LINE
  8
0
  6
CONTINUOUS
 62
     7
 10
24.208368
 20
77.707985
 11
24.208368
 21
66.1222
  0
LINE
  8
0
  6
CONTINUOUS
 62
     7
 10
22.708368
 20
63.793774
 11
22.708368
 21
42.207989
  0
LINE
  8
0
  6
CONTINUOUS
 62
     7
 10
23.915474
 20
65.415092
 11
23.001261
 21
64.500885
  0
LINE
  8
0
  6
CENTER
 62
     7
 10
-256.07309
 20
-71.235931
 11
-132.12891
 21
-71.235931
  0
LINE
  8
0
  6
CENTER
 62
     7
 10
136.58641
 20
142.10843
 11
136.58641
 21
23.152496
  0
LINE
  8
0
  6
CONTINUOUS
 62
     7
 10
108.5864
 20
34.207989
 11
164.58641
 21
34.207989
  0
LINE
  8
0
  6
CONTINUOUS
 62
     7
 10
108.5864
 20
54.793774
 11
108.5864
 21
34.207989
  0
LINE
  8
0
  6
CONTINUOUS
 62
     7
 10
106.5864
 20
83.707993
 11
106.5864
 21
57.622204
  0
LINE
  8
0
  6
CONTINUOUS
 62
     7
 10
110.85862
 20
55.207989
 11
163.57916
 21
55.207989
  0
LINE
  8
0
  6
CONTINUOUS
 62
     7
 10
106.8793
 20
56.915092
 11
108.29351
 21
55.500881
  0
LINE
  8
0
  6
CONTINUOUS
 62
     7
 10
108.70717
 20
57.207989
 11
164.86845
 21
57.207989
  0
LINE
  8
0
  6
CONTINUOUS
 62
     7
 10
166.58641
 20
71.207985
 11
166.58641
 21
57.622204
  0
LINE
  8
0
  6
CONTINUOUS
 62
     7
 10
166.2935
 20
56.9151
 11
164.8793
 21
55.500885
  0
LINE
  8
0
  6
CONTINUOUS
 62
     7
 10
164.58641
 20
54.793774
 11
164.58641
 21
34.207989
  0
LINE
  8
0
  6
CENTER
 62
     7
 10
-216.20592
 20
-30.337753
 11
-216.20592
 21
-154.88222
  0
LINE
  8
0
  6
CONTINUOUS
 62
     7
 10
-247.20592
 20
-145.23593
 11
-185.20592
 21
-145.23593
  0
LINE
  8
0
  6
CONTINUOUS
 62
     7
 10
-247.20592
 20
-124.65014
 11
-247.20592
 21
-145.23593
  0
LINE
  8
0
  6
CONTINUOUS
 62
     7
 10
-248.95592
 20
-96.985931
 11
-248.95592
 21
-122.07172
  0
LINE
  8
0
  6
CONTINUOUS
 62
     7
 10
-245.1837
 20
-124.23593
 11
-187.2202
 21
-124.23593
  0
LINE
  8
0
  6
CONTINUOUS
 62
     7
 10
-248.66302
 20
-122.77882
 11
-247.49881
 21
-123.94304
  0
LINE
  8
0
  6
CONTINUOUS
 62
     7
 10
-183.45592
 20
-109.98593
 11
-183.45592
 21
-122.07172
  0
LINE
  8
0
  6
CONTINUOUS
 62
     7
 10
-183.74881
 20
-122.77882
 11
-184.91302
 21
-123.94303
  0
LINE
  8
0
  6
CONTINUOUS
 62
     7
 10
-185.20592
 20
-124.65014
 11
-185.20592
 21
-145.23593
  0
LINE
  8
0
  6
CONTINUOUS
 62
     7
 10
-246.87572
 20
-122.48593
 11
-185.60651
 21
-122.48593
  0
LINE
  8
0
  6
CENTER
 62
     7
 10
-55.486908
 20
-27.942667
 11
-55.486908
 21
-163.6642
  0
LINE
  8
0
  6
CONTINUOUS
 62
     7
 10
-92.486908
 20
-154.23593
 11
-18.486908
 21
-154.23593
  0
LINE
  8
0
  6
CONTINUOUS
 62
     7
 10
-92.486908
 20
-133.65015
 11
-92.486908
 21
-154.23593
  0
LINE
  8
0
  6
CONTINUOUS
 62
     7
 10
-94.986908
 20
-103.23593
 11
-94.986908
 21
-130.32172
  0
LINE
  8
0
  6
CONTINUOUS
 62
     7
 10
-90.271614
 20
-133.23593
 11
-20.359785
 21
-133.23593
  0
LINE
  8
0
  6
CONTINUOUS
 62
     7
 10
-94.694016
 20
-131.02882
 11
-92.779808
 21
-132.94304
  0
LINE
  8
0
  6
CONTINUOUS
 62
     7
 10
-92.201859
 20
-130.73593
 11
-17.977736
 21
-130.73593
  0
LINE
  8
0
  6
CONTINUOUS
 62
     7
 10
-15.986908
 20
-117.73593
 11
-15.986908
 21
-130.32172
  0
LINE
  8
0
  6
CONTINUOUS
 62
     7
 10
-16.279802
 20
-131.02882
 11
-18.194016
 21
-132.94304
  0
LINE
  8
0
  6
CONTINUOUS
 62
     7
 10
-18.486908
 20
-133.65015
 11
-18.486908
 21
-154.23593
  0
LINE
  8
0
  6
CENTER
 62
     7
 10
405.96704
 20
26.937931
 11
572.82471
 21
26.937931
  0
LINE
  8
0
  6
CENTER
 62
     7
 10
462.24091
 20
80.63456
 11
462.24091
 21
-83.828003
  0
LINE
  8
0
  6
CONTINUOUS
 62
     7
 10
514.20984
 20
76.610733
 11
514.20984
 21
-23.05101
  0
LINE
  8
0
  6
CONTINUOUS
 62
     7
 10
502.24091
 20
75.937935
 11
511.0885
 21
75.937935
  0
LINE
  8
0
  6
CONTINUOUS
 62
     7
 10
513.77051
 20
77.998596
 11
512.14917
 21
76.377266
  0
LINE
  8
0
  6
CONTINUOUS
 62
     7
 10
511.70984
 20
75.074791
 11
511.70984
 21
-21.089142
  0
LINE
  8
0
  6
CONTINUOUS
 62
     7
 10
415.99091
 20
-72.062065
 11
508.49091
 21
-72.062065
  0
LINE
  8
0
  6
CONTINUOUS
 62
     7
 10
415.99091
 20
-50.928093
 11
415.99091
 21
-72.062065
  0
LINE
  8
0
  6
CONTINUOUS
 62
     7
 10
417.44205
 20
-50.062069
 11
507.02585
 21
-50.062069
  0
LINE
  8
0
  6
CONTINUOUS
 62
     7
 10
410.74091
 20
-25.6523
 11
410.74091
 21
-46.164955
  0
LINE
  8
0
  6
CONTINUOUS
 62
     7
 10
508.49091
 20
-50.683388
 11
508.49091
 21
-72.062065
  0
LINE
  8
0
  6
CONTINUOUS
 62
     7
 10
411.49091
 20
-47.463993
 11
415.24091
 21
-49.629063
  0
LINE
  8
0
  6
CONTINUOUS
 62
     7
 10
412.56812
 20
-47.030979
 11
512.22986
 21
-47.030979
  0
LINE
  8
0
  6
CONTINUOUS
 62
     7
 10
513.74091
 20
-32.062069
 11
513.74091
 21
-46.164955
  0
LINE
  8
0
  6
CONTINUOUS
 62
     7
 10
512.99091
 20
-47.464005
 11
509.24094
 21
-49.629059
  0
LINE
  8
0
  6
CONTINUOUS
 62
     7
 10
412.56812
 20
-25.030979
 11
512.22986
 21
-25.030979
  0
LINE
  8
0
  6
CONTINUOUS
 62
     7
 10
413.24091
 20
-13.062065
 11
413.24091
 21
-21.90966
  0
LINE
  8
0
  6
CONTINUOUS
 62
     7
 10
411.18027
 20
-24.59164
 11
412.80157
 21
-22.970331
  0
LINE
  8
0
  6
CONTINUOUS
 62
     7
 10
414.10406
 20
-22.530979
 11
510.26797
 21
-22.530979
  0
LINE
  8
0
  6
CENTER
 62
     7
 10
663.49988
 20
86.223091
 11
663.49988
 21
-91.811623
  0
LINE
  8
0
  6
CONTINUOUS
 62
     7
 10
723.3244
 20
82.359703
 11
723.3244
 21
-28.93479
  0
LINE
  8
0
  6
CONTINUOUS
 62
     7
 10
722.88507
 20
84.498611
 11
721.26373
 21
82.877281
  0
LINE
  8
0
  6
CONTINUOUS
 62
     7
 10
709.99988
 20
82.437935
 11
720.20313
 21
82.437935
  0
LINE
  8
0
  6
CONTINUOUS
 62
     7
 10
720.8244
 20
80.808334
 11
720.8244
 21
-22.027683
  0
LINE
  8
0
  6
CONTINUOUS
 62
     7
 10
610.99988
 20
-59.928093
 11
610.99988
 21
-81.062065
  0
LINE
  8
0
  6
CONTINUOUS
 62
     7
 10
605.49988
 20
-33.507961
 11
605.49988
 21
-55.020618
  0
LINE
  8
0
  6
CONTINUOUS
 62
     7
 10
610.99988
 20
-81.062065
 11
715.99988
 21
-81.062065
  0
LINE
  8
0
  6
CONTINUOUS
 62
     7
 10
613.28412
 20
-59.062069
 11
714.00409
 21
-59.062069
  0
LINE
  8
0
  6
CONTINUOUS
 62
     7
 10
606.24988
 20
-56.319668
 11
610.24988
 21
-58.629055
  0
LINE
  8
0
  6
CONTINUOUS
 62
     7
 10
608.07806
 20
-55.886642
 11
719.37256
 21
-55.886642
  0
LINE
  8
0
  6
CONTINUOUS
 62
     7
 10
715.99988
 20
-59.928093
 11
715.99988
 21
-81.062065
  0
LINE
  8
0
  6
CONTINUOUS
 62
     7
 10
721.49988
 20
-39.062069
 11
721.49988
 21
-55.020618
  0
LINE
  8
0
  6
CONTINUOUS
 62
     7
 10
720.74982
 20
-56.319653
 11
716.74988
 21
-58.62904
  0
LINE
  8
0
  6
CONTINUOUS
 62
     7
 10
608.07806
 20
-32.886642
 11
719.37256
 21
-32.886642
  0
LINE
  8
0
  6
CONTINUOUS
 62
     7
 10
605.93921
 20
-32.447285
 11
607.56049
 21
-30.825975
  0
LINE
  8
0
  6
CONTINUOUS
 62
     7
 10
607.99988
 20
-19.562065
 11
607.99988
 21
-29.765322
  0
LINE
  8
0
  6
CONTINUOUS
 62
     7
 10
609.62946
 20
-30.386642
 11
712.46545
 21
-30.386642
  0
LINE
  8
0
  6
CENTER
 62
     7
 10
-101.47755
 20
-311.36115
 11
-101.47755
 21
-518.93524
  0
LINE
  8
0
  6
CONTINUOUS
 62
     7
 10
-40.977554
 20
-311.62888
 11
-27.351646
 21
-311.62888
  0
LINE
  8
0
  6
CONTINUOUS
 62
     7
 10
-24.230326
 20
-312.62167
 11
-24.230326
 21
-450.2334
  0
LINE
  8
0
  6
CONTINUOUS
 62
     7
 10
-24.669661
 20
-309.56821
 11
-26.290991
 21
-311.18954
  0
LINE
  8
0
  6
CONTINUOUS
 62
     7
 10
-26.730326
 20
-314.26083
 11
-26.730326
 21
-449.33353
  0
LINE
  8
0
  6
CONTINUOUS
 62
     7
 10
-166.97755
 20
-508.12888
 11
-35.977547
 21
-508.12888
  0
LINE
  8
0
  6
CONTINUOUS
 62
     7
 10
-166.97755
 20
-487.9949
 11
-166.97755
 21
-508.12888
  0
LINE
  8
0
  6
CONTINUOUS
 62
     7
 10
-173.47755
 20
-458.99741
 11
-173.47755
 21
-482.51007
  0
LINE
  8
0
  6
CONTINUOUS
 62
     7
 10
-165.12787
 20
-487.12888
 11
-37.553692
 21
-487.12888
  0
LINE
  8
0
  6
CONTINUOUS
 62
     7
 10
-172.72754
 20
-483.80908
 11
-167.72755
 21
-486.69583
  0
LINE
  8
0
  6
CONTINUOUS
 62
     7
 10
-169.98476
 20
-483.3761
 11
-32.373016
 21
-483.3761
  0
LINE
  8
0
  6
CONTINUOUS
 62
     7
 10
-29.477549
 20
-463.12888
 11
-29.477549
 21
-482.51007
  0
LINE
  8
0
  6
CONTINUOUS
 62
     7
 10
-30.227537
 20
-483.80908
 11
-35.227535
 21
-486.69583
  0
LINE
  8
0
  6
CONTINUOUS
 62
     7
 10
-35.977547
 20
-487.9949
 11
-35.977547
 21
-508.12888
  0
LINE
  8
0
  6
CONTINUOUS
 62
     7
 10
-170.97755
 20
-441.62888
 11
-170.97755
 21
-455.25476
  0
LINE
  8
0
  6
CONTINUOUS
 62
     7
 10
-169.98476
 20
-458.3761
 11
-32.373016
 21
-458.3761
  0
LINE
  8
0
  6
CONTINUOUS
 62
     7
 10
-173.03822
 20
-457.93677
 11
-171.41689
 21
-456.31543
  0
LINE
  8
0
  6
CONTINUOUS
 62
     7
 10
-168.34558
 20
-455.8761
 11
-33.272903
 21
-455.8761
  0
LINE
  8
0
  6
CONTINUOUS
 62
     7
 10
-287
 20
200
 11
-287
 21
-200
  0
LINE
  8
0
  6
CONTINUOUS
 62
     7
 10
-287
 20
200
 11
287
 21
200
  0
LINE
  8
0
  6
CONTINUOUS
 62
     7
 10
287
 20
200
 11
287
 21
-200
  0
LINE
  8
0
  6
CONTINUOUS
 62
     7
 10
-287
 20
-200
 11
287
 21
-200
  0
LINE
  8
0
  6
CENTER
 62
     7
 10
-174.84126
 20
-381.12888
 11
39.119736
 21
-381.12888
  0
LINE
  8
0
  6
CENTER
 62
     7
 10
-142.5076
 20
106.20798
 11
-51.494347
 21
106.20798
  0
LINE
  8
0
  6
CENTER
 62
     7
 10
-29.938572
 20
106.20798
 11
74.646843
 21
106.20798
  0
LINE
  8
0
  6
CENTER
 62
     7
 10
100.19442
 20
106.20798
 11
219.15036
 21
106.20798
  0
LINE
  8
0
  6
CENTER
 62
     7
 10
-97.000977
 20
-71.235931
 11
43.510727
 21
-71.235931
  0
LINE
  8
0
  6
CENTER
 62
     7
 10
607.95264
 20
26.937931
 11
784.39063
 21
26.937931
  0
LINE
  8
0
  6
CONTINUOUS
 62
     7
 10
307
 20
200
 11
307
 21
-200
  0
LINE
  8
0
  6
CONTINUOUS
 62
     7
 10
307
 20
-200
 11
881
 21
-200
  0
LINE
  8
0
  6
CONTINUOUS
 62
     7
 10
881
 20
200
 11
881
 21
-200
  0
LINE
  8
0
  6
CONTINUOUS
 62
     7
 10
307
 20
200
 11
881
 21
200
  0
LINE
  8
0
  6
CONTINUOUS
 62
     7
 10
-115.75751
 20
66.540619
 11
-115.75751
 21
65.308014
  0
LINE
  8
0
  6
CONTINUOUS
 62
     7
 10
-116.6575
 20
66.540619
 11
-116.6575
 21
65.308014
  0
LINE
  8
0
  6
CONTINUOUS
 62
     7
 10
-116.6575
 20
58.773224
 11
-116.6575
 21
57.540619
  0
LINE
  8
0
  6
CONTINUOUS
 62
     7
 10
-115.75751
 20
58.773224
 11
-115.75751
 21
57.540619
  0
LINE
  8
0
  6
CONTINUOUS
 62
     7
 10
-116.6575
 20
64.404755
 11
-116.6575
 21
62.040619
  0
LINE
  8
0
  6
CONTINUOUS
 62
     7
 10
-115.75751
 20
64.404755
 11
-115.75751
 21
62.040619
  0
LINE
  8
0
  6
CONTINUOUS
 62
     7
 10
-215.51508
 20
-128.39728
 11
-215.51508
 21
-130.04074
  0
LINE
  8
0
  6
CONTINUOUS
 62
     7
 10
-216.71509
 20
-128.39728
 11
-216.71509
 21
-130.04074
  0
LINE
  8
0
  6
CONTINUOUS
 62
     7
 10
-216.71509
 20
-138.75381
 11
-216.71509
 21
-140.39728
  0
LINE
  8
0
  6
CONTINUOUS
 62
     7
 10
-215.51508
 20
-138.75381
 11
-215.51508
 21
-140.39728
  0
LINE
  8
0
  6
CONTINUOUS
 62
     7
 10
-216.71509
 20
-131.2451
 11
-216.71509
 21
-134.39728
  0
LINE
  8
0
  6
CONTINUOUS
 62
     7
 10
-215.51508
 20
-131.2451
 11
-215.51508
 21
-134.39728
  0
LINE
  8
0
  6
CONTINUOUS
 62
     7
 10
-100.53616
 20
-488.79581
 11
-100.53616
 21
-491.26102
  0
LINE
  8
0
  6
CONTINUOUS
 62
     7
 10
-102.33615
 20
-488.79581
 11
-102.33615
 21
-491.26102
  0
LINE
  8
0
  6
CONTINUOUS
 62
     7
 10
-102.33615
 20
-504.3306
 11
-102.33615
 21
-506.79581
  0
LINE
  8
0
  6
CONTINUOUS
 62
     7
 10
-100.53616
 20
-504.3306
 11
-100.53616
 21
-506.79581
  0
LINE
  8
0
  6
CONTINUOUS
 62
     7
 10
-102.33615
 20
-493.06754
 11
-102.33615
 21
-497.79581
  0
LINE
  8
0
  6
CONTINUOUS
 62
     7
 10
-100.53616
 20
-493.06754
 11
-100.53616
 21
-497.79581
  0
LINE
  8
0
  6
CONTINUOUS
 62
     7
 10
-214.98224
 20
72.247665
 11
-214.98224
 21
71.01506
  0
LINE
  8
0
  6
CONTINUOUS
 62
     7
 10
-215.88223
 20
72.247665
 11
-215.88223
 21
71.01506
  0
LINE
  8
0
  6
CONTINUOUS
 62
     7
 10
-215.88223
 20
64.48027
 11
-215.88223
 21
63.247662
  0
LINE
  8
0
  6
CONTINUOUS
 62
     7
 10
-214.98224
 20
64.48027
 11
-214.98224
 21
63.247662
  0
LINE
  8
0
  6
CONTINUOUS
 62
     7
 10
-215.88223
 20
70.111801
 11
-215.88223
 21
67.747665
  0
LINE
  8
0
  6
CONTINUOUS
 62
     7
 10
-214.98224
 20
70.111801
 11
-214.98224
 21
67.747665
  0
LINE
  8
0
  6
CONTINUOUS
 62
     7
 10
0.24667493
 20
58.918137
 11
0.24667493
 21
57.274673
  0
LINE
  8
0
  6
CONTINUOUS
 62
     7
 10
-0.95333731
 20
58.918137
 11
-0.95333731
 21
57.274673
  0
LINE
  8
0
  6
CONTINUOUS
 62
     7
 10
-0.95333731
 20
48.5616
 11
-0.95333731
 21
46.918137
  0
LINE
  8
0
  6
CONTINUOUS
 62
     7
 10
0.24667493
 20
48.5616
 11
0.24667493
 21
46.918137
  0
LINE
  8
0
  6
CONTINUOUS
 62
     7
 10
-0.95333731
 20
56.070313
 11
-0.95333731
 21
52.918137
  0
LINE
  8
0
  6
CONTINUOUS
 62
     7
 10
0.24667493
 20
56.070313
 11
0.24667493
 21
52.918137
  0
LINE
  8
0
  6
CONTINUOUS
 62
     7
 10
137.35922
 20
51.239368
 11
137.35922
 21
49.595905
  0
LINE
  8
0
  6
CONTINUOUS
 62
     7
 10
136.15921
 20
51.239368
 11
136.15921
 21
49.595905
  0
LINE
  8
0
  6
CONTINUOUS
 62
     7
 10
136.15921
 20
40.882832
 11
136.15921
 21
39.239368
  0
LINE
  8
0
  6
CONTINUOUS
 62
     7
 10
137.35922
 20
40.882832
 11
137.35922
 21
39.239368
  0
LINE
  8
0
  6
CONTINUOUS
 62
     7
 10
136.15921
 20
48.391544
 11
136.15921
 21
45.239368
  0
LINE
  8
0
  6
CONTINUOUS
 62
     7
 10
137.35922
 20
48.391544
 11
137.35922
 21
45.239368
  0
LINE
  8
0
  6
CONTINUOUS
 62
     7
 10
-54.820576
 20
-136.41119
 11
-54.820576
 21
-138.46553
  0
LINE
  8
0
  6
CONTINUOUS
 62
     7
 10
-56.320576
 20
-136.41119
 11
-56.320576
 21
-138.46553
  0
LINE
  8
0
  6
CONTINUOUS
 62
     7
 10
-56.320576
 20
-149.35687
 11
-56.320576
 21
-151.41119
  0
LINE
  8
0
  6
CONTINUOUS
 62
     7
 10
-54.820576
 20
-149.35687
 11
-54.820576
 21
-151.41119
  0
LINE
  8
0
  6
CONTINUOUS
 62
     7
 10
-56.320576
 20
-139.97098
 11
-56.320576
 21
-143.91119
  0
LINE
  8
0
  6
CONTINUOUS
 62
     7
 10
-54.820576
 20
-139.97098
 11
-54.820576
 21
-143.91119
  0
LINE
  8
0
  6
CONTINUOUS
 62
     7
 10
462.79269
 20
-53.015358
 11
462.79269
 21
-55.069687
  0
LINE
  8
0
  6
CONTINUOUS
 62
     7
 10
461.29269
 20
-53.015358
 11
461.29269
 21
-55.069687
  0
LINE
  8
0
  6
CONTINUOUS
 62
     7
 10
461.29269
 20
-65.961029
 11
461.29269
 21
-68.015358
  0
LINE
  8
0
  6
CONTINUOUS
 62
     7
 10
462.79269
 20
-65.961029
 11
462.79269
 21
-68.015358
  0
LINE
  8
0
  6
CONTINUOUS
 62
     7
 10
461.29269
 20
-56.575142
 11
461.29269
 21
-60.515358
  0
LINE
  8
0
  6
CONTINUOUS
 62
     7
 10
462.79269
 20
-56.575142
 11
462.79269
 21
-60.515358
  0
LINE
  8
0
  6
CONTINUOUS
 62
     7
 10
664.13324
 20
-61.765125
 11
664.13324
 21
-64.230339
  0
LINE
  8
0
  6
CONTINUOUS
 62
     7
 10
662.33325
 20
-61.765125
 11
662.33325
 21
-64.230339
  0
LINE
  8
0
  6
CONTINUOUS
 62
     7
 10
662.33325
 20
-77.299919
 11
662.33325
 21
-79.765129
  0
LINE
  8
0
  6
CONTINUOUS
 62
     7
 10
664.13324
 20
-77.299919
 11
664.13324
 21
-79.765129
  0
LINE
  8
0
  6
CONTINUOUS
 62
     7
 10
662.33325
 20
-66.036858
 11
662.33325
 21
-70.765129
  0
LINE
  8
0
  6
CONTINUOUS
 62
     7
 10
664.13324
 20
-66.036858
 11
664.13324
 21
-70.765129
  0
ARC
  8
0
  6
CONTINUOUS
 62
     7
 10
-185.14655
 20
123.70798
 40
1
 50
225
 51
270
  0
ARC
  8
0
  6
CONTINUOUS
 62
     7
 10
-186.97498
 20
122.70798
 40
1
 50
45.000001
 51
90.000003
  0
ARC
  8
0
  6
CONTINUOUS
 62
     7
 10
-185.14655
 20
88.707985
 40
1
 50
90.000003
 51
135
  0
ARC
  8
0
  6
CONTINUOUS
 62
     7
 10
-186.97498
 20
89.707985
 40
1
 50
270
 51
315
  0
ARC
  8
0
  6
CONTINUOUS
 62
     7
 10
-80.644928
 20
126.70798
 40
1
 50
225
 51
270
  0
ARC
  8
0
  6
CONTINUOUS
 62
     7
 10
-82.473351
 20
125.70798
 40
1
 50
45.000001
 51
90.000003
  0
ARC
  8
0
  6
CONTINUOUS
 62
     7
 10
-82.473351
 20
86.707985
 40
1
 50
270
 51
315
  0
ARC
  8
0
  6
CONTINUOUS
 62
     7
 10
-80.644928
 20
85.707985
 40
1
 50
90.000003
 51
135
  0
ARC
  8
0
  6
CONTINUOUS
 62
     7
 10
42.122581
 20
130.20799
 40
1
 50
225
 51
270
  0
ARC
  8
0
  6
CONTINUOUS
 62
     7
 10
39.794155
 20
129.70799
 40
1
 50
45.000001
 51
90.000003
  0
ARC
  8
0
  6
CONTINUOUS
 62
     7
 10
39.794155
 20
82.707985
 40
1
 50
270
 51
315
  0
ARC
  8
0
  6
CONTINUOUS
 62
     7
 10
42.122581
 20
82.207985
 40
1
 50
90.000003
 51
135
  0
ARC
  8
0
  6
CONTINUOUS
 62
     7
 10
188.00061
 20
135.20799
 40
1
 50
225
 51
270
  0
ARC
  8
0
  6
CONTINUOUS
 62
     7
 10
185.1722
 20
135.20799
 40
1
 50
45.000001
 51
90.000003
  0
ARC
  8
0
  6
CONTINUOUS
 62
     7
 10
185.1722
 20
77.207985
 40
1
 50
270
 51
315
  0
ARC
  8
0
  6
CONTINUOUS
 62
     7
 10
188.00061
 20
77.207985
 40
1
 50
90.000003
 51
135
  0
ARC
  8
0
  6
CONTINUOUS
 62
     7
 10
-162.7917
 20
-39.235928
 40
1
 50
225
 51
270
  0
ARC
  8
0
  6
CONTINUOUS
 62
     7
 10
-165.37013
 20
-39.485928
 40
1
 50
45.000001
 51
90.000003
  0
ARC
  8
0
  6
CONTINUOUS
 62
     7
 10
-165.37013
 20
-102.98593
 40
1
 50
270
 51
315
  0
ARC
  8
0
  6
CONTINUOUS
 62
     7
 10
-162.7917
 20
-103.23593
 40
1
 50
90.000003
 51
135
  0
ARC
  8
0
  6
CONTINUOUS
 62
     7
 10
6.9273057
 20
-33.235928
 40
1
 50
225
 51
270
  0
ARC
  8
0
  6
CONTINUOUS
 62
     7
 10
3.5988786
 20
-32.735928
 40
1
 50
45.000001
 51
90.000003
  0
ARC
  8
0
  6
CONTINUOUS
 62
     7
 10
3.5988786
 20
-109.73593
 40
1
 50
270
 51
315
  0
ARC
  8
0
  6
CONTINUOUS
 62
     7
 10
6.9273057
 20
-109.23593
 40
1
 50
90.000003
 51
135
  0
ARC
  8
0
  6
CONTINUOUS
 62
     7
 10
5.3884768
 20
-314.12888
 40
1.5
 50
210
 51
270
  0
ARC
  8
0
  6
CONTINUOUS
 62
     7
 10
-0.096350729
 20
-310.62888
 40
1.5
 50
30.000001
 51
90.000003
  0
ARC
  8
0
  6
CONTINUOUS
 62
     7
 10
-0.096350729
 20
-451.62888
 40
1.5
 50
270
 51
330
  0
ARC
  8
0
  6
CONTINUOUS
 62
     7
 10
5.3884768
 20
-448.12888
 40
1.5
 50
90.000003
 51
150
  0
ARC
  8
0
  6
CONTINUOUS
 62
     7
 10
750.36591
 20
80.937935
 40
1.5
 50
210
 51
270
  0
ARC
  8
0
  6
CONTINUOUS
 62
     7
 10
745.45844
 20
83.437935
 40
1.5
 50
30.000001
 51
90.000003
  0
ARC
  8
0
  6
CONTINUOUS
 62
     7
 10
540.10693
 20
74.687935
 40
1.5
 50
210
 51
270
  0
ARC
  8
0
  6
CONTINUOUS
 62
     7
 10
535.34381
 20
76.937935
 40
1.5
 50
30.000001
 51
90.000003
  0
ARC
  8
0
  6
CONTINUOUS
 62
     7
 10
535.34381
 20
-23.062069
 40
1.5
 50
270
 51
330
  0
ARC
  8
0
  6
CONTINUOUS
 62
     7
 10
540.10693
 20
-20.812069
 40
1.5
 50
90.000003
 51
150
  0
ARC
  8
0
  6
CONTINUOUS
 62
     7
 10
750.36591
 20
-27.062069
 40
1.5
 50
90.000003
 51
150
  0
ARC
  8
0
  6
CONTINUOUS
 62
     7
 10
745.45844
 20
-29.562069
 40
1.5
 50
270
 51
330
  0
ARC
  8
0
  6
CONTINUOUS
 62
     7
 10
-199.06076
 20
77.6222
 40
1
 50
315
 51
0
  0
ARC
  8
0
  6
CONTINUOUS
 62
     7
 10
-233.06076
 20
75.793777
 40
1
 50
0
 51
45.000001
  0
ARC
  8
0
  6
CONTINUOUS
 62
     7
 10
-232.06076
 20
77.6222
 40
1
 50
179.99999
 51
225
  0
ARC
  8
0
  6
CONTINUOUS
 62
     7
 10
-198.06076
 20
75.793777
 40
1
 50
135
 51
180.00001
  0
ARC
  8
0
  6
CONTINUOUS
 62
     7
 10
-95.559135
 20
70.793777
 40
1
 50
135
 51
180.00001
  0
ARC
  8
0
  6
CONTINUOUS
 62
     7
 10
-136.55914
 20
70.793777
 40
1
 50
0
 51
45.000001
  0
ARC
  8
0
  6
CONTINUOUS
 62
     7
 10
-135.55914
 20
72.6222
 40
1
 50
179.99999
 51
225
  0
ARC
  8
0
  6
CONTINUOUS
 62
     7
 10
-96.559135
 20
72.6222
 40
1
 50
315
 51
0
  0
ARC
  8
0
  6
CONTINUOUS
 62
     7
 10
23.708368
 20
63.793774
 40
1
 50
135
 51
180.00001
  0
ARC
  8
0
  6
CONTINUOUS
 62
     7
 10
-24.291632
 20
63.793774
 40
1
 50
0
 51
45.000001
  0
ARC
  8
0
  6
CONTINUOUS
 62
     7
 10
-23.791632
 20
66.1222
 40
1
 50
179.99999
 51
225
  0
ARC
  8
0
  6
CONTINUOUS
 62
     7
 10
23.208368
 20
66.1222
 40
1
 50
315
 51
0
  0
ARC
  8
0
  6
CONTINUOUS
 62
     7
 10
165.58641
 20
54.793774
 40
1
 50
135
 51
180.00001
  0
ARC
  8
0
  6
CONTINUOUS
 62
     7
 10
107.5864
 20
54.793774
 40
1
 50
0
 51
45.000001
  0
ARC
  8
0
  6
CONTINUOUS
 62
     7
 10
107.5864
 20
57.622204
 40
1
 50
179.99999
 51
225
  0
ARC
  8
0
  6
CONTINUOUS
 62
     7
 10
165.58641
 20
57.622204
 40
1
 50
315
 51
0
  0
ARC
  8
0
  6
CONTINUOUS
 62
     7
 10
-184.20592
 20
-124.65014
 40
1
 50
135
 51
180.00001
  0
ARC
  8
0
  6
CONTINUOUS
 62
     7
 10
-248.20592
 20
-124.65014
 40
1
 50
0
 51
45.000001
  0
ARC
  8
0
  6
CONTINUOUS
 62
     7
 10
-247.95592
 20
-122.07172
 40
1
 50
179.99999
 51
225
  0
ARC
  8
0
  6
CONTINUOUS
 62
     7
 10
-184.45592
 20
-122.07172
 40
1
 50
315
 51
0
  0
ARC
  8
0
  6
CONTINUOUS
 62
     7
 10
-17.486908
 20
-133.65015
 40
1
 50
135
 51
180.00001
  0
ARC
  8
0
  6
CONTINUOUS
 62
     7
 10
-93.486908
 20
-133.65015
 40
1
 50
0
 51
45.000001
  0
ARC
  8
0
  6
CONTINUOUS
 62
     7
 10
-93.986908
 20
-130.32172
 40
1
 50
179.99999
 51
225
  0
ARC
  8
0
  6
CONTINUOUS
 62
     7
 10
-16.986908
 20
-130.32172
 40
1
 50
315
 51
0
  0
ARC
  8
0
  6
CONTINUOUS
 62
     7
 10
514.83112
 20
76.937935
 40
1.5
 50
90.000003
 51
135
  0
ARC
  8
0
  6
CONTINUOUS
 62
     7
 10
511.0885
 20
77.437935
 40
1.5
 50
270
 51
315
  0
ARC
  8
0
  6
CONTINUOUS
 62
     7
 10
414.49091
 20
-50.928093
 40
1.5
 50
0
 51
60.000002
  0
ARC
  8
0
  6
CONTINUOUS
 62
     7
 10
412.24091
 20
-46.164955
 40
1.5
 50
179.99999
 51
240.00001
  0
ARC
  8
0
  6
CONTINUOUS
 62
     7
 10
512.24091
 20
-46.164955
 40
1.5
 50
300
 51
0
  0
ARC
  8
0
  6
CONTINUOUS
 62
     7
 10
509.99091
 20
-50.928093
 40
1.5
 50
120
 51
180.00001
  0
ARC
  8
0
  6
CONTINUOUS
 62
     7
 10
412.24091
 20
-25.6523
 40
1.5
 50
135
 51
180.00001
  0
ARC
  8
0
  6
CONTINUOUS
 62
     7
 10
411.74091
 20
-21.90966
 40
1.5
 50
315
 51
0
  0
ARC
  8
0
  6
CONTINUOUS
 62
     7
 10
723.94574
 20
83.437935
 40
1.5
 50
90.000003
 51
135
  0
ARC
  8
0
  6
CONTINUOUS
 62
     7
 10
720.20313
 20
83.937935
 40
1.5
 50
270
 51
315
  0
ARC
  8
0
  6
CONTINUOUS
 62
     7
 10
609.49988
 20
-59.928093
 40
1.5
 50
0
 51
60.000002
  0
ARC
  8
0
  6
CONTINUOUS
 62
     7
 10
606.99988
 20
-55.020618
 40
1.5
 50
179.99999
 51
240.00001
  0
ARC
  8
0
  6
CONTINUOUS
 62
     7
 10
717.49988
 20
-59.928093
 40
1.5
 50
120
 51
180.00001
  0
ARC
  8
0
  6
CONTINUOUS
 62
     7
 10
719.99988
 20
-55.020618
 40
1.5
 50
300
 51
0
  0
ARC
  8
0
  6
CONTINUOUS
 62
     7
 10
606.99988
 20
-33.507961
 40
1.5
 50
135
 51
180.00001
  0
ARC
  8
0
  6
CONTINUOUS
 62
     7
 10
606.49988
 20
-29.765322
 40
1.5
 50
315
 51
0
  0
ARC
  8
0
  6
CONTINUOUS
 62
     7
 10
-23.609005
 20
-310.62888
 40
1.5
 50
90.000003
 51
135
  0
ARC
  8
0
  6
CONTINUOUS
 62
     7
 10
-27.351646
 20
-310.12888
 40
1.5
 50
270
 51
315
  0
ARC
  8
0
  6
CONTINUOUS
 62
     7
 10
-168.47755
 20
-487.9949
 40
1.5
 50
0
 51
60.000002
  0
ARC
  8
0
  6
CONTINUOUS
 62
     7
 10
-171.97755
 20
-482.51007
 40
1.5
 50
179.99999
 51
240.00001
  0
ARC
  8
0
  6
CONTINUOUS
 62
     7
 10
-30.977549
 20
-482.51007
 40
1.5
 50
300
 51
0
  0
ARC
  8
0
  6
CONTINUOUS
 62
     7
 10
-34.477547
 20
-487.9949
 40
1.5
 50
120
 51
180.00001
  0
ARC
  8
0
  6
CONTINUOUS
 62
     7
 10
-171.97755
 20
-458.99741
 40
1.5
 50
135
 51
180.00001
  0
ARC
  8
0
  6
CONTINUOUS
 62
     7
 10
-172.47755
 20
-455.25476
 40
1.5
 50
315
 51
0
  0
ARC
  8
0
  6
CONTINUOUS
 62
     7
 10
-195.06076
 20
85.707985
 40
3
 50
90.000003
 51
180.00001
  0
ARC
  8
0
  6
CONTINUOUS
 62
     7
 10
-91.559135
 20
81.707985
 40
4
 50
90.000003
 51
180.00001
  0
ARC
  8
0
  6
CONTINUOUS
 62
     7
 10
28.208368
 20
77.707985
 40
4
 50
90.000003
 51
180.00001
  0
ARC
  8
0
  6
CONTINUOUS
 62
     7
 10
171.58641
 20
71.207985
 40
5
 50
90.000003
 51
180.00001
  0
ARC
  8
0
  6
CONTINUOUS
 62
     7
 10
-177.45592
 20
-109.98593
 40
6
 50
90.000003
 51
180.00001
  0
ARC
  8
0
  6
CONTINUOUS
 62
     7
 10
-8.986908
 20
-117.73593
 40
7
 50
90.000003
 51
180.00001
  0
ARC
  8
0
  6
CONTINUOUS
 62
     7
 10
521.24091
 20
-32.062069
 40
7.5
 50
90.000003
 51
180.00001
  0
ARC
  8
0
  6
CONTINUOUS
 62
     7
 10
729.49988
 20
-39.062069
 40
8
 50
90.000003
 51
180.00001
  0
ARC
  8
0
  6
CONTINUOUS
 62
     7
 10
-19.477549
 20
-463.12888
 40
10
 50
90.000003
 51
180.00001
  0
ARC
  8
0
  6
CONTINUOUS
 62
     7
 10
-204.06076
 20
94.707985
 40
29
 50
90.000003
 51
180.00001
  0
ARC
  8
0
  6
CONTINUOUS
 62
     7
 10
-101.55914
 20
91.707985
 40
35
 50
90.000003
 51
180.00001
  0
ARC
  8
0
  6
CONTINUOUS
 62
     7
 10
18.208368
 20
87.707993
 40
43
 50
90.000003
 51
180.00001
  0
ARC
  8
0
  6
CONTINUOUS
 62
     7
 10
159.0864
 20
83.707993
 40
52.5
 50
90.000003
 51
180.00001
  0
ARC
  8
0
  6
CONTINUOUS
 62
     7
 10
-190.45592
 20
-96.985931
 40
58.5
 50
90.000003
 51
180.00001
  0
ARC
  8
0
  6
CONTINUOUS
 62
     7
 10
-23.486908
 20
-103.23593
 40
71.5
 50
90.000003
 51
180.00001
  0
ARC
  8
0
  6
CONTINUOUS
 62
     7
 10
502.24091
 20
-13.062065
 40
89
 50
90.000003
 51
180.00001
  0
ARC
  8
0
  6
CONTINUOUS
 62
     7
 10
709.99988
 20
-19.562065
 40
102
 50
90.000003
 51
180.00001
  0
ARC
  8
0
  6
CONTINUOUS
 62
     7
 10
-40.977554
 20
-441.62888
 40
130
 50
90.000003
 51
180.00001
  0
ARC
  8
0
  6
CONTINUOUS
 62
     7
 10
-114.4075
 20
62.040619
 40
1.8
 50
306.00833
 51
53.991676
  0
ARC
  8
0
  6
CONTINUOUS
 62
     7
 10
-114.4075
 20
62.040619
 40
2.7
 50
306.00833
 51
53.991676
  0
ARC
  8
0
  6
CONTINUOUS
 62
     7
 10
-118.00751
 20
62.040619
 40
1.8
 50
126.00833
 51
233.99168
  0
ARC
  8
0
  6
CONTINUOUS
 62
     7
 10
-118.00751
 20
62.040619
 40
2.7
 50
126.00833
 51
233.99168
  0
ARC
  8
0
  6
CONTINUOUS
 62
     7
 10
-116.2075
 20
59.563889
 40
5.7617307
 50
53.991676
 51
85.520553
  0
ARC
  8
0
  6
CONTINUOUS
 62
     7
 10
-116.2075
 20
59.563889
 40
4.8617306
 50
53.991676
 51
84.689121
  0
ARC
  8
0
  6
CONTINUOUS
 62
     7
 10
-116.2075
 20
64.517349
 40
4.8617306
 50
233.99167
 51
306.00832
  0
ARC
  8
0
  6
CONTINUOUS
 62
     7
 10
-116.2075
 20
64.517349
 40
5.7617307
 50
233.99167
 51
265.52055
  0
ARC
  8
0
  6
CONTINUOUS
 62
     7
 10
-116.2075
 20
66.203125
 40
0.5625
 50
36.869897
 51
143.1301
  0
ARC
  8
0
  6
CONTINUOUS
 62
     7
 10
-116.2075
 20
62.378113
 40
0.5625
 50
216.8699
 51
323.13009
  0
ARC
  8
0
  6
CONTINUOUS
 62
     7
 10
-116.2075
 20
57.878113
 40
0.5625
 50
216.8699
 51
323.13009
  0
ARC
  8
0
  6
CONTINUOUS
 62
     7
 10
-116.2075
 20
59.563889
 40
5.7617307
 50
94.479452
 51
126.00833
  0
ARC
  8
0
  6
CONTINUOUS
 62
     7
 10
-116.2075
 20
59.563889
 40
4.8617306
 50
95.310878
 51
126.00833
  0
ARC
  8
0
  6
CONTINUOUS
 62
     7
 10
-116.2075
 20
64.517349
 40
5.7617307
 50
274.47945
 51
306.00833
  0
ARC
  8
0
  6
CONTINUOUS
 62
     7
 10
-213.71509
 20
-134.39728
 40
2.4000001
 50
306.00833
 51
53.991676
  0
ARC
  8
0
  6
CONTINUOUS
 62
     7
 10
-213.71509
 20
-134.39728
 40
3.5999999
 50
306.00833
 51
53.991676
  0
ARC
  8
0
  6
CONTINUOUS
 62
     7
 10
-218.51508
 20
-134.39728
 40
2.4000001
 50
126.00833
 51
233.99168
  0
ARC
  8
0
  6
CONTINUOUS
 62
     7
 10
-218.51508
 20
-134.39728
 40
3.5999999
 50
126.00833
 51
233.99168
  0
ARC
  8
0
  6
CONTINUOUS
 62
     7
 10
-216.11508
 20
-137.69958
 40
7.6823077
 50
53.991676
 51
85.520553
  0
ARC
  8
0
  6
CONTINUOUS
 62
     7
 10
-216.11508
 20
-137.69958
 40
6.4823079
 50
53.991676
 51
84.689121
  0
ARC
  8
0
  6
CONTINUOUS
 62
     7
 10
-216.11508
 20
-131.09497
 40
6.4823079
 50
233.99167
 51
306.00832
  0
ARC
  8
0
  6
CONTINUOUS
 62
     7
 10
-216.11508
 20
-131.09497
 40
7.6823077
 50
233.99167
 51
265.52055
  0
ARC
  8
0
  6
CONTINUOUS
 62
     7
 10
-216.11508
 20
-128.84727
 40
0.75
 50
36.869897
 51
143.1301
  0
ARC
  8
0
  6
CONTINUOUS
 62
     7
 10
-216.11508
 20
-133.94728
 40
0.75
 50
216.8699
 51
323.13009
  0
ARC
  8
0
  6
CONTINUOUS
 62
     7
 10
-216.11508
 20
-139.94728
 40
0.75
 50
216.8699
 51
323.13009
  0
ARC
  8
0
  6
CONTINUOUS
 62
     7
 10
-216.11508
 20
-137.69958
 40
6.4823079
 50
95.310878
 51
126.00833
  0
ARC
  8
0
  6
CONTINUOUS
 62
     7
 10
-216.11508
 20
-137.69958
 40
7.6823077
 50
94.479452
 51
126.00833
  0
ARC
  8
0
  6
CONTINUOUS
 62
     7
 10
-216.11508
 20
-131.09497
 40
7.6823077
 50
274.47945
 51
306.00833
  0
ARC
  8
0
  6
CONTINUOUS
 62
     7
 10
-97.836151
 20
-497.79581
 40
3.5999999
 50
306.00833
 51
53.991676
  0
ARC
  8
0
  6
CONTINUOUS
 62
     7
 10
-97.836151
 20
-497.79581
 40
5.4000001
 50
306.00833
 51
53.991676
  0
ARC
  8
0
  6
CONTINUOUS
 62
     7
 10
-105.03616
 20
-497.79581
 40
3.5999999
 50
126.00833
 51
233.99168
  0
ARC
  8
0
  6
CONTINUOUS
 62
     7
 10
-105.03616
 20
-497.79581
 40
5.4000001
 50
126.00833
 51
233.99168
  0
ARC
  8
0
  6
CONTINUOUS
 62
     7
 10
-101.43619
 20
-502.7493
 40
11.523461
 50
53.991676
 51
85.520553
  0
ARC
  8
0
  6
CONTINUOUS
 62
     7
 10
-101.43619
 20
-502.7493
 40
9.7234612
 50
53.991676
 51
84.689121
  0
ARC
  8
0
  6
CONTINUOUS
 62
     7
 10
-101.43619
 20
-492.84238
 40
9.7234612
 50
233.99167
 51
306.00832
  0
ARC
  8
0
  6
CONTINUOUS
 62
     7
 10
-101.43619
 20
-492.84238
 40
11.523461
 50
233.99167
 51
265.52055
  0
ARC
  8
0
  6
CONTINUOUS
 62
     7
 10
-101.43619
 20
-489.47079
 40
1.125
 50
36.869897
 51
143.1301
  0
ARC
  8
0
  6
CONTINUOUS
 62
     7
 10
-101.43619
 20
-497.12082
 40
1.125
 50
216.8699
 51
323.13009
  0
ARC
  8
0
  6
CONTINUOUS
 62
     7
 10
-101.43619
 20
-506.12082
 40
1.125
 50
216.8699
 51
323.13009
  0
ARC
  8
0
  6
CONTINUOUS
 62
     7
 10
-101.43619
 20
-502.7493
 40
11.523461
 50
94.479452
 51
126.00833
  0
ARC
  8
0
  6
CONTINUOUS
 62
     7
 10
-101.43619
 20
-502.7493
 40
9.7234612
 50
95.310878
 51
126.00833
  0
ARC
  8
0
  6
CONTINUOUS
 62
     7
 10
-101.43619
 20
-492.84238
 40
11.523461
 50
274.47945
 51
306.00833
  0
ARC
  8
0
  6
CONTINUOUS
 62
     7
 10
-213.63223
 20
67.747665
 40
1.8
 50
306.00833
 51
53.991676
  0
ARC
  8
0
  6
CONTINUOUS
 62
     7
 10
-213.63223
 20
67.747665
 40
2.7
 50
306.00833
 51
53.991676
  0
ARC
  8
0
  6
CONTINUOUS
 62
     7
 10
-217.23224
 20
67.747665
 40
1.8
 50
126.00833
 51
233.99168
  0
ARC
  8
0
  6
CONTINUOUS
 62
     7
 10
-217.23224
 20
67.747665
 40
2.7
 50
126.00833
 51
233.99168
  0
ARC
  8
0
  6
CONTINUOUS
 62
     7
 10
-215.43224
 20
65.270935
 40
5.7617307
 50
53.991676
 51
85.520553
  0
ARC
  8
0
  6
CONTINUOUS
 62
     7
 10
-215.43224
 20
65.270935
 40
4.8617306
 50
53.991676
 51
84.689121
  0
ARC
  8
0
  6
CONTINUOUS
 62
     7
 10
-215.43224
 20
70.224396
 40
4.8617306
 50
233.99167
 51
306.00832
  0
ARC
  8
0
  6
CONTINUOUS
 62
     7
 10
-215.43224
 20
70.224396
 40
5.7617307
 50
233.99167
 51
265.52055
  0
ARC
  8
0
  6
CONTINUOUS
 62
     7
 10
-215.43224
 20
71.910172
 40
0.5625
 50
36.869897
 51
143.1301
  0
ARC
  8
0
  6
CONTINUOUS
 62
     7
 10
-215.43224
 20
68.085159
 40
0.5625
 50
216.8699
 51
323.13009
  0
ARC
  8
0
  6
CONTINUOUS
 62
     7
 10
-215.43224
 20
63.585155
 40
0.5625
 50
216.8699
 51
323.13009
  0
ARC
  8
0
  6
CONTINUOUS
 62
     7
 10
-215.43224
 20
65.270935
 40
5.7617307
 50
94.479452
 51
126.00833
  0
ARC
  8
0
  6
CONTINUOUS
 62
     7
 10
-215.43224
 20
65.270935
 40
4.8617306
 50
95.310878
 51
126.00833
  0
ARC
  8
0
  6
CONTINUOUS
 62
     7
 10
-215.43224
 20
70.224396
 40
5.7617307
 50
274.47945
 51
306.00833
  0
ARC
  8
0
  6
CONTINUOUS
 62
     7
 10
2.0466628
 20
52.918137
 40
2.4000001
 50
306.00833
 51
53.991676
  0
ARC
  8
0
  6
CONTINUOUS
 62
     7
 10
2.0466628
 20
52.918137
 40
3.5999999
 50
306.00833
 51
53.991676
  0
ARC
  8
0
  6
CONTINUOUS
 62
     7
 10
-2.753325
 20
52.918137
 40
2.4000001
 50
126.00833
 51
233.99168
  0
ARC
  8
0
  6
CONTINUOUS
 62
     7
 10
-2.753325
 20
52.918137
 40
3.5999999
 50
126.00833
 51
233.99168
  0
ARC
  8
0
  6
CONTINUOUS
 62
     7
 10
-0.35333118
 20
49.615829
 40
7.6823077
 50
53.991676
 51
85.520553
  0
ARC
  8
0
  6
CONTINUOUS
 62
     7
 10
-0.35333118
 20
49.615829
 40
6.4823079
 50
53.991676
 51
84.689121
  0
ARC
  8
0
  6
CONTINUOUS
 62
     7
 10
-0.35333118
 20
56.220444
 40
6.4823079
 50
233.99167
 51
306.00832
  0
ARC
  8
0
  6
CONTINUOUS
 62
     7
 10
-0.35333118
 20
56.220444
 40
7.6823077
 50
233.99167
 51
265.52055
  0
ARC
  8
0
  6
CONTINUOUS
 62
     7
 10
-0.35333118
 20
58.46814
 40
0.75
 50
36.869897
 51
143.1301
  0
ARC
  8
0
  6
CONTINUOUS
 62
     7
 10
-0.35333118
 20
53.368134
 40
0.75
 50
216.8699
 51
323.13009
  0
ARC
  8
0
  6
CONTINUOUS
 62
     7
 10
-0.35333118
 20
47.368134
 40
0.75
 50
216.8699
 51
323.13009
  0
ARC
  8
0
  6
CONTINUOUS
 62
     7
 10
-0.35333118
 20
49.615829
 40
6.4823079
 50
95.310878
 51
126.00833
  0
ARC
  8
0
  6
CONTINUOUS
 62
     7
 10
-0.35333118
 20
49.615829
 40
7.6823077
 50
94.479452
 51
126.00833
  0
ARC
  8
0
  6
CONTINUOUS
 62
     7
 10
-0.35333118
 20
56.220444
 40
7.6823077
 50
274.47945
 51
306.00833
  0
ARC
  8
0
  6
CONTINUOUS
 62
     7
 10
139.15921
 20
45.239368
 40
2.4000001
 50
306.00833
 51
53.991676
  0
ARC
  8
0
  6
CONTINUOUS
 62
     7
 10
139.15921
 20
45.239368
 40
3.5999999
 50
306.00833
 51
53.991676
  0
ARC
  8
0
  6
CONTINUOUS
 62
     7
 10
134.35922
 20
45.239368
 40
2.4000001
 50
126.00833
 51
233.99168
  0
ARC
  8
0
  6
CONTINUOUS
 62
     7
 10
134.35922
 20
45.239368
 40
3.5999999
 50
126.00833
 51
233.99168
  0
ARC
  8
0
  6
CONTINUOUS
 62
     7
 10
136.75922
 20
41.937061
 40
7.6823077
 50
53.991676
 51
85.520553
  0
ARC
  8
0
  6
CONTINUOUS
 62
     7
 10
136.75922
 20
41.937061
 40
6.4823079
 50
53.991676
 51
84.689121
  0
ARC
  8
0
  6
CONTINUOUS
 62
     7
 10
136.75922
 20
48.541676
 40
6.4823079
 50
233.99167
 51
306.00832
  0
ARC
  8
0
  6
CONTINUOUS
 62
     7
 10
136.75922
 20
48.541676
 40
7.6823077
 50
233.99167
 51
265.52055
  0
ARC
  8
0
  6
CONTINUOUS
 62
     7
 10
136.75922
 20
50.789371
 40
0.75
 50
36.869897
 51
143.1301
  0
ARC
  8
0
  6
CONTINUOUS
 62
     7
 10
136.75922
 20
45.689365
 40
0.75
 50
216.8699
 51
323.13009
  0
ARC
  8
0
  6
CONTINUOUS
 62
     7
 10
136.75922
 20
39.689365
 40
0.75
 50
216.8699
 51
323.13009
  0
ARC
  8
0
  6
CONTINUOUS
 62
     7
 10
136.75922
 20
41.937061
 40
6.4823079
 50
95.310878
 51
126.00833
  0
ARC
  8
0
  6
CONTINUOUS
 62
     7
 10
136.75922
 20
41.937061
 40
7.6823077
 50
94.479452
 51
126.00833
  0
ARC
  8
0
  6
CONTINUOUS
 62
     7
 10
136.75922
 20
48.541676
 40
7.6823077
 50
274.47945
 51
306.00833
  0
ARC
  8
0
  6
CONTINUOUS
 62
     7
 10
-52.570576
 20
-143.91119
 40
3
 50
306.00833
 51
53.991676
  0
ARC
  8
0
  6
CONTINUOUS
 62
     7
 10
-52.570576
 20
-143.91119
 40
4.5
 50
306.00833
 51
53.991676
  0
ARC
  8
0
  6
CONTINUOUS
 62
     7
 10
-58.570576
 20
-143.91119
 40
3
 50
126.00833
 51
233.99168
  0
ARC
  8
0
  6
CONTINUOUS
 62
     7
 10
-58.570576
 20
-143.91119
 40
4.5
 50
126.00833
 51
233.99168
  0
ARC
  8
0
  6
CONTINUOUS
 62
     7
 10
-55.570576
 20
-148.03908
 40
9.6028843
 50
53.991676
 51
85.520553
  0
ARC
  8
0
  6
CONTINUOUS
 62
     7
 10
-55.570576
 20
-148.03908
 40
8.1028843
 50
53.991676
 51
84.689121
  0
ARC
  8
0
  6
CONTINUOUS
 62
     7
 10
-55.570576
 20
-139.78331
 40
8.1028843
 50
233.99167
 51
306.00832
  0
ARC
  8
0
  6
CONTINUOUS
 62
     7
 10
-55.570576
 20
-139.78331
 40
9.6028843
 50
233.99167
 51
265.52055
  0
ARC
  8
0
  6
CONTINUOUS
 62
     7
 10
-55.570576
 20
-136.97369
 40
0.9375
 50
36.869897
 51
143.1301
  0
ARC
  8
0
  6
CONTINUOUS
 62
     7
 10
-55.570576
 20
-143.34869
 40
0.9375
 50
216.8699
 51
323.13009
  0
ARC
  8
0
  6
CONTINUOUS
 62
     7
 10
-55.570576
 20
-150.84869
 40
0.9375
 50
216.8699
 51
323.13009
  0
ARC
  8
0
  6
CONTINUOUS
 62
     7
 10
-55.570576
 20
-148.03908
 40
9.6028843
 50
94.479452
 51
126.00833
  0
ARC
  8
0
  6
CONTINUOUS
 62
     7
 10
-55.570576
 20
-148.03908
 40
8.1028843
 50
95.310878
 51
126.00833
  0
ARC
  8
0
  6
CONTINUOUS
 62
     7
 10
-55.570576
 20
-139.78331
 40
9.6028843
 50
274.47945
 51
306.00833
  0
ARC
  8
0
  6
CONTINUOUS
 62
     7
 10
465.04269
 20
-60.515358
 40
3
 50
306.00833
 51
53.991676
  0
ARC
  8
0
  6
CONTINUOUS
 62
     7
 10
465.04269
 20
-60.515358
 40
4.5
 50
306.00833
 51
53.991676
  0
ARC
  8
0
  6
CONTINUOUS
 62
     7
 10
459.04269
 20
-60.515358
 40
3
 50
126.00833
 51
233.99168
  0
ARC
  8
0
  6
CONTINUOUS
 62
     7
 10
459.04269
 20
-60.515358
 40
4.5
 50
126.00833
 51
233.99168
  0
ARC
  8
0
  6
CONTINUOUS
 62
     7
 10
462.04269
 20
-64.643242
 40
9.6028843
 50
53.991676
 51
85.520553
  0
ARC
  8
0
  6
CONTINUOUS
 62
     7
 10
462.04269
 20
-64.643242
 40
8.1028843
 50
53.991676
 51
84.689121
  0
ARC
  8
0
  6
CONTINUOUS
 62
     7
 10
462.04269
 20
-56.387474
 40
8.1028843
 50
233.99167
 51
306.00832
  0
ARC
  8
0
  6
CONTINUOUS
 62
     7
 10
462.04269
 20
-56.387474
 40
9.6028843
 50
233.99167
 51
265.52055
  0
ARC
  8
0
  6
CONTINUOUS
 62
     7
 10
462.04269
 20
-53.577858
 40
0.9375
 50
36.869897
 51
143.1301
  0
ARC
  8
0
  6
CONTINUOUS
 62
     7
 10
462.04269
 20
-59.952858
 40
0.9375
 50
216.8699
 51
323.13009
  0
ARC
  8
0
  6
CONTINUOUS
 62
     7
 10
462.04269
 20
-67.452858
 40
0.9375
 50
216.8699
 51
323.13009
  0
ARC
  8
0
  6
CONTINUOUS
 62
     7
 10
462.04269
 20
-64.643242
 40
9.6028843
 50
94.479452
 51
126.00833
  0
ARC
  8
0
  6
CONTINUOUS
 62
     7
 10
462.04269
 20
-64.643242
 40
8.1028843
 50
95.310878
 51
126.00833
  0
ARC
  8
0
  6
CONTINUOUS
 62
     7
 10
462.04269
 20
-56.387474
 40
9.6028843
 50
274.47945
 51
306.00833
  0
ARC
  8
0
  6
CONTINUOUS
 62
     7
 10
666.83325
 20
-70.765129
 40
3.5999999
 50
306.00833
 51
53.991676
  0
ARC
  8
0
  6
CONTINUOUS
 62
     7
 10
666.83325
 20
-70.765129
 40
5.4000001
 50
306.00833
 51
53.991676
  0
ARC
  8
0
  6
CONTINUOUS
 62
     7
 10
659.63324
 20
-70.765129
 40
3.5999999
 50
126.00833
 51
233.99168
  0
ARC
  8
0
  6
CONTINUOUS
 62
     7
 10
659.63324
 20
-70.765129
 40
5.4000001
 50
126.00833
 51
233.99168
  0
ARC
  8
0
  6
CONTINUOUS
 62
     7
 10
663.23322
 20
-75.71862
 40
11.523461
 50
53.991676
 51
85.520553
  0
ARC
  8
0
  6
CONTINUOUS
 62
     7
 10
663.23322
 20
-75.71862
 40
9.7234612
 50
53.991676
 51
84.689121
  0
ARC
  8
0
  6
CONTINUOUS
 62
     7
 10
663.23322
 20
-65.811699
 40
9.7234612
 50
233.99167
 51
306.00832
  0
ARC
  8
0
  6
CONTINUOUS
 62
     7
 10
663.23322
 20
-65.811699
 40
11.523461
 50
233.99167
 51
265.52055
  0
ARC
  8
0
  6
CONTINUOUS
 62
     7
 10
663.23322
 20
-62.440113
 40
1.125
 50
36.869897
 51
143.1301
  0
ARC
  8
0
  6
CONTINUOUS
 62
     7
 10
663.23322
 20
-70.090141
 40
1.125
 50
216.8699
 51
323.13009
  0
ARC
  8
0
  6
CONTINUOUS
 62
     7
 10
663.23322
 20
-79.090141
 40
1.125
 50
216.8699
 51
323.13009
  0
ARC
  8
0
  6
CONTINUOUS
 62
     7
 10
663.23322
 20
-75.71862
 40
11.523461
 50
94.479452
 51
126.00833
  0
ARC
  8
0
  6
CONTINUOUS
 62
     7
 10
663.23322
 20
-75.71862
 40
9.7234612
 50
95.310878
 51
126.00833
  0
ARC
  8
0
  6
CONTINUOUS
 62
     7
 10
663.23322
 20
-65.811699
 40
11.523461
 50
274.47945
 51
306.00833
  0
TEXT
  8
0
  6
CONTINUOUS
 62
     7
 10
146.19136
 20
152.24283
 40
10
 41
0.85124967
  1
１１／４
  0
TEXT
  8
0
  6
CONTINUOUS
 62
     7
 10
-203.61586
 20
-18.39484
 40
10
 41
0.85124967
  1
１１／２
  0
TEXT
  8
0
  6
CONTINUOUS
 62
     7
 10
-28.712254
 20
-16.972859
 40
10
 41
0.90036056
  1
２
  0
TEXT
  8
0
  6
CONTINUOUS
 62
     7
 10
487.46672
 20
101.05153
 40
10
 41
0.85124967
  1
２１／２
  0
TEXT
  8
0
  6
CONTINUOUS
 62
     7
 10
696.49784
 20
102.47351
 40
10
 41
0.90036056
  1
３
  0
TEXT
  8
0
  6
CONTINUOUS
 62
     7
 10
-72.793652
 20
-288.57117
 40
10
 41
0.90036056
  1
４
  0
TEXT
  8
0
  6
CONTINUOUS
 62
     7
 10
-112.48413
 20
180.52132
 40
10
 41
0.84349531
  1
ＲＣＦ－ＭＫ－Ｌ（エルボ）
  0
TEXT
  8
0
  6
CONTINUOUS
 62
     7
 10
-219.25765
 20
146.55492
 40
10
 41
1.0178572
  1
1/2
  0
TEXT
  8
0
  6
CONTINUOUS
 62
     7
 10
-119.71901
 20
146.55492
 40
10
 41
1.0178573
  1
3/4
  0
TEXT
  8
0
  6
CONTINUOUS
 62
     7
 10
11.103204
 20
149.39886
 40
10
 41
1.0714291
  1
1
  0
ENDSEC
  0
EOF
