  0
SECTION
  2
HEADER
  9
$EXTMAX
 10
0
 20
297
  9
$EXTMIN
 10
-210
 20
0
  0
ENDSEC
  0
SECTION
  2
TABLES
  0
TABLE
  2
LTYPE
 70
    22
  0
LTYPE
  2
CONTINUOUS
 70
    64
  3
Solid line
 72
    65
 73
     0
 40
0.000000
  0
LTYPE
  2
DASHED
 70
    64
  3
__ __ __ __ __ __ __ __ __ __ __ __ __ __ __
 72
    65
 73
     2
 40
3.500000
 49
2.000000
 49
-1.500000
  0
LTYPE
  2
CENTER
 70
    64
  3
____ _ ____ _ ____ _ ____ _ ____ _ ____ _ ____
 72
    65
 73
     4
 40
17.500000
 49
13.000000
 49
-1.500000
 49
1.500000
 49
-1.500000
  0
LTYPE
  2
PHANTOM
 70
    64
  3
_____ _ _ _____ _ _ _____ _ _ _____ _ _ ____  
 72
    65
 73
     6
 40
15.500000
 49
8.000000
 49
-1.500000
 49
1.500000
 49
-1.500000
 49
1.500000
 49
-1.500000
  0
LTYPE
  2
DOT
 70
    64
  3
. . . . . . . . . . . . . . . . . . . . . . . .
 72
    65
 73
     2
 40
0.25
 49
0.0
 49
-0.25
  0
ENDTAB
  0
TABLE
  2
LAYER
 70
     2
  0
LAYER
  2
0
 70
     0
 62
     7
  6
CONTINUOUS
  0
LAYER
  2
1
 70
     0
 62
     7
  6
CONTINUOUS
  0
ENDTAB
  0
TABLE
  2
STYLE
 70
     1
  0
STYLE
  2
STANDARD
 70
     0
 40
0.000000
 41
1.000000
 50
0.000000
 71
     0
 42
0.200000
  3
txt
  4
BIGFONT
  0
ENDTAB
  0
TABLE
  2
VIEW
 70
     0
  0
ENDTAB
  0
ENDSEC
  0
SECTION
  2
BLOCKS
  0
ENDSEC
  0
SECTION
  2
ENTITIES
  0
POINT
  8
0
  6
CONTINUOUS
 62
     7
 10
-116.13274
 20
72.192429
  0
POINT
  8
0
  6
CONTINUOUS
 62
     7
 10
-60.506458
 20
201.52731
  0
POINT
  8
0
  6
CONTINUOUS
 62
     7
 10
-166.01563
 20
161.02499
  0
POINT
  8
0
  6
CONTINUOUS
 62
     7
 10
-60.684376
 20
157.9375
  0
POINT
  8
0
  6
CONTINUOUS
 62
     7
 10
-116.25938
 20
30.162506
  0
POINT
  8
0
  6
CONTINUOUS
 62
     7
 10
-165.90656
 20
200.18225
  0
LINE
  8
0
  6
CENTER
 62
     7
 10
-182.40656
 20
200.18225
 11
-130.61761
 21
200.18225
  0
LINE
  8
0
  6
CENTER
 62
     7
 10
-165.90656
 20
250.9527
 11
-165.90656
 21
147.47466
  0
LINE
  8
0
  6
CENTER
 62
     7
 10
-135.63272
 20
72.192429
 11
-79.036484
 21
72.192429
  0
LINE
  8
0
  6
CENTER
 62
     7
 10
-116.13274
 20
127.07336
 11
-116.13274
 21
19.016647
  0
LINE
  8
0
  6
CENTER
 62
     7
 10
-80.581535
 20
201.52731
 11
-21.645157
 21
201.52731
  0
LINE
  8
0
  6
CENTER
 62
     7
 10
-60.506458
 20
257.66809
 11
-60.506458
 21
144.72745
  0
LINE
  8
0
  6
CONTINUOUS
 62
     7
 10
-28.506454
 20
181.05164
 11
-28.506454
 21
221.98116
  0
LINE
  8
0
  6
CONTINUOUS
 62
     7
 10
-96.632736
 20
23.192429
 11
-135.63272
 21
23.192429
  0
LINE
  8
0
  6
CONTINUOUS
 62
     7
 10
-96.632736
 20
38.778214
 11
-96.632736
 21
23.192429
  0
LINE
  8
0
  6
CONTINUOUS
 62
     7
 10
-135.63274
 20
38.778214
 11
-135.63274
 21
23.192429
  0
LINE
  8
0
  6
CONTINUOUS
 62
     7
 10
-97.73661
 20
39.192429
 11
-134.58746
 21
39.192429
  0
LINE
  8
0
  6
CONTINUOUS
 62
     7
 10
-94.425627
 20
41.399536
 11
-96.339841
 21
39.485321
  0
LINE
  8
0
  6
CONTINUOUS
 62
     7
 10
-137.83984
 20
41.399536
 11
-135.92563
 21
39.485321
  0
LINE
  8
0
  6
CONTINUOUS
 62
     7
 10
-94.132736
 20
49.192429
 11
-94.132736
 21
42.106644
  0
LINE
  8
0
  6
CONTINUOUS
 62
     7
 10
-138.13274
 20
51.278214
 11
-138.13274
 21
42.106644
  0
LINE
  8
0
  6
CONTINUOUS
 62
     7
 10
-95.402725
 20
41.692429
 11
-137.04417
 21
41.692429
  0
LINE
  8
0
  6
CONTINUOUS
 62
     7
 10
-96.801712
 20
51.692429
 11
-136.92134
 21
51.692429
  0
LINE
  8
0
  6
CONTINUOUS
 62
     7
 10
-137.17562
 20
52.649536
 11
-137.83984
 21
51.985321
  0
LINE
  8
0
  6
CONTINUOUS
 62
     7
 10
-98.454346
 20
52.942429
 11
-135.44731
 21
52.942429
  0
LINE
  8
0
  6
CONTINUOUS
 62
     7
 10
-26.506454
 20
221.52731
 11
-26.506454
 21
181.52731
  0
LINE
  8
0
  6
CONTINUOUS
 62
     7
 10
-34.506454
 20
179.52731
 11
-28.506454
 21
179.52731
  0
LINE
  8
0
  6
CONTINUOUS
 62
     7
 10
-28.506454
 20
179.52731
 11
-26.506462
 21
181.5273
  0
LINE
  8
0
  6
CONTINUOUS
 62
     7
 10
-38.506454
 20
221.52731
 11
-38.506454
 21
180.48709
  0
LINE
  8
0
  6
CONTINUOUS
 62
     7
 10
-39.756454
 20
220.85207
 11
-39.756454
 21
181.05164
  0
LINE
  8
0
  6
CONTINUOUS
 62
     7
 10
-41.006454
 20
253.52731
 11
-80.006447
 21
253.52731
  0
LINE
  8
0
  6
CONTINUOUS
 62
     7
 10
-41.006454
 20
237.94153
 11
-41.006454
 21
253.52731
  0
LINE
  8
0
  6
CONTINUOUS
 62
     7
 10
-80.006462
 20
237.94153
 11
-80.006462
 21
253.52731
  0
LINE
  8
0
  6
CONTINUOUS
 62
     7
 10
-42.110329
 20
237.52731
 11
-78.961189
 21
237.52731
  0
LINE
  8
0
  6
CONTINUOUS
 62
     7
 10
-38.799355
 20
235.32019
 11
-40.71357
 21
237.2344
  0
LINE
  8
0
  6
CONTINUOUS
 62
     7
 10
-82.213554
 20
235.3202
 11
-80.299353
 21
237.23441
  0
LINE
  8
0
  6
CONTINUOUS
 62
     7
 10
-38.506454
 20
227.52731
 11
-38.506454
 21
234.6131
  0
LINE
  8
0
  6
CONTINUOUS
 62
     7
 10
-82.506462
 20
225.44153
 11
-82.506462
 21
234.6131
  0
LINE
  8
0
  6
CONTINUOUS
 62
     7
 10
-39.776443
 20
235.02731
 11
-81.4179
 21
235.02731
  0
LINE
  8
0
  6
CONTINUOUS
 62
     7
 10
-39.899284
 20
225.02731
 11
-81.295067
 21
225.02731
  0
LINE
  8
0
  6
CONTINUOUS
 62
     7
 10
-136.88274
 20
53.356644
 11
-136.88274
 21
91.028214
  0
LINE
  8
0
  6
CONTINUOUS
 62
     7
 10
-81.549347
 20
224.0702
 11
-82.213566
 21
224.73441
  0
LINE
  8
0
  6
CONTINUOUS
 62
     7
 10
-40.636299
 20
223.77731
 11
-79.821037
 21
223.77731
  0
LINE
  8
0
  6
CONTINUOUS
 62
     7
 10
-34.506454
 20
223.52731
 11
-28.506454
 21
223.52731
  0
LINE
  8
0
  6
CONTINUOUS
 62
     7
 10
-28.506454
 20
223.5273
 11
-26.506462
 21
221.52731
  0
LINE
  8
0
  6
CONTINUOUS
 62
     7
 10
-136.90656
 20
217.18225
 11
-136.90656
 21
183.18225
  0
LINE
  8
0
  6
CONTINUOUS
 62
     7
 10
-142.90656
 20
219.18225
 11
-138.90656
 21
219.18225
  0
LINE
  8
0
  6
CONTINUOUS
 62
     7
 10
-142.90656
 20
181.18225
 11
-138.90656
 21
181.18225
  0
LINE
  8
0
  6
CONTINUOUS
 62
     7
 10
-138.90655
 20
219.18224
 11
-136.90655
 21
217.18224
  0
LINE
  8
0
  6
CONTINUOUS
 62
     7
 10
-138.90656
 20
181.18224
 11
-136.90656
 21
183.18224
  0
LINE
  8
0
  6
CONTINUOUS
 62
     7
 10
-148.90656
 20
217.18225
 11
-148.90656
 21
183.41406
  0
LINE
  8
0
  6
CONTINUOUS
 62
     7
 10
-150.15656
 20
216.5777
 11
-150.15656
 21
184.79588
  0
LINE
  8
0
  6
CONTINUOUS
 62
     7
 10
-138.90656
 20
217.18225
 11
-138.90656
 21
183.18225
  0
LINE
  8
0
  6
CONTINUOUS
 62
     7
 10
-182.40656
 20
247.18225
 11
-149.40656
 21
247.18225
  0
LINE
  8
0
  6
CONTINUOUS
 62
     7
 10
-182.40656
 20
230.75958
 11
-182.40656
 21
247.18225
  0
LINE
  8
0
  6
CONTINUOUS
 62
     7
 10
-149.40656
 20
230.75958
 11
-149.40656
 21
247.18225
  0
LINE
  8
0
  6
CONTINUOUS
 62
     7
 10
-181.16173
 20
230.18225
 11
-150.19136
 21
230.18225
  0
LINE
  8
0
  6
CONTINUOUS
 62
     7
 10
-184.40655
 20
229.02753
 11
-182.90655
 21
229.89356
  0
LINE
  8
0
  6
CONTINUOUS
 62
     7
 10
-147.40656
 20
229.02752
 11
-148.90656
 21
229.89355
  0
LINE
  8
0
  6
CONTINUOUS
 62
     7
 10
-184.90656
 20
219.15308
 11
-184.90656
 21
228.1615
  0
LINE
  8
0
  6
CONTINUOUS
 62
     7
 10
-146.90656
 20
223.18225
 11
-146.90656
 21
228.1615
  0
LINE
  8
0
  6
CONTINUOUS
 62
     7
 10
-183.31619
 20
228.73886
 11
-148.84483
 21
228.73886
  0
LINE
  8
0
  6
CONTINUOUS
 62
     7
 10
-149.40656
 20
153.18225
 11
-182.40656
 21
153.18225
  0
LINE
  8
0
  6
CONTINUOUS
 62
     7
 10
-149.40656
 20
169.60492
 11
-149.40656
 21
153.18225
  0
LINE
  8
0
  6
CONTINUOUS
 62
     7
 10
-182.40656
 20
169.60492
 11
-182.40656
 21
153.18225
  0
LINE
  8
0
  6
CONTINUOUS
 62
     7
 10
-150.65138
 20
170.18225
 11
-181.62175
 21
170.18225
  0
LINE
  8
0
  6
CONTINUOUS
 62
     7
 10
-147.40657
 20
171.33696
 11
-148.90657
 21
170.47094
  0
LINE
  8
0
  6
CONTINUOUS
 62
     7
 10
-184.40656
 20
171.33697
 11
-182.90655
 21
170.47094
  0
LINE
  8
0
  6
CONTINUOUS
 62
     7
 10
-146.90656
 20
177.18225
 11
-146.90656
 21
172.203
  0
LINE
  8
0
  6
CONTINUOUS
 62
     7
 10
-184.90656
 20
181.21143
 11
-184.90656
 21
172.203
  0
LINE
  8
0
  6
CONTINUOUS
 62
     7
 10
-148.49692
 20
171.62564
 11
-182.96828
 21
171.62564
  0
LINE
  8
0
  6
CONTINUOUS
 62
     7
 10
-183.31619
 20
218.73886
 11
-150.47018
 21
218.73886
  0
LINE
  8
0
  6
CONTINUOUS
 62
     7
 10
-184.61366
 20
218.44596
 11
-183.94946
 21
217.78176
  0
LINE
  8
0
  6
CONTINUOUS
 62
     7
 10
-150.29745
 20
181.62564
 11
-182.96828
 21
181.62564
  0
LINE
  8
0
  6
CONTINUOUS
 62
     7
 10
-184.61366
 20
181.91853
 11
-183.94945
 21
182.58274
  0
LINE
  8
0
  6
CONTINUOUS
 62
     7
 10
-183.65656
 20
217.07465
 11
-183.65656
 21
183.28986
  0
LINE
  8
0
  6
CONTINUOUS
 62
     7
 10
-182.07928
 20
217.48886
 11
-151.50655
 21
217.48886
  0
LINE
  8
0
  6
CONTINUOUS
 62
     7
 10
-182.07928
 20
182.87564
 11
-151.33383
 21
182.87564
  0
LINE
  8
0
  6
CONTINUOUS
 62
     7
 10
-41.006454
 20
165.1131
 11
-41.006454
 21
149.52731
  0
LINE
  8
0
  6
CONTINUOUS
 62
     7
 10
-80.006462
 20
165.1131
 11
-80.006462
 21
149.52731
  0
LINE
  8
0
  6
CONTINUOUS
 62
     7
 10
-42.110329
 20
165.52731
 11
-78.961189
 21
165.52731
  0
LINE
  8
0
  6
CONTINUOUS
 62
     7
 10
-82.213558
 20
167.73441
 11
-80.299355
 21
165.8202
  0
LINE
  8
0
  6
CONTINUOUS
 62
     7
 10
-82.506462
 20
177.6131
 11
-82.506462
 21
168.44153
  0
LINE
  8
0
  6
CONTINUOUS
 62
     7
 10
-39.776443
 20
168.02731
 11
-81.4179
 21
168.02731
  0
LINE
  8
0
  6
CONTINUOUS
 62
     7
 10
-39.899284
 20
178.02731
 11
-81.295067
 21
178.02731
  0
LINE
  8
0
  6
CONTINUOUS
 62
     7
 10
-81.549347
 20
178.98441
 11
-82.21356
 21
178.3202
  0
LINE
  8
0
  6
CONTINUOUS
 62
     7
 10
-40.636299
 20
179.27731
 11
-79.821037
 21
179.27731
  0
LINE
  8
0
  6
CONTINUOUS
 62
     7
 10
-81.256462
 20
179.69153
 11
-81.256462
 21
223.3631
  0
LINE
  8
0
  6
CONTINUOUS
 62
     7
 10
-38.506454
 20
175.52731
 11
-38.506454
 21
168.44153
  0
LINE
  8
0
  6
CONTINUOUS
 62
     7
 10
-38.799351
 20
167.73442
 11
-40.713566
 21
165.8202
  0
LINE
  8
0
  6
CONTINUOUS
 62
     7
 10
-41.006454
 20
149.52731
 11
-80.006447
 21
149.52731
  0
LINE
  8
0
  6
CONTINUOUS
 62
     7
 10
-96.632736
 20
121.19242
 11
-135.63272
 21
121.19242
  0
LINE
  8
0
  6
CONTINUOUS
 62
     7
 10
-96.632736
 20
105.60664
 11
-96.632736
 21
121.19242
  0
LINE
  8
0
  6
CONTINUOUS
 62
     7
 10
-135.63274
 20
105.60664
 11
-135.63274
 21
121.19242
  0
LINE
  8
0
  6
CONTINUOUS
 62
     7
 10
-97.73661
 20
105.19242
 11
-134.58746
 21
105.19242
  0
LINE
  8
0
  6
CONTINUOUS
 62
     7
 10
-94.425633
 20
102.98531
 11
-96.339848
 21
104.89953
  0
LINE
  8
0
  6
CONTINUOUS
 62
     7
 10
-137.83984
 20
102.98533
 11
-135.92564
 21
104.89953
  0
LINE
  8
0
  6
CONTINUOUS
 62
     7
 10
-94.132736
 20
95.192421
 11
-94.132736
 21
102.27821
  0
LINE
  8
0
  6
CONTINUOUS
 62
     7
 10
-138.13274
 20
93.106636
 11
-138.13274
 21
102.27821
  0
LINE
  8
0
  6
CONTINUOUS
 62
     7
 10
-95.402725
 20
102.69242
 11
-137.04417
 21
102.69242
  0
LINE
  8
0
  6
CONTINUOUS
 62
     7
 10
-96.56562
 20
92.692421
 11
-136.92134
 21
92.692421
  0
LINE
  8
0
  6
CONTINUOUS
 62
     7
 10
-137.17563
 20
91.735321
 11
-137.83984
 21
92.399529
  0
LINE
  8
0
  6
CONTINUOUS
 62
     7
 10
-98.808487
 20
91.442429
 11
-135.44731
 21
91.442429
  0
LINE
  8
0
  6
CONTINUOUS
 62
     7
 10
-84.132736
 20
89.192429
 11
-84.132736
 21
55.192429
  0
LINE
  8
0
  6
CONTINUOUS
 62
     7
 10
-90.132736
 20
91.192429
 11
-86.132736
 21
91.192429
  0
LINE
  8
0
  6
CONTINUOUS
 62
     7
 10
-90.132736
 20
53.192429
 11
-86.132736
 21
53.192429
  0
LINE
  8
0
  6
CONTINUOUS
 62
     7
 10
-86.132734
 20
91.192429
 11
-84.132732
 21
89.192429
  0
LINE
  8
0
  6
CONTINUOUS
 62
     7
 10
-84.132734
 20
55.192429
 11
-86.13273
 21
53.192429
  0
LINE
  8
0
  6
CONTINUOUS
 62
     7
 10
-86.132736
 20
89.192429
 11
-86.132736
 21
55.192429
  0
LINE
  8
0
  6
CONTINUOUS
 62
     7
 10
-96.132736
 20
90.921722
 11
-96.132736
 21
53.501282
  0
LINE
  8
0
  6
CONTINUOUS
 62
     7
 10
-97.432739
 20
89.505173
 11
-97.432739
 21
54.327606
  0
LINE
  8
0
  6
CONTINUOUS
 62
     7
 10
-165.56564
 20
165.52499
 11
-165.56564
 21
164.29239
  0
LINE
  8
0
  6
CONTINUOUS
 62
     7
 10
-166.46564
 20
165.52499
 11
-166.46564
 21
164.29239
  0
LINE
  8
0
  6
CONTINUOUS
 62
     7
 10
-166.46564
 20
157.7576
 11
-166.46564
 21
156.52499
  0
LINE
  8
0
  6
CONTINUOUS
 62
     7
 10
-165.56564
 20
157.7576
 11
-165.56564
 21
156.52499
  0
LINE
  8
0
  6
CONTINUOUS
 62
     7
 10
-166.46564
 20
163.38913
 11
-166.46564
 21
161.02499
  0
LINE
  8
0
  6
CONTINUOUS
 62
     7
 10
-165.56564
 20
163.38913
 11
-165.56564
 21
161.02499
  0
LINE
  8
0
  6
CONTINUOUS
 62
     7
 10
-60.234394
 20
162.4375
 11
-60.234394
 21
161.2049
  0
LINE
  8
0
  6
CONTINUOUS
 62
     7
 10
-61.134388
 20
162.4375
 11
-61.134388
 21
161.2049
  0
LINE
  8
0
  6
CONTINUOUS
 62
     7
 10
-61.134388
 20
154.6701
 11
-61.134388
 21
153.4375
  0
LINE
  8
0
  6
CONTINUOUS
 62
     7
 10
-60.234394
 20
154.6701
 11
-60.234394
 21
153.4375
  0
LINE
  8
0
  6
CONTINUOUS
 62
     7
 10
-61.134388
 20
160.30164
 11
-61.134388
 21
157.9375
  0
LINE
  8
0
  6
CONTINUOUS
 62
     7
 10
-60.234394
 20
160.30164
 11
-60.234394
 21
157.9375
  0
LINE
  8
0
  6
CONTINUOUS
 62
     7
 10
-115.80939
 20
34.662491
 11
-115.80939
 21
33.429886
  0
LINE
  8
0
  6
CONTINUOUS
 62
     7
 10
-116.70939
 20
34.662491
 11
-116.70939
 21
33.429886
  0
LINE
  8
0
  6
CONTINUOUS
 62
     7
 10
-116.70939
 20
26.895111
 11
-116.70939
 21
25.662506
  0
LINE
  8
0
  6
CONTINUOUS
 62
     7
 10
-115.80939
 20
26.895111
 11
-115.80939
 21
25.662506
  0
LINE
  8
0
  6
CONTINUOUS
 62
     7
 10
-116.70939
 20
32.526627
 11
-116.70939
 21
30.162506
  0
LINE
  8
0
  6
CONTINUOUS
 62
     7
 10
-115.80939
 20
32.526627
 11
-115.80939
 21
30.162506
  0
ARC
  8
0
  6
CONTINUOUS
 62
     7
 10
-95.132736
 20
42.106644
 40
1
 50
315
 51
1.628444E-012
  0
ARC
  8
0
  6
CONTINUOUS
 62
     7
 10
-95.632736
 20
38.778214
 40
1
 50
135
 51
180.00001
  0
ARC
  8
0
  6
CONTINUOUS
 62
     7
 10
-136.63272
 20
38.778214
 40
1
 50
1.628444E-012
 51
45.000001
  0
ARC
  8
0
  6
CONTINUOUS
 62
     7
 10
-137.13272
 20
42.106644
 40
1
 50
179.99999
 51
225
  0
ARC
  8
0
  6
CONTINUOUS
 62
     7
 10
-137.13274
 20
51.278214
 40
1
 50
135
 51
180.00001
  0
ARC
  8
0
  6
CONTINUOUS
 62
     7
 10
-137.88274
 20
53.356644
 40
1
 50
315
 51
1.628444E-012
  0
ARC
  8
0
  6
CONTINUOUS
 62
     7
 10
-34.506454
 20
175.52731
 40
4
 50
90.000003
 51
180.00001
  0
ARC
  8
0
  6
CONTINUOUS
 62
     7
 10
-82.256462
 20
223.3631
 40
1
 50
360
 51
45.000001
  0
ARC
  8
0
  6
CONTINUOUS
 62
     7
 10
-40.006454
 20
237.94153
 40
1
 50
179.99999
 51
225
  0
ARC
  8
0
  6
CONTINUOUS
 62
     7
 10
-81.006447
 20
237.94153
 40
1
 50
315
 51
360
  0
ARC
  8
0
  6
CONTINUOUS
 62
     7
 10
-81.506462
 20
225.44153
 40
1
 50
179.99999
 51
225
  0
ARC
  8
0
  6
CONTINUOUS
 62
     7
 10
-81.506447
 20
234.6131
 40
1
 50
135
 51
180.00001
  0
ARC
  8
0
  6
CONTINUOUS
 62
     7
 10
-34.506454
 20
227.52731
 40
4
 50
179.99999
 51
270
  0
ARC
  8
0
  6
CONTINUOUS
 62
     7
 10
-39.506454
 20
234.6131
 40
1
 50
360
 51
45.000001
  0
ARC
  8
0
  6
CONTINUOUS
 62
     7
 10
-183.40656
 20
230.75958
 40
1
 50
300.00001
 51
360
  0
ARC
  8
0
  6
CONTINUOUS
 62
     7
 10
-183.90656
 20
228.1615
 40
1
 50
120
 51
180.00001
  0
ARC
  8
0
  6
CONTINUOUS
 62
     7
 10
-148.40656
 20
230.75958
 40
1
 50
180.00001
 51
240
  0
ARC
  8
0
  6
CONTINUOUS
 62
     7
 10
-147.90656
 20
228.1615
 40
1
 50
360
 51
60.000002
  0
ARC
  8
0
  6
CONTINUOUS
 62
     7
 10
-148.40656
 20
169.60492
 40
1
 50
120
 51
179.99999
  0
ARC
  8
0
  6
CONTINUOUS
 62
     7
 10
-147.90656
 20
172.203
 40
1
 50
300
 51
2.5044785E-006
  0
ARC
  8
0
  6
CONTINUOUS
 62
     7
 10
-183.40656
 20
169.60492
 40
1
 50
2.5044785E-006
 51
59.999995
  0
ARC
  8
0
  6
CONTINUOUS
 62
     7
 10
-183.90656
 20
172.203
 40
1
 50
179.99999
 51
240.00001
  0
ARC
  8
0
  6
CONTINUOUS
 62
     7
 10
-142.90656
 20
223.18225
 40
4
 50
179.99999
 51
270
  0
ARC
  8
0
  6
CONTINUOUS
 62
     7
 10
-142.90656
 20
177.18225
 40
4
 50
90.000003
 51
180.00001
  0
ARC
  8
0
  6
CONTINUOUS
 62
     7
 10
-183.90656
 20
219.15308
 40
1
 50
179.99999
 51
225
  0
ARC
  8
0
  6
CONTINUOUS
 62
     7
 10
-184.65656
 20
217.07465
 40
1
 50
0
 51
45.000001
  0
ARC
  8
0
  6
CONTINUOUS
 62
     7
 10
-184.65656
 20
183.28986
 40
1
 50
315
 51
0
  0
ARC
  8
0
  6
CONTINUOUS
 62
     7
 10
-183.90656
 20
181.21143
 40
1
 50
135
 51
180.00001
  0
ARC
  8
0
  6
CONTINUOUS
 62
     7
 10
-81.006447
 20
165.1131
 40
1
 50
1.628444E-012
 51
45.000001
  0
ARC
  8
0
  6
CONTINUOUS
 62
     7
 10
-81.506447
 20
168.44153
 40
1
 50
179.99999
 51
225
  0
ARC
  8
0
  6
CONTINUOUS
 62
     7
 10
-81.506462
 20
177.6131
 40
1
 50
135
 51
180.00001
  0
ARC
  8
0
  6
CONTINUOUS
 62
     7
 10
-82.256462
 20
179.69153
 40
1
 50
315
 51
1.628444E-012
  0
ARC
  8
0
  6
CONTINUOUS
 62
     7
 10
-40.006454
 20
165.1131
 40
1
 50
135
 51
180.00001
  0
ARC
  8
0
  6
CONTINUOUS
 62
     7
 10
-39.506454
 20
168.44153
 40
1
 50
315
 51
1.628444E-012
  0
ARC
  8
0
  6
CONTINUOUS
 62
     7
 10
-137.13274
 20
93.106636
 40
1
 50
179.99999
 51
225
  0
ARC
  8
0
  6
CONTINUOUS
 62
     7
 10
-137.88274
 20
91.028214
 40
1
 50
360
 51
45.000001
  0
ARC
  8
0
  6
CONTINUOUS
 62
     7
 10
-137.13272
 20
102.27821
 40
1
 50
135
 51
180.00001
  0
ARC
  8
0
  6
CONTINUOUS
 62
     7
 10
-136.63272
 20
105.60664
 40
1
 50
315
 51
360
  0
ARC
  8
0
  6
CONTINUOUS
 62
     7
 10
-95.632736
 20
105.60664
 40
1
 50
179.99999
 51
225
  0
ARC
  8
0
  6
CONTINUOUS
 62
     7
 10
-95.132736
 20
102.27821
 40
1
 50
360
 51
45.000001
  0
ARC
  8
0
  6
CONTINUOUS
 62
     7
 10
-90.132736
 20
95.192421
 40
4
 50
179.99999
 51
270
  0
ARC
  8
0
  6
CONTINUOUS
 62
     7
 10
-90.132736
 20
49.192429
 40
4
 50
90.000003
 51
180.00001
  0
ARC
  8
0
  6
CONTINUOUS
 62
     7
 10
-164.21564
 20
161.02499
 40
1.8
 50
306.00833
 51
53.991676
  0
ARC
  8
0
  6
CONTINUOUS
 62
     7
 10
-164.21564
 20
161.02499
 40
2.7
 50
306.00833
 51
53.991676
  0
ARC
  8
0
  6
CONTINUOUS
 62
     7
 10
-167.81564
 20
161.02499
 40
1.8
 50
126.00833
 51
233.99168
  0
ARC
  8
0
  6
CONTINUOUS
 62
     7
 10
-167.81564
 20
161.02499
 40
2.7
 50
126.00833
 51
233.99168
  0
ARC
  8
0
  6
CONTINUOUS
 62
     7
 10
-166.01563
 20
158.54826
 40
5.7617307
 50
53.991676
 51
85.520553
  0
ARC
  8
0
  6
CONTINUOUS
 62
     7
 10
-166.01563
 20
158.54826
 40
4.8617306
 50
53.991676
 51
84.689121
  0
ARC
  8
0
  6
CONTINUOUS
 62
     7
 10
-166.01563
 20
163.50172
 40
4.8617306
 50
233.99167
 51
306.00832
  0
ARC
  8
0
  6
CONTINUOUS
 62
     7
 10
-166.01563
 20
163.50172
 40
5.7617307
 50
233.99167
 51
265.52055
  0
ARC
  8
0
  6
CONTINUOUS
 62
     7
 10
-166.01563
 20
165.1875
 40
0.5625
 50
36.869897
 51
143.1301
  0
ARC
  8
0
  6
CONTINUOUS
 62
     7
 10
-166.01563
 20
161.36249
 40
0.5625
 50
216.8699
 51
323.13009
  0
ARC
  8
0
  6
CONTINUOUS
 62
     7
 10
-166.01563
 20
156.86249
 40
0.5625
 50
216.8699
 51
323.13009
  0
ARC
  8
0
  6
CONTINUOUS
 62
     7
 10
-166.01563
 20
158.54826
 40
5.7617307
 50
94.479452
 51
126.00833
  0
ARC
  8
0
  6
CONTINUOUS
 62
     7
 10
-166.01563
 20
158.54826
 40
4.8617306
 50
95.310878
 51
126.00833
  0
ARC
  8
0
  6
CONTINUOUS
 62
     7
 10
-166.01563
 20
163.50172
 40
5.7617307
 50
274.47945
 51
306.00833
  0
ARC
  8
0
  6
CONTINUOUS
 62
     7
 10
-58.884388
 20
157.9375
 40
1.8
 50
306.00833
 51
53.991676
  0
ARC
  8
0
  6
CONTINUOUS
 62
     7
 10
-58.884388
 20
157.9375
 40
2.7
 50
306.00833
 51
53.991676
  0
ARC
  8
0
  6
CONTINUOUS
 62
     7
 10
-62.484394
 20
157.9375
 40
1.8
 50
126.00833
 51
233.99168
  0
ARC
  8
0
  6
CONTINUOUS
 62
     7
 10
-62.484394
 20
157.9375
 40
2.7
 50
126.00833
 51
233.99168
  0
ARC
  8
0
  6
CONTINUOUS
 62
     7
 10
-60.684376
 20
155.46077
 40
5.7617307
 50
53.991676
 51
85.520553
  0
ARC
  8
0
  6
CONTINUOUS
 62
     7
 10
-60.684376
 20
155.46077
 40
4.8617306
 50
53.991676
 51
84.689121
  0
ARC
  8
0
  6
CONTINUOUS
 62
     7
 10
-60.684376
 20
160.41423
 40
4.8617306
 50
233.99167
 51
306.00832
  0
ARC
  8
0
  6
CONTINUOUS
 62
     7
 10
-60.684376
 20
160.41423
 40
5.7617307
 50
233.99167
 51
265.52055
  0
ARC
  8
0
  6
CONTINUOUS
 62
     7
 10
-60.684376
 20
162.10001
 40
0.5625
 50
36.869897
 51
143.1301
  0
ARC
  8
0
  6
CONTINUOUS
 62
     7
 10
-60.684376
 20
158.27499
 40
0.5625
 50
216.8699
 51
323.13009
  0
ARC
  8
0
  6
CONTINUOUS
 62
     7
 10
-60.684376
 20
153.77499
 40
0.5625
 50
216.8699
 51
323.13009
  0
ARC
  8
0
  6
CONTINUOUS
 62
     7
 10
-60.684376
 20
155.46077
 40
5.7617307
 50
94.479452
 51
126.00833
  0
ARC
  8
0
  6
CONTINUOUS
 62
     7
 10
-60.684376
 20
155.46077
 40
4.8617306
 50
95.310878
 51
126.00833
  0
ARC
  8
0
  6
CONTINUOUS
 62
     7
 10
-60.684376
 20
160.41423
 40
5.7617307
 50
274.47945
 51
306.00833
  0
ARC
  8
0
  6
CONTINUOUS
 62
     7
 10
-114.45939
 20
30.162506
 40
1.8
 50
306.00833
 51
53.991676
  0
ARC
  8
0
  6
CONTINUOUS
 62
     7
 10
-114.45939
 20
30.162506
 40
2.7
 50
306.00833
 51
53.991676
  0
ARC
  8
0
  6
CONTINUOUS
 62
     7
 10
-118.05939
 20
30.162506
 40
1.8
 50
126.00833
 51
233.99168
  0
ARC
  8
0
  6
CONTINUOUS
 62
     7
 10
-118.05939
 20
30.162506
 40
2.7
 50
126.00833
 51
233.99168
  0
ARC
  8
0
  6
CONTINUOUS
 62
     7
 10
-116.25938
 20
27.685776
 40
5.7617307
 50
53.991676
 51
85.520553
  0
ARC
  8
0
  6
CONTINUOUS
 62
     7
 10
-116.25938
 20
27.685776
 40
4.8617306
 50
53.991676
 51
84.689121
  0
ARC
  8
0
  6
CONTINUOUS
 62
     7
 10
-116.25938
 20
32.639236
 40
4.8617306
 50
233.99167
 51
306.00832
  0
ARC
  8
0
  6
CONTINUOUS
 62
     7
 10
-116.25938
 20
32.639236
 40
5.7617307
 50
233.99167
 51
265.52055
  0
ARC
  8
0
  6
CONTINUOUS
 62
     7
 10
-116.25938
 20
34.324997
 40
0.5625
 50
36.869897
 51
143.1301
  0
ARC
  8
0
  6
CONTINUOUS
 62
     7
 10
-116.25938
 20
30.5
 40
0.5625
 50
216.8699
 51
323.13009
  0
ARC
  8
0
  6
CONTINUOUS
 62
     7
 10
-116.25938
 20
26
 40
0.5625
 50
216.8699
 51
323.13009
  0
ARC
  8
0
  6
CONTINUOUS
 62
     7
 10
-116.25938
 20
27.685776
 40
5.7617307
 50
94.479452
 51
126.00833
  0
ARC
  8
0
  6
CONTINUOUS
 62
     7
 10
-116.25938
 20
27.685776
 40
4.8617306
 50
95.310878
 51
126.00833
  0
ARC
  8
0
  6
CONTINUOUS
 62
     7
 10
-116.25938
 20
32.639236
 40
5.7617307
 50
274.47945
 51
306.00833
  0
TEXT
  8
0
  6
CONTINUOUS
 62
     7
 10
-169.67108
 20
255.78958
 40
5
 41
0.85534224
  1
１／２
  0
TEXT
  8
0
  6
CONTINUOUS
 62
     7
 10
-133.96954
 20
135.65508
 40
5
 41
1.0071429
  1
3/4X1/2
  0
TEXT
  8
0
  6
CONTINUOUS
 62
     7
 10
-66.595598
 20
263.77429
 40
5
 41
0.85534224
  1
３／４
  0
TEXT
  8
0
  6
CONTINUOUS
 62
     7
 10
-160.473
 20
282.37888
 40
5
 41
0.84247986
  1
ＲＣＦ－ＭＫ－ＡＴ（器具接続用チ－ズ）
  0
POINT
  8
1
  6
CONTINUOUS
 62
     7
 10
-210
 20
0
  0
POINT
  8
1
  6
CONTINUOUS
 62
     7
 10
0
 20
0
  0
POINT
  8
1
  6
CONTINUOUS
 62
     7
 10
0
 20
0
  0
POINT
  8
1
  6
CONTINUOUS
 62
     7
 10
-210
 20
297
  0
POINT
  8
1
  6
CONTINUOUS
 62
     7
 10
-210
 20
0
  0
POINT
  8
1
  6
CONTINUOUS
 62
     7
 10
0
 20
0
  0
POINT
  8
1
  6
CONTINUOUS
 62
     7
 10
0
 20
297
  0
LINE
  8
1
  6
CONTINUOUS
 62
     7
 10
-210
 20
0
 11
0
 21
0
  0
LINE
  8
1
  6
CONTINUOUS
 62
     7
 10
-210
 20
297
 11
0
 21
297
  0
LINE
  8
1
  6
CONTINUOUS
 62
     7
 10
0
 20
297
 11
0
 21
0
  0
LINE
  8
1
  6
CONTINUOUS
 62
     7
 10
-210
 20
297
 11
-210
 21
0
  0
ENDSEC
  0
EOF
