  0
SECTION
  2
HEADER
  9
$EXTMAX
 10
0
 20
297
  9
$EXTMIN
 10
-210
 20
0
  0
ENDSEC
  0
SECTION
  2
TABLES
  0
TABLE
  2
LTYPE
 70
    22
  0
LTYPE
  2
CONTINUOUS
 70
    64
  3
Solid line
 72
    65
 73
     0
 40
0.000000
  0
LTYPE
  2
DASHED
 70
    64
  3
__ __ __ __ __ __ __ __ __ __ __ __ __ __ __
 72
    65
 73
     2
 40
3.500000
 49
2.000000
 49
-1.500000
  0
LTYPE
  2
CENTER
 70
    64
  3
____ _ ____ _ ____ _ ____ _ ____ _ ____ _ ____
 72
    65
 73
     4
 40
17.500000
 49
13.000000
 49
-1.500000
 49
1.500000
 49
-1.500000
  0
LTYPE
  2
PHANTOM
 70
    64
  3
_____ _ _ _____ _ _ _____ _ _ _____ _ _ ____  
 72
    65
 73
     6
 40
15.500000
 49
8.000000
 49
-1.500000
 49
1.500000
 49
-1.500000
 49
1.500000
 49
-1.500000
  0
LTYPE
  2
DOT
 70
    64
  3
. . . . . . . . . . . . . . . . . . . . . . . .
 72
    65
 73
     2
 40
0.25
 49
0.0
 49
-0.25
  0
ENDTAB
  0
TABLE
  2
LAYER
 70
     2
  0
LAYER
  2
0
 70
     0
 62
     7
  6
CONTINUOUS
  0
LAYER
  2
1
 70
     0
 62
     7
  6
CONTINUOUS
  0
ENDTAB
  0
TABLE
  2
STYLE
 70
     1
  0
STYLE
  2
STANDARD
 70
     0
 40
0.000000
 41
1.000000
 50
0.000000
 71
     0
 42
0.200000
  3
txt
  4
BIGFONT
  0
ENDTAB
  0
TABLE
  2
VIEW
 70
     0
  0
ENDTAB
  0
ENDSEC
  0
SECTION
  2
BLOCKS
  0
ENDSEC
  0
SECTION
  2
ENTITIES
  0
POINT
  8
0
  6
CONTINUOUS
 62
     7
 10
-102.65553
 20
78.637131
  0
POINT
  8
0
  6
CONTINUOUS
 62
     7
 10
-46.925003
 20
192.14999
  0
POINT
  8
0
  6
CONTINUOUS
 62
     7
 10
-143.57425
 20
192.14999
  0
POINT
  8
0
  6
CONTINUOUS
 62
     7
 10
-134.4122
 20
78.754715
  0
POINT
  8
0
  6
CONTINUOUS
 62
     7
 10
-164.84178
 20
192.15605
  0
POINT
  8
0
  6
CONTINUOUS
 62
     7
 10
-71.077759
 20
192.09004
  0
LINE
  8
0
  6
CONTINUOUS
 62
     7
 10
-172.07425
 20
208.64999
 11
-172.07425
 21
175.64999
  0
LINE
  8
0
  6
CENTER
 62
     7
 10
-174.45906
 20
192.14999
 11
-111.6612
 21
192.14999
  0
LINE
  8
0
  6
CENTER
 62
     7
 10
-82.759384
 20
192.14999
 11
-12.622772
 21
192.14999
  0
LINE
  8
0
  6
CENTER
 62
     7
 10
-79.455536
 20
78.637131
 11
-145.4469
 21
78.637131
  0
LINE
  8
0
  6
CONTINUOUS
 62
     7
 10
-115.07425
 20
209.14999
 11
-115.07425
 21
175.14999
  0
LINE
  8
0
  6
CONTINUOUS
 62
     7
 10
-15.925003
 20
212.14999
 11
-15.925003
 21
172.14999
  0
LINE
  8
0
  6
CONTINUOUS
 62
     7
 10
-155.65158
 20
175.64999
 11
-172.07425
 21
175.64999
  0
LINE
  8
0
  6
CONTINUOUS
 62
     7
 10
-155.65158
 20
208.64999
 11
-172.07425
 21
208.64999
  0
LINE
  8
0
  6
CONTINUOUS
 62
     7
 10
-155.07425
 20
176.89482
 11
-155.07425
 21
207.86519
  0
LINE
  8
0
  6
CONTINUOUS
 62
     7
 10
-153.91953
 20
173.65001
 11
-154.78555
 21
175.15001
  0
LINE
  8
0
  6
CONTINUOUS
 62
     7
 10
-153.91953
 20
210.64999
 11
-154.78555
 21
209.14998
  0
LINE
  8
0
  6
CONTINUOUS
 62
     7
 10
-117.07425
 20
173.14999
 11
-153.0535
 21
173.14999
  0
LINE
  8
0
  6
CONTINUOUS
 62
     7
 10
-117.07425
 20
211.14999
 11
-153.0535
 21
211.14999
  0
LINE
  8
0
  6
CONTINUOUS
 62
     7
 10
-153.63086
 20
174.74036
 11
-153.63086
 21
209.21172
  0
LINE
  8
0
  6
CONTINUOUS
 62
     7
 10
-62.339218
 20
172.64999
 11
-77.925003
 21
172.64999
  0
LINE
  8
0
  6
CONTINUOUS
 62
     7
 10
-62.339218
 20
211.64999
 11
-77.925003
 21
211.64999
  0
LINE
  8
0
  6
CONTINUOUS
 62
     7
 10
-61.925003
 20
173.75386
 11
-61.925003
 21
210.60472
  0
LINE
  8
0
  6
CONTINUOUS
 62
     7
 10
-59.717899
 20
213.85709
 11
-61.632103
 21
211.94289
  0
LINE
  8
0
  6
CONTINUOUS
 62
     7
 10
-17.925003
 20
214.14999
 11
-59.010788
 21
214.14999
  0
LINE
  8
0
  6
CONTINUOUS
 62
     7
 10
-59.425003
 20
171.41998
 11
-59.425003
 21
213.06143
  0
LINE
  8
0
  6
CONTINUOUS
 62
     7
 10
-17.925003
 20
170.14999
 11
-59.010788
 21
170.14999
  0
LINE
  8
0
  6
CONTINUOUS
 62
     7
 10
-59.717892
 20
170.44289
 11
-61.632103
 21
172.3571
  0
LINE
  8
0
  6
CONTINUOUS
 62
     7
 10
-77.925003
 20
172.64999
 11
-77.925003
 21
211.64998
  0
LINE
  8
0
  6
CONTINUOUS
 62
     7
 10
-117.07425
 20
173.14999
 11
-115.07425
 21
175.14999
  0
LINE
  8
0
  6
CONTINUOUS
 62
     7
 10
-117.07424
 20
211.14999
 11
-115.07425
 21
209.15
  0
LINE
  8
0
  6
CONTINUOUS
 62
     7
 10
-117.07425
 20
209.14999
 11
-117.07425
 21
175.14999
  0
LINE
  8
0
  6
CONTINUOUS
 62
     7
 10
-126.06975
 20
59.137131
 11
-141.65553
 21
59.137131
  0
LINE
  8
0
  6
CONTINUOUS
 62
     7
 10
-126.06975
 20
98.137131
 11
-141.65553
 21
98.137131
  0
LINE
  8
0
  6
CONTINUOUS
 62
     7
 10
-125.65553
 20
60.241013
 11
-125.65553
 21
97.091858
  0
LINE
  8
0
  6
CONTINUOUS
 62
     7
 10
-123.44843
 20
100.34424
 11
-125.36264
 21
98.430031
  0
LINE
  8
0
  6
CONTINUOUS
 62
     7
 10
-107.65553
 20
100.63713
 11
-122.74132
 21
100.63713
  0
LINE
  8
0
  6
CONTINUOUS
 62
     7
 10
-123.15553
 20
57.90712
 11
-123.15553
 21
99.548576
  0
LINE
  8
0
  6
CONTINUOUS
 62
     7
 10
-107.65553
 20
56.637131
 11
-122.74132
 21
56.637131
  0
LINE
  8
0
  6
CONTINUOUS
 62
     7
 10
-123.44842
 20
56.930023
 11
-125.36264
 21
58.844238
  0
LINE
  8
0
  6
CONTINUOUS
 62
     7
 10
-141.65553
 20
59.137131
 11
-141.65553
 21
98.137115
  0
LINE
  8
0
  6
CONTINUOUS
 62
     7
 10
-17.925003
 20
170.15
 11
-15.925011
 21
172.14999
  0
LINE
  8
0
  6
CONTINUOUS
 62
     7
 10
-17.925003
 20
214.14999
 11
-15.925011
 21
212.15
  0
LINE
  8
0
  6
CONTINUOUS
 62
     7
 10
-17.925003
 20
212.14999
 11
-17.925003
 21
172.14999
  0
LINE
  8
0
  6
CONTINUOUS
 62
     7
 10
-81.655533
 20
61.637131
 11
-81.655533
 21
95.637131
  0
LINE
  8
0
  6
CONTINUOUS
 62
     7
 10
-83.655533
 20
97.637131
 11
-95.531174
 21
97.637131
  0
LINE
  8
0
  6
CONTINUOUS
 62
     7
 10
-83.655533
 20
59.637131
 11
-95.531174
 21
59.637131
  0
LINE
  8
0
  6
CONTINUOUS
 62
     7
 10
-83.655527
 20
97.637131
 11
-81.655537
 21
95.637138
  0
LINE
  8
0
  6
CONTINUOUS
 62
     7
 10
-81.655537
 20
61.637131
 11
-83.655537
 21
59.637131
  0
LINE
  8
0
  6
CONTINUOUS
 62
     7
 10
-83.655533
 20
61.637131
 11
-83.655533
 21
95.637131
  0
LINE
  8
0
  6
CONTINUOUS
 62
     7
 10
-129.9122
 20
78.304733
 11
-131.14481
 21
78.304733
  0
LINE
  8
0
  6
CONTINUOUS
 62
     7
 10
-129.9122
 20
79.204727
 11
-131.14481
 21
79.204727
  0
LINE
  8
0
  6
CONTINUOUS
 62
     7
 10
-137.6796
 20
79.204727
 11
-138.9122
 21
79.204727
  0
LINE
  8
0
  6
CONTINUOUS
 62
     7
 10
-137.6796
 20
78.304733
 11
-138.9122
 21
78.304733
  0
LINE
  8
0
  6
CONTINUOUS
 62
     7
 10
-132.04807
 20
79.204727
 11
-134.4122
 21
79.204727
  0
LINE
  8
0
  6
CONTINUOUS
 62
     7
 10
-132.04807
 20
78.304733
 11
-134.4122
 21
78.304733
  0
LINE
  8
0
  6
CONTINUOUS
 62
     7
 10
-160.34178
 20
191.70607
 11
-161.57439
 21
191.70607
  0
LINE
  8
0
  6
CONTINUOUS
 62
     7
 10
-160.34178
 20
192.60606
 11
-161.57439
 21
192.60606
  0
LINE
  8
0
  6
CONTINUOUS
 62
     7
 10
-168.10918
 20
192.60606
 11
-169.34178
 21
192.60606
  0
LINE
  8
0
  6
CONTINUOUS
 62
     7
 10
-168.10918
 20
191.70607
 11
-169.34178
 21
191.70607
  0
LINE
  8
0
  6
CONTINUOUS
 62
     7
 10
-162.47765
 20
192.60606
 11
-164.84178
 21
192.60606
  0
LINE
  8
0
  6
CONTINUOUS
 62
     7
 10
-162.47765
 20
191.70607
 11
-164.84178
 21
191.70607
  0
LINE
  8
0
  6
CONTINUOUS
 62
     7
 10
-66.577759
 20
191.64006
 11
-67.810364
 21
191.64006
  0
LINE
  8
0
  6
CONTINUOUS
 62
     7
 10
-66.577759
 20
192.54005
 11
-67.810364
 21
192.54005
  0
LINE
  8
0
  6
CONTINUOUS
 62
     7
 10
-74.345154
 20
192.54005
 11
-75.577759
 21
192.54005
  0
LINE
  8
0
  6
CONTINUOUS
 62
     7
 10
-74.345154
 20
191.64006
 11
-75.577759
 21
191.64006
  0
LINE
  8
0
  6
CONTINUOUS
 62
     7
 10
-68.713623
 20
192.54005
 11
-71.077759
 21
192.54005
  0
LINE
  8
0
  6
CONTINUOUS
 62
     7
 10
-68.713623
 20
191.64006
 11
-71.077759
 21
191.64006
  0
ARC
  8
0
  6
CONTINUOUS
 62
     7
 10
-155.65158
 20
174.64999
 40
1
 50
30.000004
 51
89.999989
  0
ARC
  8
0
  6
CONTINUOUS
 62
     7
 10
-153.0535
 20
174.14999
 40
1
 50
210
 51
270
  0
ARC
  8
0
  6
CONTINUOUS
 62
     7
 10
-155.65158
 20
209.64999
 40
1
 50
270
 51
330
  0
ARC
  8
0
  6
CONTINUOUS
 62
     7
 10
-153.0535
 20
210.14999
 40
1
 50
89.999989
 51
150.00001
  0
ARC
  8
0
  6
CONTINUOUS
 62
     7
 10
-62.339218
 20
212.64998
 40
1
 50
270
 51
315
  0
ARC
  8
0
  6
CONTINUOUS
 62
     7
 10
-59.010788
 20
213.14998
 40
1
 50
89.999989
 51
135
  0
ARC
  8
0
  6
CONTINUOUS
 62
     7
 10
-62.339218
 20
171.64999
 40
1
 50
45.000001
 51
90.000003
  0
ARC
  8
0
  6
CONTINUOUS
 62
     7
 10
-59.010788
 20
171.14999
 40
1
 50
225
 51
270
  0
ARC
  8
0
  6
CONTINUOUS
 62
     7
 10
-122.74132
 20
57.637131
 40
1
 50
225
 51
270
  0
ARC
  8
0
  6
CONTINUOUS
 62
     7
 10
-126.06975
 20
99.137115
 40
1
 50
270
 51
315
  0
ARC
  8
0
  6
CONTINUOUS
 62
     7
 10
-122.74132
 20
99.637123
 40
1
 50
89.999989
 51
135
  0
ARC
  8
0
  6
CONTINUOUS
 62
     7
 10
-126.06975
 20
58.137131
 40
1
 50
45.000001
 51
90.000003
  0
ARC
  8
0
  6
CONTINUOUS
 62
     7
 10
-107.65553
 20
72.637131
 40
16.000002
 50
269.99998
 51
297.79578
  0
ARC
  8
0
  6
CONTINUOUS
 62
     7
 10
-95.531174
 20
49.637131
 40
10
 50
90.000003
 51
117.79578
  0
ARC
  8
0
  6
CONTINUOUS
 62
     7
 10
-107.65553
 20
84.637131
 40
16.000002
 50
62.20422
 51
90.000016
  0
ARC
  8
0
  6
CONTINUOUS
 62
     7
 10
-95.531174
 20
107.63713
 40
10
 50
242.20422
 51
270
  0
ARC
  8
0
  6
CONTINUOUS
 62
     7
 10
-134.4122
 20
76.954727
 40
1.8
 50
216.00833
 51
323.99168
  0
ARC
  8
0
  6
CONTINUOUS
 62
     7
 10
-134.4122
 20
76.954727
 40
2.7
 50
216.00833
 51
323.99168
  0
ARC
  8
0
  6
CONTINUOUS
 62
     7
 10
-134.4122
 20
80.554733
 40
1.8
 50
36.00833
 51
143.99168
  0
ARC
  8
0
  6
CONTINUOUS
 62
     7
 10
-134.4122
 20
80.554733
 40
2.7
 50
36.00833
 51
143.99168
  0
ARC
  8
0
  6
CONTINUOUS
 62
     7
 10
-136.88893
 20
78.754715
 40
5.7617307
 50
323.99168
 51
355.52055
  0
ARC
  8
0
  6
CONTINUOUS
 62
     7
 10
-136.88893
 20
78.754715
 40
4.8617306
 50
323.99168
 51
354.68912
  0
ARC
  8
0
  6
CONTINUOUS
 62
     7
 10
-131.93547
 20
78.754715
 40
4.8617306
 50
143.99167
 51
216.00833
  0
ARC
  8
0
  6
CONTINUOUS
 62
     7
 10
-131.93547
 20
78.754715
 40
5.7617307
 50
143.99167
 51
175.52055
  0
ARC
  8
0
  6
CONTINUOUS
 62
     7
 10
-130.24969
 20
78.754715
 40
0.5625
 50
306.8699
 51
53.130098
  0
ARC
  8
0
  6
CONTINUOUS
 62
     7
 10
-134.07471
 20
78.754715
 40
0.5625
 50
126.8699
 51
233.13009
  0
ARC
  8
0
  6
CONTINUOUS
 62
     7
 10
-138.57471
 20
78.754715
 40
0.5625
 50
126.8699
 51
233.13009
  0
ARC
  8
0
  6
CONTINUOUS
 62
     7
 10
-136.88893
 20
78.754715
 40
5.7617307
 50
4.4794524
 51
36.00833
  0
ARC
  8
0
  6
CONTINUOUS
 62
     7
 10
-136.88893
 20
78.754715
 40
4.8617306
 50
5.3108776
 51
36.00833
  0
ARC
  8
0
  6
CONTINUOUS
 62
     7
 10
-131.93547
 20
78.754715
 40
5.7617307
 50
184.47945
 51
216.00833
  0
ARC
  8
0
  6
CONTINUOUS
 62
     7
 10
-164.84178
 20
190.35606
 40
1.8
 50
216.00833
 51
323.99168
  0
ARC
  8
0
  6
CONTINUOUS
 62
     7
 10
-164.84178
 20
190.35606
 40
2.7
 50
216.00833
 51
323.99168
  0
ARC
  8
0
  6
CONTINUOUS
 62
     7
 10
-164.84178
 20
193.95607
 40
1.8
 50
36.00833
 51
143.99168
  0
ARC
  8
0
  6
CONTINUOUS
 62
     7
 10
-164.84178
 20
193.95607
 40
2.7
 50
36.00833
 51
143.99168
  0
ARC
  8
0
  6
CONTINUOUS
 62
     7
 10
-167.31851
 20
192.15605
 40
5.7617307
 50
323.99168
 51
355.52055
  0
ARC
  8
0
  6
CONTINUOUS
 62
     7
 10
-167.31851
 20
192.15605
 40
4.8617306
 50
323.99168
 51
354.68912
  0
ARC
  8
0
  6
CONTINUOUS
 62
     7
 10
-162.36505
 20
192.15605
 40
4.8617306
 50
143.99167
 51
216.00833
  0
ARC
  8
0
  6
CONTINUOUS
 62
     7
 10
-162.36505
 20
192.15605
 40
5.7617307
 50
143.99167
 51
175.52055
  0
ARC
  8
0
  6
CONTINUOUS
 62
     7
 10
-160.67928
 20
192.15605
 40
0.5625
 50
306.8699
 51
53.130098
  0
ARC
  8
0
  6
CONTINUOUS
 62
     7
 10
-164.50429
 20
192.15605
 40
0.5625
 50
126.8699
 51
233.13009
  0
ARC
  8
0
  6
CONTINUOUS
 62
     7
 10
-169.00429
 20
192.15605
 40
0.5625
 50
126.8699
 51
233.13009
  0
ARC
  8
0
  6
CONTINUOUS
 62
     7
 10
-167.31851
 20
192.15605
 40
5.7617307
 50
4.4794524
 51
36.00833
  0
ARC
  8
0
  6
CONTINUOUS
 62
     7
 10
-167.31851
 20
192.15605
 40
4.8617306
 50
5.3108776
 51
36.00833
  0
ARC
  8
0
  6
CONTINUOUS
 62
     7
 10
-162.36505
 20
192.15605
 40
5.7617307
 50
184.47945
 51
216.00833
  0
ARC
  8
0
  6
CONTINUOUS
 62
     7
 10
-71.077759
 20
190.29005
 40
1.8
 50
216.00833
 51
323.99168
  0
ARC
  8
0
  6
CONTINUOUS
 62
     7
 10
-71.077759
 20
190.29005
 40
2.7
 50
216.00833
 51
323.99168
  0
ARC
  8
0
  6
CONTINUOUS
 62
     7
 10
-71.077759
 20
193.89006
 40
1.8
 50
36.00833
 51
143.99168
  0
ARC
  8
0
  6
CONTINUOUS
 62
     7
 10
-71.077759
 20
193.89006
 40
2.7
 50
36.00833
 51
143.99168
  0
ARC
  8
0
  6
CONTINUOUS
 62
     7
 10
-73.554489
 20
192.09004
 40
5.7617307
 50
323.99168
 51
355.52055
  0
ARC
  8
0
  6
CONTINUOUS
 62
     7
 10
-73.554489
 20
192.09004
 40
4.8617306
 50
323.99168
 51
354.68912
  0
ARC
  8
0
  6
CONTINUOUS
 62
     7
 10
-68.601028
 20
192.09004
 40
4.8617306
 50
143.99167
 51
216.00833
  0
ARC
  8
0
  6
CONTINUOUS
 62
     7
 10
-68.601028
 20
192.09004
 40
5.7617307
 50
143.99167
 51
175.52055
  0
ARC
  8
0
  6
CONTINUOUS
 62
     7
 10
-66.915253
 20
192.09004
 40
0.5625
 50
306.8699
 51
53.130098
  0
ARC
  8
0
  6
CONTINUOUS
 62
     7
 10
-70.740265
 20
192.09004
 40
0.5625
 50
126.8699
 51
233.13009
  0
ARC
  8
0
  6
CONTINUOUS
 62
     7
 10
-75.240265
 20
192.09004
 40
0.5625
 50
126.8699
 51
233.13009
  0
ARC
  8
0
  6
CONTINUOUS
 62
     7
 10
-73.554489
 20
192.09004
 40
5.7617307
 50
4.4794524
 51
36.00833
  0
ARC
  8
0
  6
CONTINUOUS
 62
     7
 10
-73.554489
 20
192.09004
 40
4.8617306
 50
5.3108776
 51
36.00833
  0
ARC
  8
0
  6
CONTINUOUS
 62
     7
 10
-68.601028
 20
192.09004
 40
5.7617307
 50
184.47945
 51
216.00833
  0
TEXT
  8
0
  6
CONTINUOUS
 62
     7
 10
-148.42964
 20
217.68343
 40
5
 41
0.85534224
  1
１／２
  0
TEXT
  8
0
  6
CONTINUOUS
 62
     7
 10
-53.51642
 20
220.0863
 40
5
 41
0.85534224
  1
３／４
  0
TEXT
  8
0
  6
CONTINUOUS
 62
     7
 10
-127.80944
 20
109.35767
 40
5
 41
0.84633858
  1
３／４×１／２
  0
TEXT
  8
0
  6
CONTINUOUS
 62
     7
 10
-160.44396
 20
282.16034
 40
5
 41
0.84237086
  1
ＲＣＦ－ＭＫ－ＡＳ（器具接続用ソケット）
  0
POINT
  8
1
  6
CONTINUOUS
 62
     7
 10
-210
 20
0
  0
POINT
  8
1
  6
CONTINUOUS
 62
     7
 10
0
 20
0
  0
POINT
  8
1
  6
CONTINUOUS
 62
     7
 10
0
 20
0
  0
POINT
  8
1
  6
CONTINUOUS
 62
     7
 10
-210
 20
297
  0
POINT
  8
1
  6
CONTINUOUS
 62
     7
 10
-210
 20
0
  0
POINT
  8
1
  6
CONTINUOUS
 62
     7
 10
0
 20
0
  0
POINT
  8
1
  6
CONTINUOUS
 62
     7
 10
0
 20
297
  0
LINE
  8
1
  6
CONTINUOUS
 62
     7
 10
-210
 20
0
 11
0
 21
0
  0
LINE
  8
1
  6
CONTINUOUS
 62
     7
 10
-210
 20
297
 11
0
 21
297
  0
LINE
  8
1
  6
CONTINUOUS
 62
     7
 10
0
 20
297
 11
0
 21
0
  0
LINE
  8
1
  6
CONTINUOUS
 62
     7
 10
-210
 20
297
 11
-210
 21
0
  0
ENDSEC
  0
EOF
