  0
SECTION
  2
HEADER
  9
$EXTMAX
 10
0
 20
297
  9
$EXTMIN
 10
-210
 20
0
  0
ENDSEC
  0
SECTION
  2
TABLES
  0
TABLE
  2
LTYPE
 70
    22
  0
LTYPE
  2
CONTINUOUS
 70
    64
  3
Solid line
 72
    65
 73
     0
 40
0.000000
  0
LTYPE
  2
DASHED
 70
    64
  3
__ __ __ __ __ __ __ __ __ __ __ __ __ __ __
 72
    65
 73
     2
 40
3.500000
 49
2.000000
 49
-1.500000
  0
LTYPE
  2
CENTER
 70
    64
  3
____ _ ____ _ ____ _ ____ _ ____ _ ____ _ ____
 72
    65
 73
     4
 40
17.500000
 49
13.000000
 49
-1.500000
 49
1.500000
 49
-1.500000
  0
LTYPE
  2
PHANTOM
 70
    64
  3
_____ _ _ _____ _ _ _____ _ _ _____ _ _ ____  
 72
    65
 73
     6
 40
15.500000
 49
8.000000
 49
-1.500000
 49
1.500000
 49
-1.500000
 49
1.500000
 49
-1.500000
  0
LTYPE
  2
DOT
 70
    64
  3
. . . . . . . . . . . . . . . . . . . . . . . .
 72
    65
 73
     2
 40
0.25
 49
0.0
 49
-0.25
  0
ENDTAB
  0
TABLE
  2
LAYER
 70
     2
  0
LAYER
  2
0
 70
     0
 62
     7
  6
CONTINUOUS
  0
LAYER
  2
1
 70
     0
 62
     7
  6
CONTINUOUS
  0
ENDTAB
  0
TABLE
  2
STYLE
 70
     1
  0
STYLE
  2
STANDARD
 70
     0
 40
0.000000
 41
1.000000
 50
0.000000
 71
     0
 42
0.200000
  3
txt
  4
BIGFONT
  0
ENDTAB
  0
TABLE
  2
VIEW
 70
     0
  0
ENDTAB
  0
ENDSEC
  0
SECTION
  2
BLOCKS
  0
ENDSEC
  0
SECTION
  2
ENTITIES
  0
POINT
  8
0
  6
CONTINUOUS
 62
     7
 10
-116.43224
 20
211.89049
  0
POINT
  8
0
  6
CONTINUOUS
 62
     7
 10
-118.04634
 20
94.598717
  0
POINT
  8
0
  6
CONTINUOUS
 62
     7
 10
-116.43224
 20
179.89049
  0
POINT
  8
0
  6
CONTINUOUS
 62
     7
 10
-116.43267
 20
167.30511
  0
POINT
  8
0
  6
CONTINUOUS
 62
     7
 10
-118.04593
 20
53.055237
  0
LINE
  8
0
  6
CENTER
 62
     7
 10
-136.50731
 20
211.89049
 11
-80.232239
 21
211.89049
  0
LINE
  8
0
  6
CENTER
 62
     7
 10
-116.43224
 20
231.87335
 11
-116.43224
 21
155.05
  0
LINE
  8
0
  6
CONTINUOUS
 62
     7
 10
-84.432236
 20
191.41481
 11
-84.432236
 21
232.34433
  0
LINE
  8
0
  6
CENTER
 62
     7
 10
-136.26637
 20
94.598717
 11
-83.846344
 21
94.598717
  0
LINE
  8
0
  6
CENTER
 62
     7
 10
-118.04634
 20
111.58108
 11
-118.04634
 21
42.579788
  0
LINE
  8
0
  6
CONTINUOUS
 62
     7
 10
-96.932236
 20
159.89049
 11
-135.93222
 21
159.89049
  0
LINE
  8
0
  6
CONTINUOUS
 62
     7
 10
-96.932236
 20
175.47627
 11
-96.932236
 21
159.89049
  0
LINE
  8
0
  6
CONTINUOUS
 62
     7
 10
-135.93224
 20
175.47627
 11
-135.93224
 21
159.89049
  0
LINE
  8
0
  6
CONTINUOUS
 62
     7
 10
-98.03611
 20
175.89049
 11
-134.88696
 21
175.89049
  0
LINE
  8
0
  6
CONTINUOUS
 62
     7
 10
-94.725127
 20
178.09759
 11
-96.639341
 21
176.18338
  0
LINE
  8
0
  6
CONTINUOUS
 62
     7
 10
-138.13933
 20
178.09758
 11
-136.22513
 21
176.18338
  0
LINE
  8
0
  6
CONTINUOUS
 62
     7
 10
-94.432236
 20
185.89049
 11
-94.432236
 21
178.8047
  0
LINE
  8
0
  6
CONTINUOUS
 62
     7
 10
-138.43224
 20
187.97627
 11
-138.43224
 21
178.8047
  0
LINE
  8
0
  6
CONTINUOUS
 62
     7
 10
-95.702225
 20
178.39049
 11
-137.34367
 21
178.39049
  0
LINE
  8
0
  6
CONTINUOUS
 62
     7
 10
-95.825066
 20
188.39049
 11
-137.22084
 21
188.39049
  0
LINE
  8
0
  6
CONTINUOUS
 62
     7
 10
-137.18224
 20
195.39049
 11
-137.18224
 21
190.0547
  0
LINE
  8
0
  6
CONTINUOUS
 62
     7
 10
-137.47512
 20
189.34759
 11
-138.13934
 21
188.68338
  0
LINE
  8
0
  6
CONTINUOUS
 62
     7
 10
-96.56208
 20
189.64049
 11
-135.74681
 21
189.64049
  0
LINE
  8
0
  6
CONTINUOUS
 62
     7
 10
-82.432236
 20
231.89049
 11
-82.432236
 21
191.89049
  0
LINE
  8
0
  6
CONTINUOUS
 62
     7
 10
-94.018021
 20
233.89049
 11
-84.432236
 21
233.89049
  0
LINE
  8
0
  6
CONTINUOUS
 62
     7
 10
-90.432236
 20
189.89049
 11
-84.432236
 21
189.89049
  0
LINE
  8
0
  6
CONTINUOUS
 62
     7
 10
-84.432232
 20
189.89048
 11
-82.432236
 21
191.89048
  0
LINE
  8
0
  6
CONTINUOUS
 62
     7
 10
-84.432226
 20
233.89048
 11
-82.432224
 21
231.89048
  0
LINE
  8
0
  6
CONTINUOUS
 62
     7
 10
-94.432236
 20
231.89049
 11
-94.432236
 21
190.85027
  0
LINE
  8
0
  6
CONTINUOUS
 62
     7
 10
-94.725119
 20
233.59758
 11
-95.389332
 21
232.93337
  0
LINE
  8
0
  6
CONTINUOUS
 62
     7
 10
-99.932236
 20
232.64049
 11
-96.096451
 21
232.64049
  0
LINE
  8
0
  6
CONTINUOUS
 62
     7
 10
-98.546341
 20
45.598724
 11
-137.54633
 21
45.598724
  0
LINE
  8
0
  6
CONTINUOUS
 62
     7
 10
-98.546341
 20
61.184525
 11
-98.546341
 21
45.598724
  0
LINE
  8
0
  6
CONTINUOUS
 62
     7
 10
-137.54634
 20
61.184525
 11
-137.54634
 21
45.598724
  0
LINE
  8
0
  6
CONTINUOUS
 62
     7
 10
-99.650215
 20
61.598724
 11
-136.50107
 21
61.598724
  0
LINE
  8
0
  6
CONTINUOUS
 62
     7
 10
-96.339237
 20
63.805847
 11
-98.253451
 21
61.891632
  0
LINE
  8
0
  6
CONTINUOUS
 62
     7
 10
-139.75344
 20
63.805832
 11
-137.83923
 21
61.891617
  0
LINE
  8
0
  6
CONTINUOUS
 62
     7
 10
-96.046341
 20
71.598709
 11
-96.046341
 21
64.512955
  0
LINE
  8
0
  6
CONTINUOUS
 62
     7
 10
-140.04634
 20
73.684525
 11
-140.04634
 21
64.512955
  0
LINE
  8
0
  6
CONTINUOUS
 62
     7
 10
-97.31633
 20
64.09874
 11
-138.95778
 21
64.09874
  0
LINE
  8
0
  6
CONTINUOUS
 62
     7
 10
-98.807686
 20
74.09874
 11
-138.83495
 21
74.09874
  0
LINE
  8
0
  6
CONTINUOUS
 62
     7
 10
-138.79634
 20
77.09874
 11
-138.79634
 21
75.762955
  0
LINE
  8
0
  6
CONTINUOUS
 62
     7
 10
-139.08923
 20
75.055832
 11
-139.75345
 21
74.391617
  0
LINE
  8
0
  6
CONTINUOUS
 62
     7
 10
-100.57204
 20
75.34874
 11
-137.36092
 21
75.34874
  0
LINE
  8
0
  6
CONTINUOUS
 62
     7
 10
-95.682236
 20
231.21524
 11
-95.682236
 21
191.41481
  0
LINE
  8
0
  6
CONTINUOUS
 62
     7
 10
-86.046341
 20
111.59872
 11
-86.046341
 21
77.598709
  0
LINE
  8
0
  6
CONTINUOUS
 62
     7
 10
-92.046341
 20
75.598709
 11
-88.046341
 21
75.598709
  0
LINE
  8
0
  6
CONTINUOUS
 62
     7
 10
-97.632126
 20
113.59872
 11
-88.046341
 21
113.59872
  0
LINE
  8
0
  6
CONTINUOUS
 62
     7
 10
-88.046341
 20
112.17818
 11
-88.046341
 21
76.512894
  0
LINE
  8
0
  6
CONTINUOUS
 62
     7
 10
-88.046333
 20
113.59871
 11
-86.046341
 21
111.59872
  0
LINE
  8
0
  6
CONTINUOUS
 62
     7
 10
-86.046341
 20
77.598724
 11
-88.046341
 21
75.598724
  0
LINE
  8
0
  6
CONTINUOUS
 62
     7
 10
-98.046341
 20
112.17818
 11
-98.046341
 21
75.822952
  0
LINE
  8
0
  6
CONTINUOUS
 62
     7
 10
-98.339233
 20
113.30582
 11
-99.003446
 21
112.64161
  0
LINE
  8
0
  6
CONTINUOUS
 62
     7
 10
-103.54633
 20
112.34872
 11
-99.710556
 21
112.34872
  0
LINE
  8
0
  6
CONTINUOUS
 62
     7
 10
-99.296341
 20
110.9744
 11
-99.296341
 21
76.637268
  0
LINE
  8
0
  6
CONTINUOUS
 62
     7
 10
-115.98269
 20
171.80511
 11
-115.98269
 21
170.57251
  0
LINE
  8
0
  6
CONTINUOUS
 62
     7
 10
-116.88268
 20
171.80511
 11
-116.88268
 21
170.57251
  0
LINE
  8
0
  6
CONTINUOUS
 62
     7
 10
-116.88268
 20
164.03772
 11
-116.88268
 21
162.80511
  0
LINE
  8
0
  6
CONTINUOUS
 62
     7
 10
-115.98269
 20
164.03772
 11
-115.98269
 21
162.80511
  0
LINE
  8
0
  6
CONTINUOUS
 62
     7
 10
-116.88268
 20
169.66925
 11
-116.88268
 21
167.30511
  0
LINE
  8
0
  6
CONTINUOUS
 62
     7
 10
-115.98269
 20
169.66925
 11
-115.98269
 21
167.30511
  0
LINE
  8
0
  6
CONTINUOUS
 62
     7
 10
-117.59595
 20
57.555237
 11
-117.59595
 21
56.322632
  0
LINE
  8
0
  6
CONTINUOUS
 62
     7
 10
-118.49594
 20
57.555237
 11
-118.49594
 21
56.322632
  0
LINE
  8
0
  6
CONTINUOUS
 62
     7
 10
-118.49594
 20
49.787842
 11
-118.49594
 21
48.555237
  0
LINE
  8
0
  6
CONTINUOUS
 62
     7
 10
-117.59595
 20
49.787842
 11
-117.59595
 21
48.555237
  0
LINE
  8
0
  6
CONTINUOUS
 62
     7
 10
-118.49594
 20
55.419373
 11
-118.49594
 21
53.055237
  0
LINE
  8
0
  6
CONTINUOUS
 62
     7
 10
-117.59595
 20
55.419373
 11
-117.59595
 21
53.055237
  0
ARC
  8
0
  6
CONTINUOUS
 62
     7
 10
-95.432236
 20
178.8047
 40
1
 50
315
 51
1.628444E-012
  0
ARC
  8
0
  6
CONTINUOUS
 62
     7
 10
-95.932236
 20
175.47627
 40
1
 50
135
 51
180.00001
  0
ARC
  8
0
  6
CONTINUOUS
 62
     7
 10
-136.93222
 20
175.47627
 40
1
 50
1.628444E-012
 51
45.000001
  0
ARC
  8
0
  6
CONTINUOUS
 62
     7
 10
-137.43222
 20
178.8047
 40
1
 50
179.99999
 51
225
  0
ARC
  8
0
  6
CONTINUOUS
 62
     7
 10
-137.43224
 20
187.97627
 40
1
 50
135
 51
180.00001
  0
ARC
  8
0
  6
CONTINUOUS
 62
     7
 10
-138.18224
 20
190.0547
 40
1
 50
315
 51
1.628444E-012
  0
ARC
  8
0
  6
CONTINUOUS
 62
     7
 10
-94.018021
 20
232.89049
 40
1
 50
90.000003
 51
135
  0
ARC
  8
0
  6
CONTINUOUS
 62
     7
 10
-96.096451
 20
233.64049
 40
1
 50
270
 51
315
  0
ARC
  8
0
  6
CONTINUOUS
 62
     7
 10
-97.046341
 20
64.512955
 40
1
 50
315
 51
1.628444E-012
  0
ARC
  8
0
  6
CONTINUOUS
 62
     7
 10
-97.546341
 20
61.184525
 40
1
 50
135
 51
180.00001
  0
ARC
  8
0
  6
CONTINUOUS
 62
     7
 10
-138.54633
 20
61.184525
 40
1
 50
1.628444E-012
 51
45.000001
  0
ARC
  8
0
  6
CONTINUOUS
 62
     7
 10
-139.04633
 20
64.512955
 40
1
 50
179.99999
 51
225
  0
ARC
  8
0
  6
CONTINUOUS
 62
     7
 10
-139.04634
 20
73.684525
 40
1
 50
135
 51
180.00001
  0
ARC
  8
0
  6
CONTINUOUS
 62
     7
 10
-139.79634
 20
75.762955
 40
1
 50
315
 51
1.628444E-012
  0
ARC
  8
0
  6
CONTINUOUS
 62
     7
 10
-99.932236
 20
195.39049
 40
37.25
 50
90.000003
 51
180.00001
  0
ARC
  8
0
  6
CONTINUOUS
 62
     7
 10
-90.432236
 20
185.89049
 40
4
 50
90.000003
 51
180.00001
  0
ARC
  8
0
  6
CONTINUOUS
 62
     7
 10
-92.046341
 20
71.598709
 40
4
 50
90.000003
 51
180.00001
  0
ARC
  8
0
  6
CONTINUOUS
 62
     7
 10
-97.632126
 20
112.59872
 40
1
 50
90.000003
 51
135
  0
ARC
  8
0
  6
CONTINUOUS
 62
     7
 10
-99.710556
 20
113.34872
 40
1
 50
270
 51
315
  0
ARC
  8
0
  6
CONTINUOUS
 62
     7
 10
-103.54633
 20
77.09874
 40
35.250015
 50
90.000003
 51
180.00001
  0
ARC
  8
0
  6
CONTINUOUS
 62
     7
 10
-114.63268
 20
167.30511
 40
1.8
 50
306.00833
 51
53.991676
  0
ARC
  8
0
  6
CONTINUOUS
 62
     7
 10
-114.63268
 20
167.30511
 40
2.7
 50
306.00833
 51
53.991676
  0
ARC
  8
0
  6
CONTINUOUS
 62
     7
 10
-118.23269
 20
167.30511
 40
1.8
 50
126.00833
 51
233.99168
  0
ARC
  8
0
  6
CONTINUOUS
 62
     7
 10
-118.23269
 20
167.30511
 40
2.7
 50
126.00833
 51
233.99168
  0
ARC
  8
0
  6
CONTINUOUS
 62
     7
 10
-116.43267
 20
164.82838
 40
5.7617307
 50
53.991676
 51
85.520553
  0
ARC
  8
0
  6
CONTINUOUS
 62
     7
 10
-116.43267
 20
164.82838
 40
4.8617306
 50
53.991676
 51
84.689121
  0
ARC
  8
0
  6
CONTINUOUS
 62
     7
 10
-116.43267
 20
169.78185
 40
4.8617306
 50
233.99167
 51
306.00832
  0
ARC
  8
0
  6
CONTINUOUS
 62
     7
 10
-116.43267
 20
169.78185
 40
5.7617307
 50
233.99167
 51
265.52055
  0
ARC
  8
0
  6
CONTINUOUS
 62
     7
 10
-116.43267
 20
171.46762
 40
0.5625
 50
36.869897
 51
143.1301
  0
ARC
  8
0
  6
CONTINUOUS
 62
     7
 10
-116.43267
 20
167.64261
 40
0.5625
 50
216.8699
 51
323.13009
  0
ARC
  8
0
  6
CONTINUOUS
 62
     7
 10
-116.43267
 20
163.14261
 40
0.5625
 50
216.8699
 51
323.13009
  0
ARC
  8
0
  6
CONTINUOUS
 62
     7
 10
-116.43267
 20
164.82838
 40
5.7617307
 50
94.479452
 51
126.00833
  0
ARC
  8
0
  6
CONTINUOUS
 62
     7
 10
-116.43267
 20
164.82838
 40
4.8617306
 50
95.310878
 51
126.00833
  0
ARC
  8
0
  6
CONTINUOUS
 62
     7
 10
-116.43267
 20
169.78185
 40
5.7617307
 50
274.47945
 51
306.00833
  0
ARC
  8
0
  6
CONTINUOUS
 62
     7
 10
-116.24594
 20
53.055237
 40
1.8
 50
306.00833
 51
53.991676
  0
ARC
  8
0
  6
CONTINUOUS
 62
     7
 10
-116.24594
 20
53.055237
 40
2.7
 50
306.00833
 51
53.991676
  0
ARC
  8
0
  6
CONTINUOUS
 62
     7
 10
-119.84595
 20
53.055237
 40
1.8
 50
126.00833
 51
233.99168
  0
ARC
  8
0
  6
CONTINUOUS
 62
     7
 10
-119.84595
 20
53.055237
 40
2.7
 50
126.00833
 51
233.99168
  0
ARC
  8
0
  6
CONTINUOUS
 62
     7
 10
-118.04593
 20
50.578506
 40
5.7617307
 50
53.991676
 51
85.520553
  0
ARC
  8
0
  6
CONTINUOUS
 62
     7
 10
-118.04593
 20
50.578506
 40
4.8617306
 50
53.991676
 51
84.689121
  0
ARC
  8
0
  6
CONTINUOUS
 62
     7
 10
-118.04593
 20
55.531967
 40
4.8617306
 50
233.99167
 51
306.00832
  0
ARC
  8
0
  6
CONTINUOUS
 62
     7
 10
-118.04593
 20
55.531967
 40
5.7617307
 50
233.99167
 51
265.52055
  0
ARC
  8
0
  6
CONTINUOUS
 62
     7
 10
-118.04593
 20
57.217743
 40
0.5625
 50
36.869897
 51
143.1301
  0
ARC
  8
0
  6
CONTINUOUS
 62
     7
 10
-118.04593
 20
53.392731
 40
0.5625
 50
216.8699
 51
323.13009
  0
ARC
  8
0
  6
CONTINUOUS
 62
     7
 10
-118.04593
 20
48.892731
 40
0.5625
 50
216.8699
 51
323.13009
  0
ARC
  8
0
  6
CONTINUOUS
 62
     7
 10
-118.04593
 20
50.578506
 40
5.7617307
 50
94.479452
 51
126.00833
  0
ARC
  8
0
  6
CONTINUOUS
 62
     7
 10
-118.04593
 20
50.578506
 40
4.8617306
 50
95.310878
 51
126.00833
  0
ARC
  8
0
  6
CONTINUOUS
 62
     7
 10
-118.04593
 20
55.531967
 40
5.7617307
 50
274.47945
 51
306.00833
  0
TEXT
  8
0
  6
CONTINUOUS
 62
     7
 10
-114.98973
 20
243.28673
 40
5
 41
0.85534224
  1
３／４
  0
TEXT
  8
0
  6
CONTINUOUS
 62
     7
 10
-130.59299
 20
124.38085
 40
5
 41
0.84634979
  1
３／４×１／２
  0
TEXT
  8
0
  6
CONTINUOUS
 62
     7
 10
-176.27252
 20
284.29187
 40
5
 41
0.84247986
  1
ＲＣＦ－ＭＫ－ＡＬ（器具接続用エルボ）
  0
POINT
  8
1
  6
CONTINUOUS
 62
     7
 10
-210
 20
0
  0
POINT
  8
1
  6
CONTINUOUS
 62
     7
 10
0
 20
0
  0
POINT
  8
1
  6
CONTINUOUS
 62
     7
 10
0
 20
0
  0
POINT
  8
1
  6
CONTINUOUS
 62
     7
 10
-210
 20
297
  0
POINT
  8
1
  6
CONTINUOUS
 62
     7
 10
-210
 20
0
  0
POINT
  8
1
  6
CONTINUOUS
 62
     7
 10
0
 20
0
  0
POINT
  8
1
  6
CONTINUOUS
 62
     7
 10
0
 20
297
  0
LINE
  8
1
  6
CONTINUOUS
 62
     7
 10
-210
 20
0
 11
0
 21
0
  0
LINE
  8
1
  6
CONTINUOUS
 62
     7
 10
-210
 20
297
 11
0
 21
297
  0
LINE
  8
1
  6
CONTINUOUS
 62
     7
 10
0
 20
297
 11
0
 21
0
  0
LINE
  8
1
  6
CONTINUOUS
 62
     7
 10
-210
 20
297
 11
-210
 21
0
  0
ENDSEC
  0
EOF
