  0
SECTION
  2
HEADER
  9
$EXTMAX
 10
296.17499
 20
209.41667
  9
$EXTMIN
 10
-298.56836
 20
-209.41667
  0
ENDSEC
  0
SECTION
  2
TABLES
  0
TABLE
  2
LTYPE
 70
    22
  0
LTYPE
  2
CONTINUOUS
 70
    64
  3
Solid line
 72
    65
 73
     0
 40
0.000000
  0
LTYPE
  2
DASHED
 70
    64
  3
__ __ __ __ __ __ __ __ __ __ __ __ __ __ __
 72
    65
 73
     2
 40
3.500000
 49
2.000000
 49
-1.500000
  0
LTYPE
  2
CENTER
 70
    64
  3
____ _ ____ _ ____ _ ____ _ ____ _ ____ _ ____
 72
    65
 73
     4
 40
17.500000
 49
13.000000
 49
-1.500000
 49
1.500000
 49
-1.500000
  0
LTYPE
  2
PHANTOM
 70
    64
  3
_____ _ _ _____ _ _ _____ _ _ _____ _ _ ____  
 72
    65
 73
     6
 40
15.500000
 49
8.000000
 49
-1.500000
 49
1.500000
 49
-1.500000
 49
1.500000
 49
-1.500000
  0
LTYPE
  2
DOT
 70
    64
  3
. . . . . . . . . . . . . . . . . . . . . . . .
 72
    65
 73
     2
 40
0.25
 49
0.0
 49
-0.25
  0
ENDTAB
  0
TABLE
  2
LAYER
 70
     1
  0
LAYER
  2
0
 70
     0
 62
     7
  6
CONTINUOUS
  0
ENDTAB
  0
TABLE
  2
STYLE
 70
     1
  0
STYLE
  2
STANDARD
 70
     0
 40
0.000000
 41
1.000000
 50
0.000000
 71
     0
 42
0.200000
  3
txt
  4
BIGFONT
  0
ENDTAB
  0
TABLE
  2
VIEW
 70
     0
  0
ENDTAB
  0
ENDSEC
  0
SECTION
  2
BLOCKS
  0
BLOCK
  8
0
  2
KOZU1
 70
    64
 10
0
 20
0
  0
POINT
  8
0
  6
CONTINUOUS
 62
     7
 10
-0.94387817
 20
-40.626183
  0
POINT
  8
0
  6
CONTINUOUS
 62
     7
 10
0
 20
0
  0
POINT
  8
0
  6
CONTINUOUS
 62
     7
 10
1.4074097
 20
-20.496521
  0
POINT
  8
0
  6
CONTINUOUS
 62
     7
 10
-1.0426025
 20
-64.596519
  0
LINE
  8
0
  6
CONTINUOUS
 62
     7
 10
-0.19387817
 20
-33.126183
 11
-0.19387817
 21
-35.180511
  0
LINE
  8
0
  6
CONTINUOUS
 62
     7
 10
-1.6938782
 20
-33.126183
 11
-1.6938782
 21
-35.180511
  0
LINE
  8
0
  6
CONTINUOUS
 62
     7
 10
-1.6938782
 20
-46.071854
 11
-1.6938782
 21
-48.126183
  0
LINE
  8
0
  6
CONTINUOUS
 62
     7
 10
-0.19387817
 20
-46.071854
 11
-0.19387817
 21
-48.126183
  0
LINE
  8
0
  6
CONTINUOUS
 62
     7
 10
-1.6938782
 20
-36.685966
 11
-1.6938782
 21
-40.626183
  0
LINE
  8
0
  6
CONTINUOUS
 62
     7
 10
-0.19387817
 20
-36.685966
 11
-0.19387817
 21
-40.626183
  0
LINE
  8
0
  6
CONTINUOUS
 62
     7
 10
0.44998169
 20
4.5
 11
0.44998169
 21
3.267395
  0
LINE
  8
0
  6
CONTINUOUS
 62
     7
 10
-0.45001221
 20
4.5
 11
-0.45001221
 21
3.267395
  0
LINE
  8
0
  6
CONTINUOUS
 62
     7
 10
-0.45001221
 20
-3.267395
 11
-0.45001221
 21
-4.5
  0
LINE
  8
0
  6
CONTINUOUS
 62
     7
 10
0.44998169
 20
-3.267395
 11
0.44998169
 21
-4.5
  0
LINE
  8
0
  6
CONTINUOUS
 62
     7
 10
-0.45001221
 20
2.3641357
 11
-0.45001221
 21
0
  0
LINE
  8
0
  6
CONTINUOUS
 62
     7
 10
0.44998169
 20
2.3641357
 11
0.44998169
 21
0
  0
LINE
  8
0
  6
CONTINUOUS
 62
     7
 10
2.0074158
 20
-14.496521
 11
2.0074158
 21
-16.139984
  0
LINE
  8
0
  6
CONTINUOUS
 62
     7
 10
0.80740356
 20
-14.496521
 11
0.80740356
 21
-16.139984
  0
LINE
  8
0
  6
CONTINUOUS
 62
     7
 10
0.80740356
 20
-24.853058
 11
0.80740356
 21
-26.496521
  0
LINE
  8
0
  6
CONTINUOUS
 62
     7
 10
2.0074158
 20
-24.853058
 11
2.0074158
 21
-26.496521
  0
LINE
  8
0
  6
CONTINUOUS
 62
     7
 10
0.80740356
 20
-17.344345
 11
0.80740356
 21
-20.496521
  0
LINE
  8
0
  6
CONTINUOUS
 62
     7
 10
2.0074158
 20
-17.344345
 11
2.0074158
 21
-20.496521
  0
LINE
  8
0
  6
CONTINUOUS
 62
     7
 10
-0.14257813
 20
-55.596519
 11
-0.14257813
 21
-58.061729
  0
LINE
  8
0
  6
CONTINUOUS
 62
     7
 10
-1.9425659
 20
-55.596519
 11
-1.9425659
 21
-58.061729
  0
LINE
  8
0
  6
CONTINUOUS
 62
     7
 10
-1.9425659
 20
-71.13131
 11
-1.9425659
 21
-73.596519
  0
LINE
  8
0
  6
CONTINUOUS
 62
     7
 10
-0.14257813
 20
-71.13131
 11
-0.14257813
 21
-73.596519
  0
LINE
  8
0
  6
CONTINUOUS
 62
     7
 10
-1.9425659
 20
-59.868248
 11
-1.9425659
 21
-64.596519
  0
LINE
  8
0
  6
CONTINUOUS
 62
     7
 10
-0.14257813
 20
-59.868248
 11
-0.14257813
 21
-64.596519
  0
ARC
  8
0
  6
CONTINUOUS
 62
     7
 10
2.0561218
 20
-40.626183
 40
3
 50
306.00833
 51
53.991676
  0
ARC
  8
0
  6
CONTINUOUS
 62
     7
 10
2.0561218
 20
-40.626183
 40
4.5
 50
306.00833
 51
53.991676
  0
ARC
  8
0
  6
CONTINUOUS
 62
     7
 10
-3.9438782
 20
-40.626183
 40
3
 50
126.00833
 51
233.99168
  0
ARC
  8
0
  6
CONTINUOUS
 62
     7
 10
-3.9438782
 20
-40.626183
 40
4.5
 50
126.00833
 51
233.99168
  0
ARC
  8
0
  6
CONTINUOUS
 62
     7
 10
-0.94387817
 20
-44.754066
 40
9.6028843
 50
53.991676
 51
85.520553
  0
ARC
  8
0
  6
CONTINUOUS
 62
     7
 10
-0.94387817
 20
-44.754066
 40
8.1028843
 50
53.991676
 51
84.689121
  0
ARC
  8
0
  6
CONTINUOUS
 62
     7
 10
-0.94387817
 20
-36.498299
 40
8.1028843
 50
233.99167
 51
306.00832
  0
ARC
  8
0
  6
CONTINUOUS
 62
     7
 10
-0.94387817
 20
-36.498299
 40
9.6028843
 50
233.99167
 51
265.52055
  0
ARC
  8
0
  6
CONTINUOUS
 62
     7
 10
-0.94387817
 20
-33.688683
 40
0.9375
 50
36.869897
 51
143.1301
  0
ARC
  8
0
  6
CONTINUOUS
 62
     7
 10
-0.94387817
 20
-40.063683
 40
0.9375
 50
216.8699
 51
323.13009
  0
ARC
  8
0
  6
CONTINUOUS
 62
     7
 10
-0.94387817
 20
-47.563683
 40
0.9375
 50
216.8699
 51
323.13009
  0
ARC
  8
0
  6
CONTINUOUS
 62
     7
 10
-0.94387817
 20
-44.754066
 40
9.6028843
 50
94.479452
 51
126.00833
  0
ARC
  8
0
  6
CONTINUOUS
 62
     7
 10
-0.94387817
 20
-44.754066
 40
8.1028843
 50
95.310878
 51
126.00833
  0
ARC
  8
0
  6
CONTINUOUS
 62
     7
 10
-0.94387817
 20
-36.498299
 40
9.6028843
 50
274.47945
 51
306.00833
  0
ARC
  8
0
  6
CONTINUOUS
 62
     7
 10
1.7999878
 20
0
 40
1.8
 50
306.00833
 51
53.991676
  0
ARC
  8
0
  6
CONTINUOUS
 62
     7
 10
1.7999878
 20
0
 40
2.7
 50
306.00833
 51
53.991676
  0
ARC
  8
0
  6
CONTINUOUS
 62
     7
 10
-1.8000183
 20
0
 40
1.8
 50
126.00833
 51
233.99168
  0
ARC
  8
0
  6
CONTINUOUS
 62
     7
 10
-1.8000183
 20
0
 40
2.7
 50
126.00833
 51
233.99168
  0
ARC
  8
0
  6
CONTINUOUS
 62
     7
 10
0
 20
-2.4767303
 40
5.7617307
 50
53.991676
 51
85.520553
  0
ARC
  8
0
  6
CONTINUOUS
 62
     7
 10
0
 20
-2.4767303
 40
4.8617306
 50
53.991676
 51
84.689121
  0
ARC
  8
0
  6
CONTINUOUS
 62
     7
 10
0
 20
2.4767303
 40
4.8617306
 50
233.99167
 51
306.00832
  0
ARC
  8
0
  6
CONTINUOUS
 62
     7
 10
0
 20
2.4767303
 40
5.7617307
 50
233.99167
 51
265.52055
  0
ARC
  8
0
  6
CONTINUOUS
 62
     7
 10
0
 20
4.1625061
 40
0.5625
 50
36.869897
 51
143.1301
  0
ARC
  8
0
  6
CONTINUOUS
 62
     7
 10
0
 20
0.3374939
 40
0.5625
 50
216.8699
 51
323.13009
  0
ARC
  8
0
  6
CONTINUOUS
 62
     7
 10
0
 20
-4.1625061
 40
0.5625
 50
216.8699
 51
323.13009
  0
ARC
  8
0
  6
CONTINUOUS
 62
     7
 10
0
 20
-2.4767303
 40
5.7617307
 50
94.479452
 51
126.00833
  0
ARC
  8
0
  6
CONTINUOUS
 62
     7
 10
0
 20
-2.4767303
 40
4.8617306
 50
95.310878
 51
126.00833
  0
ARC
  8
0
  6
CONTINUOUS
 62
     7
 10
0
 20
2.4767303
 40
5.7617307
 50
274.47945
 51
306.00833
  0
ARC
  8
0
  6
CONTINUOUS
 62
     7
 10
3.8074036
 20
-20.496521
 40
2.4000001
 50
306.00833
 51
53.991676
  0
ARC
  8
0
  6
CONTINUOUS
 62
     7
 10
3.8074036
 20
-20.496521
 40
3.5999999
 50
306.00833
 51
53.991676
  0
ARC
  8
0
  6
CONTINUOUS
 62
     7
 10
-0.99258423
 20
-20.496521
 40
2.4000001
 50
126.00833
 51
233.99168
  0
ARC
  8
0
  6
CONTINUOUS
 62
     7
 10
-0.99258423
 20
-20.496521
 40
3.5999999
 50
126.00833
 51
233.99168
  0
ARC
  8
0
  6
CONTINUOUS
 62
     7
 10
1.4074097
 20
-23.798828
 40
7.6823077
 50
53.991676
 51
85.520553
  0
ARC
  8
0
  6
CONTINUOUS
 62
     7
 10
1.4074097
 20
-23.798828
 40
6.4823079
 50
53.991676
 51
84.689121
  0
ARC
  8
0
  6
CONTINUOUS
 62
     7
 10
1.4074097
 20
-17.194214
 40
6.4823079
 50
233.99167
 51
306.00832
  0
ARC
  8
0
  6
CONTINUOUS
 62
     7
 10
1.4074097
 20
-17.194214
 40
7.6823077
 50
233.99167
 51
265.52055
  0
ARC
  8
0
  6
CONTINUOUS
 62
     7
 10
1.4074097
 20
-14.946518
 40
0.75
 50
36.869897
 51
143.1301
  0
ARC
  8
0
  6
CONTINUOUS
 62
     7
 10
1.4074097
 20
-20.046524
 40
0.75
 50
216.8699
 51
323.13009
  0
ARC
  8
0
  6
CONTINUOUS
 62
     7
 10
1.4074097
 20
-26.046524
 40
0.75
 50
216.8699
 51
323.13009
  0
ARC
  8
0
  6
CONTINUOUS
 62
     7
 10
1.4074097
 20
-23.798828
 40
6.4823079
 50
95.310878
 51
126.00833
  0
ARC
  8
0
  6
CONTINUOUS
 62
     7
 10
1.4074097
 20
-23.798828
 40
7.6823077
 50
94.479452
 51
126.00833
  0
ARC
  8
0
  6
CONTINUOUS
 62
     7
 10
1.4074097
 20
-17.194214
 40
7.6823077
 50
274.47945
 51
306.00833
  0
ARC
  8
0
  6
CONTINUOUS
 62
     7
 10
2.5574341
 20
-64.596519
 40
3.5999999
 50
306.00833
 51
53.991676
  0
ARC
  8
0
  6
CONTINUOUS
 62
     7
 10
2.5574341
 20
-64.596519
 40
5.4000001
 50
306.00833
 51
53.991676
  0
ARC
  8
0
  6
CONTINUOUS
 62
     7
 10
-4.6425781
 20
-64.596519
 40
3.5999999
 50
126.00833
 51
233.99168
  0
ARC
  8
0
  6
CONTINUOUS
 62
     7
 10
-4.6425781
 20
-64.596519
 40
5.4000001
 50
126.00833
 51
233.99168
  0
ARC
  8
0
  6
CONTINUOUS
 62
     7
 10
-1.0426025
 20
-69.550011
 40
11.523461
 50
53.991676
 51
85.520553
  0
ARC
  8
0
  6
CONTINUOUS
 62
     7
 10
-1.0426025
 20
-69.550011
 40
9.7234612
 50
53.991676
 51
84.689121
  0
ARC
  8
0
  6
CONTINUOUS
 62
     7
 10
-1.0426025
 20
-59.643089
 40
9.7234612
 50
233.99167
 51
306.00832
  0
ARC
  8
0
  6
CONTINUOUS
 62
     7
 10
-1.0426025
 20
-59.643089
 40
11.523461
 50
233.99167
 51
265.52055
  0
ARC
  8
0
  6
CONTINUOUS
 62
     7
 10
-1.0426025
 20
-56.271507
 40
1.125
 50
36.869897
 51
143.1301
  0
ARC
  8
0
  6
CONTINUOUS
 62
     7
 10
-1.0426025
 20
-63.921532
 40
1.125
 50
216.8699
 51
323.13009
  0
ARC
  8
0
  6
CONTINUOUS
 62
     7
 10
-1.0426025
 20
-72.921532
 40
1.125
 50
216.8699
 51
323.13009
  0
ARC
  8
0
  6
CONTINUOUS
 62
     7
 10
-1.0426025
 20
-69.550011
 40
11.523461
 50
94.479452
 51
126.00833
  0
ARC
  8
0
  6
CONTINUOUS
 62
     7
 10
-1.0426025
 20
-69.550011
 40
9.7234612
 50
95.310878
 51
126.00833
  0
ARC
  8
0
  6
CONTINUOUS
 62
     7
 10
-1.0426025
 20
-59.643089
 40
11.523461
 50
274.47945
 51
306.00833
  0
TEXT
  8
0
  6
CONTINUOUS
 62
     7
 10
16.364528
 20
-2.4965225
 40
3.2
 41
1.0071429
  1
1/2,3/4
  0
TEXT
  8
0
  6
CONTINUOUS
 62
     7
 10
17.414546
 20
-21.046518
 40
3.2
 41
1.0084034
  1
1-11/2
  0
TEXT
  8
0
  6
CONTINUOUS
 62
     7
 10
16.364528
 20
-42.046518
 40
3.2
 41
1.0084034
  1
2,21/2
  0
TEXT
  8
0
  6
CONTINUOUS
 62
     7
 10
17.414546
 20
-65.846521
 40
3.2
 41
1.0178573
  1
3,4
  0
ENDBLK
  8
0
  0
BLOCK
  8
0
  2
KOZU2
 70
    64
 10
0
 20
0
  0
POINT
  8
0
  6
CONTINUOUS
 62
     7
 10
-338.26758
 20
57.903481
  0
LINE
  8
0
  6
CONTINUOUS
 62
     7
 10
-337.66757
 20
63.903481
 11
-337.66757
 21
62.260017
  0
LINE
  8
0
  6
CONTINUOUS
 62
     7
 10
-338.86758
 20
63.903481
 11
-338.86758
 21
62.260017
  0
LINE
  8
0
  6
CONTINUOUS
 62
     7
 10
-338.86758
 20
53.546944
 11
-338.86758
 21
51.903481
  0
LINE
  8
0
  6
CONTINUOUS
 62
     7
 10
-337.66757
 20
53.546944
 11
-337.66757
 21
51.903481
  0
LINE
  8
0
  6
CONTINUOUS
 62
     7
 10
-338.86758
 20
61.055656
 11
-338.86758
 21
57.903481
  0
LINE
  8
0
  6
CONTINUOUS
 62
     7
 10
-337.66757
 20
61.055656
 11
-337.66757
 21
57.903481
  0
ARC
  8
0
  6
CONTINUOUS
 62
     7
 10
-335.86758
 20
57.903481
 40
2.4000001
 50
306.00833
 51
53.991676
  0
ARC
  8
0
  6
CONTINUOUS
 62
     7
 10
-335.86758
 20
57.903481
 40
3.5999999
 50
306.00833
 51
53.991676
  0
ARC
  8
0
  6
CONTINUOUS
 62
     7
 10
-340.66757
 20
57.903481
 40
2.4000001
 50
126.00833
 51
233.99168
  0
ARC
  8
0
  6
CONTINUOUS
 62
     7
 10
-340.66757
 20
57.903481
 40
3.5999999
 50
126.00833
 51
233.99168
  0
ARC
  8
0
  6
CONTINUOUS
 62
     7
 10
-338.26758
 20
54.601173
 40
7.6823077
 50
53.991676
 51
85.520553
  0
ARC
  8
0
  6
CONTINUOUS
 62
     7
 10
-338.26758
 20
54.601173
 40
6.4823079
 50
53.991676
 51
84.689121
  0
ARC
  8
0
  6
CONTINUOUS
 62
     7
 10
-338.26758
 20
61.205788
 40
6.4823079
 50
233.99167
 51
306.00832
  0
ARC
  8
0
  6
CONTINUOUS
 62
     7
 10
-338.26758
 20
61.205788
 40
7.6823077
 50
233.99167
 51
265.52055
  0
ARC
  8
0
  6
CONTINUOUS
 62
     7
 10
-338.26758
 20
63.453484
 40
0.75
 50
36.869897
 51
143.1301
  0
ARC
  8
0
  6
CONTINUOUS
 62
     7
 10
-338.26758
 20
58.353477
 40
0.75
 50
216.8699
 51
323.13009
  0
ARC
  8
0
  6
CONTINUOUS
 62
     7
 10
-338.26758
 20
52.353477
 40
0.75
 50
216.8699
 51
323.13009
  0
ARC
  8
0
  6
CONTINUOUS
 62
     7
 10
-338.26758
 20
54.601173
 40
6.4823079
 50
95.310878
 51
126.00833
  0
ARC
  8
0
  6
CONTINUOUS
 62
     7
 10
-338.26758
 20
54.601173
 40
7.6823077
 50
94.479452
 51
126.00833
  0
ARC
  8
0
  6
CONTINUOUS
 62
     7
 10
-338.26758
 20
61.205788
 40
7.6823077
 50
274.47945
 51
306.00833
  0
ENDBLK
  8
0
  0
ENDSEC
  0
SECTION
  2
ENTITIES
  0
POINT
  8
0
  6
CONTINUOUS
 62
     7
 10
-215.56076
 20
106.20798
  0
POINT
  8
0
  6
CONTINUOUS
 62
     7
 10
-116.05914
 20
106.20799
  0
POINT
  8
0
  6
CONTINUOUS
 62
     7
 10
-0.29163256
 20
106.20798
  0
POINT
  8
0
  6
CONTINUOUS
 62
     7
 10
136.58641
 20
106.20798
  0
POINT
  8
0
  6
CONTINUOUS
 62
     7
 10
-55.486908
 20
-71.235931
  0
POINT
  8
0
  6
CONTINUOUS
 62
     7
 10
-216.20592
 20
-71.235931
  0
POINT
  8
0
  6
CONTINUOUS
 62
     7
 10
462.24091
 20
26.937918
  0
POINT
  8
0
  6
CONTINUOUS
 62
     7
 10
663.49988
 20
26.937918
  0
POINT
  8
0
  6
CONTINUOUS
 62
     7
 10
-101.47755
 20
-381.12888
  0
POINT
  8
0
  6
CONTINUOUS
 62
     7
 10
461.9061
 20
-40.907986
  0
POINT
  8
0
  6
CONTINUOUS
 62
     7
 10
-116.22755
 20
69.847725
  0
POINT
  8
0
  6
CONTINUOUS
 62
     7
 10
-216.22801
 20
-123.86086
  0
POINT
  8
0
  6
CONTINUOUS
 62
     7
 10
663.34399
 20
-46.037975
  0
POINT
  8
0
  6
CONTINUOUS
 62
     7
 10
-215.61108
 20
72.285225
  0
POINT
  8
0
  6
CONTINUOUS
 62
     7
 10
-0.33551136
 20
62.092045
  0
POINT
  8
0
  6
CONTINUOUS
 62
     7
 10
136.49687
 20
56.330681
  0
POINT
  8
0
  6
CONTINUOUS
 62
     7
 10
-55.589508
 20
-127.89014
  0
POINT
  8
0
  6
CONTINUOUS
 62
     7
 10
-101.51244
 20
-466.23248
  0
LINE
  8
0
  6
CONTINUOUS
 62
     7
 10
881
 20
200
 11
881
 21
-200
  0
LINE
  8
0
  6
CONTINUOUS
 62
     7
 10
307
 20
200
 11
881
 21
200
  0
LINE
  8
0
  6
CONTINUOUS
 62
     7
 10
307
 20
200
 11
307
 21
-200
  0
LINE
  8
0
  6
CONTINUOUS
 62
     7
 10
307
 20
-200
 11
881
 21
-200
  0
LINE
  8
0
  6
CONTINUOUS
 62
     7
 10
-198.23663
 20
146.86662
 11
-174.90211
 21
123.5321
  0
LINE
  8
0
  6
CONTINUOUS
 62
     7
 10
-209.96457
 20
135.1387
 11
-198.23663
 21
146.86662
  0
LINE
  8
0
  6
CONTINUOUS
 62
     7
 10
-209.77695
 20
134.3653
 11
-187.54005
 21
112.1284
  0
LINE
  8
0
  6
CONTINUOUS
 62
     7
 10
-211.25746
 20
134.84581
 11
-210.67168
 21
134.84581
  0
LINE
  8
0
  6
CONTINUOUS
 62
     7
 10
-222.16513
 20
124.35234
 11
-211.96457
 21
134.55292
  0
LINE
  8
0
  6
CONTINUOUS
 62
     7
 10
-211.13332
 20
134.30745
 11
-187.5979
 21
110.77204
  0
LINE
  8
0
  6
CONTINUOUS
 62
     7
 10
-195.65903
 20
101.36097
 11
-187.21582
 21
109.80418
  0
LINE
  8
0
  6
CONTINUOUS
 62
     7
 10
-186.92294
 20
110.51128
 11
-186.92294
 21
111.09708
  0
LINE
  8
0
  6
CONTINUOUS
 62
     7
 10
-186.63004
 20
111.80418
 11
-174.90211
 21
123.5321
  0
LINE
  8
0
  6
CONTINUOUS
 62
     7
 10
-98.027916
 20
151.81638
 11
-70.450752
 21
124.23921
  0
LINE
  8
0
  6
CONTINUOUS
 62
     7
 10
-109.75584
 20
140.08846
 11
-98.027916
 21
151.81638
  0
LINE
  8
0
  6
CONTINUOUS
 62
     7
 10
-123.37895
 20
127.87956
 11
-111.75584
 21
139.50267
  0
LINE
  8
0
  6
CONTINUOUS
 62
     7
 10
-109.33005
 20
139.07687
 11
-83.014641
 21
112.76147
  0
LINE
  8
0
  6
CONTINUOUS
 62
     7
 10
-111.04873
 20
139.79556
 11
-110.46294
 21
139.79556
  0
LINE
  8
0
  6
CONTINUOUS
 62
     7
 10
-110.76692
 20
139.09953
 11
-83.075775
 21
111.40839
  0
LINE
  8
0
  6
CONTINUOUS
 62
     7
 10
-92.630203
 20
100.64555
 11
-82.764465
 21
110.51129
  0
LINE
  8
0
  6
CONTINUOUS
 62
     7
 10
-82.471565
 20
111.21839
 11
-82.471565
 21
111.80418
  0
LINE
  8
0
  6
CONTINUOUS
 62
     7
 10
-82.17868
 20
112.51128
 11
-70.450752
 21
124.23921
  0
LINE
  8
0
  6
CONTINUOUS
 62
     7
 10
22.335773
 20
161.36232
 11
54.86269
 21
128.8354
  0
LINE
  8
0
  6
CONTINUOUS
 62
     7
 10
7.0723248
 20
146.09886
 11
22.335773
 21
161.36232
  0
LINE
  8
0
  6
CONTINUOUS
 62
     7
 10
-8.975399
 20
132.17247
 11
4.3652158
 21
145.51308
  0
LINE
  8
0
  6
CONTINUOUS
 62
     7
 10
7.9614248
 20
144.62398
 11
38.211182
 21
114.37422
  0
LINE
  8
0
  6
CONTINUOUS
 62
     7
 10
5.0723271
 20
145.80597
 11
6.3652196
 21
145.80597
  0
LINE
  8
0
  6
CONTINUOUS
 62
     7
 10
5.9499264
 20
144.51416
 11
38.16647
 21
112.29762
  0
LINE
  8
0
  6
CONTINUOUS
 62
     7
 10
27.430195
 20
99.281578
 11
39.013454
 21
110.86484
  0
LINE
  8
0
  6
CONTINUOUS
 62
     7
 10
39.599243
 20
113.57195
 11
54.86269
 21
128.8354
  0
LINE
  8
0
  6
CONTINUOUS
 62
     7
 10
39.306347
 20
111.57195
 11
39.306347
 21
112.86484
  0
LINE
  8
0
  6
CONTINUOUS
 62
     7
 10
159.21382
 20
168.4334
 11
198.81181
 21
128.8354
  0
LINE
  8
0
  6
CONTINUOUS
 62
     7
 10
144.65747
 20
153.87703
 11
159.21382
 21
168.4334
  0
LINE
  8
0
  6
CONTINUOUS
 62
     7
 10
125.91735
 20
137.96535
 11
141.24326
 21
153.29124
  0
LINE
  8
0
  6
CONTINUOUS
 62
     7
 10
145.97128
 20
151.97745
 11
183.25034
 21
114.69839
  0
LINE
  8
0
  6
CONTINUOUS
 62
     7
 10
141.95036
 20
153.58414
 11
143.95036
 21
153.58414
  0
LINE
  8
0
  6
CONTINUOUS
 62
     7
 10
143.03575
 20
152.08455
 11
182.74779
 21
112.37251
  0
LINE
  8
0
  6
CONTINUOUS
 62
     7
 10
170.54047
 20
97.735641
 11
183.66966
 21
110.86484
  0
LINE
  8
0
  6
CONTINUOUS
 62
     7
 10
183.96255
 20
111.57195
 11
183.96255
 21
113.57195
  0
LINE
  8
0
  6
CONTINUOUS
 62
     7
 10
184.25545
 20
114.27905
 11
198.81181
 21
128.8354
  0
LINE
  8
0
  6
CONTINUOUS
 62
     7
 10
-193.57849
 20
-4.767889
 11
-149.73788
 21
-48.608509
  0
LINE
  8
0
  6
CONTINUOUS
 62
     7
 10
-208.13484
 20
-19.324238
 11
-193.57849
 21
-4.767889
  0
LINE
  8
0
  6
CONTINUOUS
 62
     7
 10
-227.28181
 20
-35.996338
 11
-211.19551
 21
-19.910025
  0
LINE
  8
0
  6
CONTINUOUS
 62
     7
 10
-206.99782
 20
-21.047054
 11
-166.01144
 21
-62.033432
  0
LINE
  8
0
  6
CONTINUOUS
 62
     7
 10
-210.4884
 20
-19.617128
 11
-208.84196
 21
-19.617128
  0
LINE
  8
0
  6
CONTINUOUS
 62
     7
 10
-178.91608
 20
-80.261581
 11
-164.88002
 21
-66.225517
  0
LINE
  8
0
  6
CONTINUOUS
 62
     7
 10
-164.58713
 20
-65.518417
 11
-164.58713
 21
-63.871964
  0
LINE
  8
0
  6
CONTINUOUS
 62
     7
 10
-164.29422
 20
-63.164856
 11
-149.73788
 21
-48.608509
  0
LINE
  8
0
  6
CONTINUOUS
 62
     7
 10
-209.43169
 20
-21.088055
 11
-166.10782
 21
-64.411926
  0
LINE
  8
0
  6
CONTINUOUS
 62
     7
 10
-33.566601
 20
3.010283
 11
18.759304
 21
-49.31562
  0
LINE
  8
0
  6
CONTINUOUS
 62
     7
 10
-48.122948
 20
-11.546065
 11
-33.566601
 21
3.010283
  0
LINE
  8
0
  6
CONTINUOUS
 62
     7
 10
-69.358749
 20
-29.246336
 11
-52.24427
 21
-12.131854
  0
LINE
  8
0
  6
CONTINUOUS
 62
     7
 10
-46.849392
 20
-13.405409
 11
2.5857368
 21
-62.840538
  0
LINE
  8
0
  6
CONTINUOUS
 62
     7
 10
-51.537163
 20
-11.838959
 11
-48.830055
 21
-11.838959
  0
LINE
  8
0
  6
CONTINUOUS
 62
     7
 10
-49.982052
 20
-13.808284
 11
2.5023332
 21
-66.292671
  0
LINE
  8
0
  6
CONTINUOUS
 62
     7
 10
-11.300618
 20
-82.911079
 11
3.6171679
 21
-67.993294
  0
LINE
  8
0
  6
CONTINUOUS
 62
     7
 10
3.9100578
 20
-67.286179
 11
3.9100578
 21
-64.579071
  0
LINE
  8
0
  6
CONTINUOUS
 62
     7
 10
4.2029567
 20
-63.871971
 11
18.759304
 21
-49.31562
  0
LINE
  8
0
  6
CONTINUOUS
 62
     7
 10
485.39865
 20
115.50305
 11
550.80603
 21
50.095673
  0
LINE
  8
0
  6
CONTINUOUS
 62
     7
 10
470.45468
 20
100.55907
 11
485.39865
 21
115.50305
  0
LINE
  8
0
  6
CONTINUOUS
 62
     7
 10
470.86841
 20
98.920586
 11
534.21368
 21
35.575294
  0
LINE
  8
0
  6
CONTINUOUS
 62
     7
 10
-80.617897
 20
-267.63824
 11
12.01309
 21
-360.26923
  0
LINE
  8
0
  6
CONTINUOUS
 62
     7
 10
-94.854767
 20
-281.87509
 11
-80.617897
 21
-267.63824
  0
LINE
  8
0
  6
CONTINUOUS
 62
     7
 10
-119.95528
 20
-297.78323
 11
-103.32932
 21
-281.15729
  0
LINE
  8
0
  6
CONTINUOUS
 62
     7
 10
-94.159225
 20
-283.79538
 11
-3.9506526
 21
-374.00397
  0
LINE
  8
0
  6
CONTINUOUS
 62
     7
 10
-101.88042
 20
-280.76901
 11
-96.303658
 21
-282.26331
  0
LINE
  8
0
  6
CONTINUOUS
 62
     7
 10
-100.24717
 20
-283.01468
 11
-2.9409842
 21
-380.32086
  0
LINE
  8
0
  6
CONTINUOUS
 62
     7
 10
-18.131912
 20
-399.6066
 11
-1.5059466
 21
-382.98065
  0
LINE
  8
0
  6
CONTINUOUS
 62
     7
 10
-1.1177219
 20
-381.53177
 11
-2.6120133
 21
-375.95499
  0
LINE
  8
0
  6
CONTINUOUS
 62
     7
 10
-2.2237782
 20
-374.5061
 11
12.01309
 21
-360.26923
  0
LINE
  8
0
  6
CONTINUOUS
 62
     7
 10
448.86966
 20
86.398682
 11
463.37433
 21
100.90335
  0
LINE
  8
0
  6
CONTINUOUS
 62
     7
 10
535.68903
 20
34.978676
 11
550.80603
 21
50.095673
  0
LINE
  8
0
  6
CONTINUOUS
 62
     7
 10
670.82977
 20
108.51402
 11
685.77374
 21
123.458
  0
LINE
  8
0
  6
CONTINUOUS
 62
     7
 10
648.25879
 20
93.721237
 11
663.47058
 21
108.93301
  0
LINE
  8
0
  6
CONTINUOUS
 62
     7
 10
685.77374
 20
123.458
 11
760.01996
 21
49.211788
  0
LINE
  8
0
  6
CONTINUOUS
 62
     7
 10
671.83258
 20
106.28645
 11
743.05237
 21
35.066654
  0
LINE
  8
0
  6
CONTINUOUS
 62
     7
 10
664.91943
 20
109.32122
 11
669.38086
 21
108.12579
  0
LINE
  8
0
  6
CONTINUOUS
 62
     7
 10
665.90601
 20
107.72226
 11
744.60309
 21
29.025171
  0
LINE
  8
0
  6
CONTINUOUS
 62
     7
 10
464.82321
 20
101.29157
 11
469.0058
 21
100.17085
  0
LINE
  8
0
  6
CONTINUOUS
 62
     7
 10
465.27872
 20
100.22371
 11
535.75024
 21
29.752216
  0
LINE
  8
0
  6
CONTINUOUS
 62
     7
 10
521.70166
 20
13.566684
 11
536.20636
 21
28.07135
  0
LINE
  8
0
  6
CONTINUOUS
 62
     7
 10
536.59454
 20
29.520227
 11
535.47382
 21
33.70282
  0
LINE
  8
0
  6
CONTINUOUS
 62
     7
 10
745.07599
 20
34.267815
 11
760.01996
 21
49.211788
  0
LINE
  8
0
  6
CONTINUOUS
 62
     7
 10
730.2832
 20
11.696847
 11
745.495
 21
26.908619
  0
LINE
  8
0
  6
CONTINUOUS
 62
     7
 10
745.88318
 20
28.357477
 11
744.68774
 21
32.818901
  0
LINE
  8
0
  6
CONTINUOUS
 62
     7
 10
-287
 20
-220
 11
-287
 21
-620
  0
LINE
  8
0
  6
CONTINUOUS
 62
     7
 10
-287
 20
-220
 11
287
 21
-220
  0
LINE
  8
0
  6
CONTINUOUS
 62
     7
 10
287
 20
-220
 11
287
 21
-620
  0
LINE
  8
0
  6
CONTINUOUS
 62
     7
 10
-287
 20
-620
 11
287
 21
-620
  0
LINE
  8
0
  6
CENTER
 62
     7
 10
-215.56076
 20
112.7
 11
-215.56076
 21
56.918835
  0
LINE
  8
0
  6
CONTINUOUS
 62
     7
 10
-232.06076
 20
65.207985
 11
-199.06076
 21
65.207985
  0
LINE
  8
0
  6
CONTINUOUS
 62
     7
 10
-232.06076
 20
81.793777
 11
-232.06076
 21
65.207985
  0
LINE
  8
0
  6
CONTINUOUS
 62
     7
 10
-231.38123
 20
82.207977
 11
-199.93349
 21
82.207977
  0
LINE
  8
0
  6
CONTINUOUS
 62
     7
 10
-232.76788
 20
82.915092
 11
-232.35367
 21
82.500885
  0
LINE
  8
0
  6
CONTINUOUS
 62
     7
 10
-233.06076
 20
98.047974
 11
-233.06076
 21
83.622192
  0
LINE
  8
0
  6
CONTINUOUS
 62
     7
 10
-232.29941
 20
83.207977
 11
-199.0153
 21
83.207977
  0
LINE
  8
0
  6
CONTINUOUS
 62
     7
 10
-198.06076
 20
95.562691
 11
-198.06076
 21
83.622192
  0
LINE
  8
0
  6
CONTINUOUS
 62
     7
 10
-198.35367
 20
82.9151
 11
-198.76788
 21
82.500885
  0
LINE
  8
0
  6
CONTINUOUS
 62
     7
 10
-199.06076
 20
81.793777
 11
-199.06076
 21
65.207985
  0
LINE
  8
0
  6
CENTER
 62
     7
 10
-116.05914
 20
114.45
 11
-116.05914
 21
50.891872
  0
LINE
  8
0
  6
CONTINUOUS
 62
     7
 10
-135.55914
 20
61.207985
 11
-96.559135
 21
61.207985
  0
LINE
  8
0
  6
CONTINUOUS
 62
     7
 10
-135.55914
 20
77.793777
 11
-135.55914
 21
61.207985
  0
LINE
  8
0
  6
CONTINUOUS
 62
     7
 10
-136.55914
 20
96.059753
 11
-136.55914
 21
79.622192
  0
LINE
  8
0
  6
CONTINUOUS
 62
     7
 10
-134.54277
 20
78.207977
 11
-97.327156
 21
78.207977
  0
LINE
  8
0
  6
CONTINUOUS
 62
     7
 10
-136.26624
 20
78.915085
 11
-135.85202
 21
78.50087
  0
LINE
  8
0
  6
CONTINUOUS
 62
     7
 10
-135.57481
 20
79.207977
 11
-96.41362
 21
79.207977
  0
LINE
  8
0
  6
CONTINUOUS
 62
     7
 10
-95.559135
 20
93.574478
 11
-95.559135
 21
79.622192
  0
LINE
  8
0
  6
CONTINUOUS
 62
     7
 10
-95.852028
 20
78.915092
 11
-96.266243
 21
78.500877
  0
LINE
  8
0
  6
CONTINUOUS
 62
     7
 10
-96.559135
 20
77.793777
 11
-96.559135
 21
61.207985
  0
LINE
  8
0
  6
CENTER
 62
     7
 10
-0.29163256
 20
115.85
 11
-0.29163256
 21
40.17728
  0
LINE
  8
0
  6
CONTINUOUS
 62
     7
 10
-23.291632
 20
51.207985
 11
22.708368
 21
51.207985
  0
LINE
  8
0
  6
CONTINUOUS
 62
     7
 10
-23.291632
 20
72.79377
 11
-23.291632
 21
51.207985
  0
LINE
  8
0
  6
CONTINUOUS
 62
     7
 10
-24.791632
 20
93.988701
 11
-24.791632
 21
75.122192
  0
LINE
  8
0
  6
CONTINUOUS
 62
     7
 10
-21.620047
 20
73.207977
 11
21.159571
 21
73.207977
  0
LINE
  8
0
  6
CONTINUOUS
 62
     7
 10
-24.498743
 20
74.415092
 11
-23.58453
 21
73.500877
  0
LINE
  8
0
  6
CONTINUOUS
 62
     7
 10
-22.964727
 20
74.707977
 11
22.596338
 21
74.707977
  0
LINE
  8
0
  6
CONTINUOUS
 62
     7
 10
24.208368
 20
91.503403
 11
24.208368
 21
75.122192
  0
LINE
  8
0
  6
CONTINUOUS
 62
     7
 10
22.708368
 20
72.79377
 11
22.708368
 21
51.207985
  0
LINE
  8
0
  6
CONTINUOUS
 62
     7
 10
23.915476
 20
74.415092
 11
23.001263
 21
73.500877
  0
LINE
  8
0
  6
CENTER
 62
     7
 10
136.58641
 20
116.55
 11
136.58641
 21
36.049999
  0
LINE
  8
0
  6
CONTINUOUS
 62
     7
 10
108.5864
 20
46.207985
 11
164.58641
 21
46.207985
  0
LINE
  8
0
  6
CONTINUOUS
 62
     7
 10
108.5864
 20
66.79377
 11
108.5864
 21
46.207985
  0
LINE
  8
0
  6
CONTINUOUS
 62
     7
 10
106.5864
 20
91.296303
 11
106.5864
 21
69.6222
  0
LINE
  8
0
  6
CONTINUOUS
 62
     7
 10
110.85862
 20
67.207985
 11
163.57916
 21
67.207985
  0
LINE
  8
0
  6
CONTINUOUS
 62
     7
 10
106.87929
 20
68.915085
 11
108.2935
 21
67.500877
  0
LINE
  8
0
  6
CONTINUOUS
 62
     7
 10
108.70717
 20
69.207985
 11
164.86845
 21
69.207985
  0
LINE
  8
0
  6
CONTINUOUS
 62
     7
 10
166.58641
 20
88.189697
 11
166.58641
 21
69.6222
  0
LINE
  8
0
  6
CONTINUOUS
 62
     7
 10
166.2935
 20
68.915092
 11
164.8793
 21
67.500877
  0
LINE
  8
0
  6
CONTINUOUS
 62
     7
 10
164.58641
 20
66.79377
 11
164.58641
 21
46.207985
  0
LINE
  8
0
  6
CENTER
 62
     7
 10
-216.20592
 20
-59.159725
 11
-216.20592
 21
-141.83417
  0
LINE
  8
0
  6
CONTINUOUS
 62
     7
 10
-247.20592
 20
-134.23593
 11
-185.20592
 21
-134.23593
  0
LINE
  8
0
  6
CONTINUOUS
 62
     7
 10
-247.20592
 20
-113.65014
 11
-247.20592
 21
-134.23593
  0
LINE
  8
0
  6
CONTINUOUS
 62
     7
 10
-248.95592
 20
-88.322235
 11
-248.95592
 21
-111.07172
  0
LINE
  8
0
  6
CONTINUOUS
 62
     7
 10
-245.1837
 20
-113.23593
 11
-187.2202
 21
-113.23593
  0
LINE
  8
0
  6
CONTINUOUS
 62
     7
 10
-248.66302
 20
-111.77882
 11
-247.49881
 21
-112.94304
  0
LINE
  8
0
  6
CONTINUOUS
 62
     7
 10
-183.45592
 20
-91.221733
 11
-183.45592
 21
-111.07172
  0
LINE
  8
0
  6
CONTINUOUS
 62
     7
 10
-183.74883
 20
-111.77883
 11
-184.91302
 21
-112.94304
  0
LINE
  8
0
  6
CONTINUOUS
 62
     7
 10
-185.20592
 20
-113.65014
 11
-185.20592
 21
-134.23593
  0
LINE
  8
0
  6
CONTINUOUS
 62
     7
 10
-246.87572
 20
-111.48593
 11
-185.60651
 21
-111.48593
  0
LINE
  8
0
  6
CENTER
 62
     7
 10
-55.486908
 20
-62.43396
 11
-55.486908
 21
-147.99777
  0
LINE
  8
0
  6
CONTINUOUS
 62
     7
 10
-92.486908
 20
-139.23593
 11
-18.486908
 21
-139.23593
  0
LINE
  8
0
  6
CONTINUOUS
 62
     7
 10
-92.486908
 20
-118.65015
 11
-92.486908
 21
-139.23593
  0
LINE
  8
0
  6
CONTINUOUS
 62
     7
 10
-94.986908
 20
-91.118179
 11
-94.986908
 21
-115.32172
  0
LINE
  8
0
  6
CONTINUOUS
 62
     7
 10
-90.271614
 20
-118.23593
 11
-20.359785
 21
-118.23593
  0
LINE
  8
0
  6
CONTINUOUS
 62
     7
 10
-94.694023
 20
-116.02883
 11
-92.779808
 21
-117.94304
  0
LINE
  8
0
  6
CONTINUOUS
 62
     7
 10
-92.201859
 20
-115.73593
 11
-17.977736
 21
-115.73593
  0
LINE
  8
0
  6
CONTINUOUS
 62
     7
 10
-15.986908
 20
-94.224785
 11
-15.986908
 21
-115.32172
  0
LINE
  8
0
  6
CONTINUOUS
 62
     7
 10
-16.279802
 20
-116.02882
 11
-18.194016
 21
-117.94303
  0
LINE
  8
0
  6
CONTINUOUS
 62
     7
 10
-18.486908
 20
-118.65015
 11
-18.486908
 21
-139.23593
  0
LINE
  8
0
  6
CENTER
 62
     7
 10
462.24091
 20
35.489647
 11
462.24091
 21
-60.941692
  0
LINE
  8
0
  6
CONTINUOUS
 62
     7
 10
449.72238
 20
84.667366
 11
520.19385
 21
14.195868
  0
LINE
  8
0
  6
CONTINUOUS
 62
     7
 10
444.43402
 20
78.427505
 11
447.991
 21
81.984489
  0
LINE
  8
0
  6
CONTINUOUS
 62
     7
 10
448.43036
 20
85.338058
 11
448.43036
 21
83.045151
  0
LINE
  8
0
  6
CONTINUOUS
 62
     7
 10
449.04068
 20
81.813515
 11
517.03888
 21
13.81534
  0
LINE
  8
0
  6
CONTINUOUS
 62
     7
 10
516.36652
 20
11.767087
 11
517.28748
 21
12.688023
  0
LINE
  8
0
  6
CONTINUOUS
 62
     7
 10
520.64099
 20
13.127369
 11
518.34814
 21
13.127369
  0
LINE
  8
0
  6
CONTINUOUS
 62
     7
 10
415.99091
 20
-52.062069
 11
508.49091
 21
-52.062069
  0
LINE
  8
0
  6
CONTINUOUS
 62
     7
 10
415.99091
 20
-30.928097
 11
415.99091
 21
-52.062069
  0
LINE
  8
0
  6
CONTINUOUS
 62
     7
 10
417.44205
 20
-30.062073
 11
507.02585
 21
-30.062073
  0
LINE
  8
0
  6
CONTINUOUS
 62
     7
 10
410.74091
 20
-5.6523037
 11
410.74091
 21
-26.164959
  0
LINE
  8
0
  6
CONTINUOUS
 62
     7
 10
508.49091
 20
-30.683392
 11
508.49091
 21
-52.062069
  0
LINE
  8
0
  6
CONTINUOUS
 62
     7
 10
411.49091
 20
-27.463993
 11
415.24091
 21
-29.629063
  0
LINE
  8
0
  6
CONTINUOUS
 62
     7
 10
412.56812
 20
-27.030983
 11
512.22986
 21
-27.030983
  0
LINE
  8
0
  6
CONTINUOUS
 62
     7
 10
513.74091
 20
-5.6523037
 11
513.74091
 21
-26.164959
  0
LINE
  8
0
  6
CONTINUOUS
 62
     7
 10
512.99091
 20
-27.464016
 11
509.24094
 21
-29.62907
  0
LINE
  8
0
  6
CONTINUOUS
 62
     7
 10
412.56812
 20
-5.030983
 11
512.22986
 21
-5.030983
  0
LINE
  8
0
  6
CONTINUOUS
 62
     7
 10
413.24091
 20
3.1206381
 11
413.24091
 21
-1.9096642
  0
LINE
  8
0
  6
CONTINUOUS
 62
     7
 10
411.18027
 20
-4.5916624
 11
412.80157
 21
-2.9703534
  0
LINE
  8
0
  6
CONTINUOUS
 62
     7
 10
414.10406
 20
-2.530983
 11
510.26797
 21
-2.530983
  0
LINE
  8
0
  6
CONTINUOUS
 62
     7
 10
511.24091
 20
-0.60728401
 11
511.24091
 21
-1.9096642
  0
LINE
  8
0
  6
CONTINUOUS
 62
     7
 10
513.30157
 20
-4.5916624
 11
511.68027
 21
-2.9703534
  0
LINE
  8
0
  6
CENTER
 62
     7
 10
663.49988
 20
34.833546
 11
663.49988
 21
-66.23243
  0
LINE
  8
0
  6
CONTINUOUS
 62
     7
 10
649.64252
 20
91.458809
 11
728.3396
 21
12.761715
  0
LINE
  8
0
  6
CONTINUOUS
 62
     7
 10
647.81946
 20
92.660606
 11
647.81946
 21
90.367699
  0
LINE
  8
0
  6
CONTINUOUS
 62
     7
 10
643.14703
 20
85.073936
 11
647.38013
 21
89.307037
  0
LINE
  8
0
  6
CONTINUOUS
 62
     7
 10
648.97174
 20
88.594063
 11
721.68781
 21
15.878009
  0
LINE
  8
0
  6
CONTINUOUS
 62
     7
 10
724.27197
 20
9.2211533
 11
725.86902
 21
10.818186
  0
LINE
  8
0
  6
CONTINUOUS
 62
     7
 10
729.22253
 20
11.257529
 11
726.92963
 21
11.257529
  0
LINE
  8
0
  6
CONTINUOUS
 62
     7
 10
610.99988
 20
-35.928097
 11
610.99988
 21
-57.062069
  0
LINE
  8
0
  6
CONTINUOUS
 62
     7
 10
605.49988
 20
-9.5079651
 11
605.49988
 21
-31.020622
  0
LINE
  8
0
  6
CONTINUOUS
 62
     7
 10
610.99988
 20
-57.062069
 11
715.99988
 21
-57.062069
  0
LINE
  8
0
  6
CONTINUOUS
 62
     7
 10
613.28412
 20
-35.062073
 11
714.00409
 21
-35.062073
  0
LINE
  8
0
  6
CONTINUOUS
 62
     7
 10
606.24988
 20
-32.319672
 11
610.24982
 21
-34.629059
  0
LINE
  8
0
  6
CONTINUOUS
 62
     7
 10
608.07806
 20
-31.886646
 11
719.37256
 21
-31.886646
  0
LINE
  8
0
  6
CONTINUOUS
 62
     7
 10
715.99988
 20
-35.928097
 11
715.99988
 21
-57.062069
  0
LINE
  8
0
  6
CONTINUOUS
 62
     7
 10
721.49988
 20
-9.5079651
 11
721.49988
 21
-31.020622
  0
LINE
  8
0
  6
CONTINUOUS
 62
     7
 10
720.74982
 20
-32.319656
 11
716.74988
 21
-34.629044
  0
LINE
  8
0
  6
CONTINUOUS
 62
     7
 10
608.07806
 20
-8.8866463
 11
719.37256
 21
-8.8866463
  0
LINE
  8
0
  6
CONTINUOUS
 62
     7
 10
605.93921
 20
-8.4473019
 11
607.56049
 21
-6.8259931
  0
LINE
  8
0
  6
CONTINUOUS
 62
     7
 10
607.99988
 20
0.22114246
 11
607.99988
 21
-5.7653255
  0
LINE
  8
0
  6
CONTINUOUS
 62
     7
 10
609.62946
 20
-6.3866463
 11
712.46545
 21
-6.3866463
  0
LINE
  8
0
  6
CONTINUOUS
 62
     7
 10
718.99988
 20
-3.5067797
 11
718.99988
 21
-5.7653255
  0
LINE
  8
0
  6
CONTINUOUS
 62
     7
 10
721.06049
 20
-8.4473019
 11
719.43915
 21
-6.8259716
  0
LINE
  8
0
  6
CENTER
 62
     7
 10
-101.47755
 20
-368.98627
 11
-101.47755
 21
-486.53137
  0
LINE
  8
0
  6
CONTINUOUS
 62
     7
 10
-127.04358
 20
-308.40704
 11
-120.83395
 21
-302.19742
  0
LINE
  8
0
  6
CONTINUOUS
 62
     7
 10
-117.92484
 20
-300.69235
 11
-20.618654
 21
-397.99854
  0
LINE
  8
0
  6
CONTINUOUS
 62
     7
 10
-120.39462
 20
-298.84387
 11
-120.39462
 21
-301.13678
  0
LINE
  8
0
  6
CONTINUOUS
 62
     7
 10
-118.53355
 20
-303.61917
 11
-23.022726
 21
-399.13
  0
LINE
  8
0
  6
CONTINUOUS
 62
     7
 10
-26.119684
 20
-404.05884
 11
-22.546106
 21
-400.48526
  0
LINE
  8
0
  6
CONTINUOUS
 62
     7
 10
-19.192583
 20
-400.04593
 11
-21.48546
 21
-400.04593
  0
LINE
  8
0
  6
CONTINUOUS
 62
     7
 10
-166.97755
 20
-476.12888
 11
-35.977547
 21
-476.12888
  0
LINE
  8
0
  6
CONTINUOUS
 62
     7
 10
-166.97755
 20
-455.9949
 11
-166.97755
 21
-476.12888
  0
LINE
  8
0
  6
CONTINUOUS
 62
     7
 10
-173.47755
 20
-426.99741
 11
-173.47755
 21
-450.51007
  0
LINE
  8
0
  6
CONTINUOUS
 62
     7
 10
-165.12787
 20
-455.12888
 11
-37.553692
 21
-455.12888
  0
LINE
  8
0
  6
CONTINUOUS
 62
     7
 10
-172.72755
 20
-451.80911
 11
-167.72755
 21
-454.69586
  0
LINE
  8
0
  6
CONTINUOUS
 62
     7
 10
-169.98476
 20
-451.3761
 11
-32.373016
 21
-451.3761
  0
LINE
  8
0
  6
CONTINUOUS
 62
     7
 10
-29.477549
 20
-426.99741
 11
-29.477549
 21
-450.51007
  0
LINE
  8
0
  6
CONTINUOUS
 62
     7
 10
-30.227531
 20
-451.80911
 11
-35.227528
 21
-454.69586
  0
LINE
  8
0
  6
CONTINUOUS
 62
     7
 10
-35.977547
 20
-455.9949
 11
-35.977547
 21
-476.12888
  0
LINE
  8
0
  6
CONTINUOUS
 62
     7
 10
-170.97755
 20
-414.47308
 11
-170.97755
 21
-423.25476
  0
LINE
  8
0
  6
CONTINUOUS
 62
     7
 10
-169.98476
 20
-426.3761
 11
-32.373016
 21
-426.3761
  0
LINE
  8
0
  6
CONTINUOUS
 62
     7
 10
-173.03822
 20
-425.93677
 11
-171.41689
 21
-424.31543
  0
LINE
  8
0
  6
CONTINUOUS
 62
     7
 10
-168.34558
 20
-423.8761
 11
-33.272903
 21
-423.8761
  0
LINE
  8
0
  6
CONTINUOUS
 62
     7
 10
-31.977549
 20
-418.20099
 11
-31.977549
 21
-423.25476
  0
LINE
  8
0
  6
CONTINUOUS
 62
     7
 10
-29.91691
 20
-425.93677
 11
-31.538218
 21
-424.31546
  0
LINE
  8
0
  6
CONTINUOUS
 62
     7
 10
-287
 20
200
 11
-287
 21
-200
  0
LINE
  8
0
  6
CONTINUOUS
 62
     7
 10
-287
 20
200
 11
287
 21
200
  0
LINE
  8
0
  6
CONTINUOUS
 62
     7
 10
287
 20
200
 11
287
 21
-200
  0
LINE
  8
0
  6
CONTINUOUS
 62
     7
 10
-287
 20
-200
 11
287
 21
-200
  0
LINE
  8
0
  6
CENTER
 62
     7
 10
-220.55937
 20
101.20937
 11
-182.93437
 21
138.83437
  0
LINE
  8
0
  6
CENTER
 62
     7
 10
-78.662033
 20
143.60509
 11
-121.98357
 21
100.28356
  0
LINE
  8
0
  6
CENTER
 62
     7
 10
41.250195
 20
147.74982
 11
-8.6248093
 21
97.874809
  0
LINE
  8
0
  6
CENTER
 62
     7
 10
184.85172
 20
154.47328
 11
128.50171
 21
98.123291
  0
LINE
  8
0
  6
CENTER
 62
     7
 10
-226.10037
 20
-81.130379
 11
-165.24028
 21
-20.27029
  0
LINE
  8
0
  6
CENTER
 62
     7
 10
-2.9023573
 20
-18.651381
 11
-62.65715
 21
-78.406174
  0
LINE
  8
0
  6
CENTER
 62
     7
 10
455.03961
 20
19.736626
 11
527.02832
 21
91.725311
  0
LINE
  8
0
  6
CENTER
 62
     7
 10
729.69806
 20
93.136093
 11
654.0575
 21
17.49552
  0
LINE
  8
0
  6
CENTER
 62
     7
 10
-109.63055
 20
-389.28189
 11
-25.587952
 21
-305.23929
  0
LINE
  8
0
  6
CONTINUOUS
 62
     7
 10
462.6561
 20
-33.407986
 11
462.6561
 21
-35.462315
  0
LINE
  8
0
  6
CONTINUOUS
 62
     7
 10
461.1561
 20
-33.407986
 11
461.1561
 21
-35.462315
  0
LINE
  8
0
  6
CONTINUOUS
 62
     7
 10
461.1561
 20
-46.353657
 11
461.1561
 21
-48.407986
  0
LINE
  8
0
  6
CONTINUOUS
 62
     7
 10
462.6561
 20
-46.353657
 11
462.6561
 21
-48.407986
  0
LINE
  8
0
  6
CONTINUOUS
 62
     7
 10
461.1561
 20
-36.96777
 11
461.1561
 21
-40.907986
  0
LINE
  8
0
  6
CONTINUOUS
 62
     7
 10
462.6561
 20
-36.96777
 11
462.6561
 21
-40.907986
  0
LINE
  8
0
  6
CONTINUOUS
 62
     7
 10
-115.77757
 20
74.347725
 11
-115.77757
 21
73.11512
  0
LINE
  8
0
  6
CONTINUOUS
 62
     7
 10
-116.67757
 20
74.347725
 11
-116.67757
 21
73.11512
  0
LINE
  8
0
  6
CONTINUOUS
 62
     7
 10
-116.67757
 20
66.58033
 11
-116.67757
 21
65.347725
  0
LINE
  8
0
  6
CONTINUOUS
 62
     7
 10
-115.77757
 20
66.58033
 11
-115.77757
 21
65.347725
  0
LINE
  8
0
  6
CONTINUOUS
 62
     7
 10
-116.67757
 20
72.211861
 11
-116.67757
 21
69.847725
  0
LINE
  8
0
  6
CONTINUOUS
 62
     7
 10
-115.77757
 20
72.211861
 11
-115.77757
 21
69.847725
  0
LINE
  8
0
  6
CONTINUOUS
 62
     7
 10
-215.62801
 20
-117.86086
 11
-215.62801
 21
-119.50432
  0
LINE
  8
0
  6
CONTINUOUS
 62
     7
 10
-216.82802
 20
-117.86086
 11
-216.82802
 21
-119.50432
  0
LINE
  8
0
  6
CONTINUOUS
 62
     7
 10
-216.82802
 20
-128.21739
 11
-216.82802
 21
-129.86086
  0
LINE
  8
0
  6
CONTINUOUS
 62
     7
 10
-215.62801
 20
-128.21739
 11
-215.62801
 21
-129.86086
  0
LINE
  8
0
  6
CONTINUOUS
 62
     7
 10
-216.82802
 20
-120.70868
 11
-216.82802
 21
-123.86086
  0
LINE
  8
0
  6
CONTINUOUS
 62
     7
 10
-215.62801
 20
-120.70868
 11
-215.62801
 21
-123.86086
  0
LINE
  8
0
  6
CONTINUOUS
 62
     7
 10
664.24402
 20
-37.037975
 11
664.24402
 21
-39.503185
  0
LINE
  8
0
  6
CONTINUOUS
 62
     7
 10
662.44403
 20
-37.037975
 11
662.44403
 21
-39.503185
  0
LINE
  8
0
  6
CONTINUOUS
 62
     7
 10
662.44403
 20
-52.572765
 11
662.44403
 21
-55.037975
  0
LINE
  8
0
  6
CONTINUOUS
 62
     7
 10
664.24402
 20
-52.572765
 11
664.24402
 21
-55.037975
  0
LINE
  8
0
  6
CONTINUOUS
 62
     7
 10
662.44403
 20
-41.309704
 11
662.44403
 21
-46.037975
  0
LINE
  8
0
  6
CONTINUOUS
 62
     7
 10
664.24402
 20
-41.309704
 11
664.24402
 21
-46.037975
  0
LINE
  8
0
  6
CONTINUOUS
 62
     7
 10
-215.1611
 20
76.785225
 11
-215.1611
 21
75.55262
  0
LINE
  8
0
  6
CONTINUOUS
 62
     7
 10
-216.0611
 20
76.785225
 11
-216.0611
 21
75.55262
  0
LINE
  8
0
  6
CONTINUOUS
 62
     7
 10
-216.0611
 20
69.01783
 11
-216.0611
 21
67.785225
  0
LINE
  8
0
  6
CONTINUOUS
 62
     7
 10
-215.1611
 20
69.01783
 11
-215.1611
 21
67.785225
  0
LINE
  8
0
  6
CONTINUOUS
 62
     7
 10
-216.0611
 20
74.649361
 11
-216.0611
 21
72.285225
  0
LINE
  8
0
  6
CONTINUOUS
 62
     7
 10
-215.1611
 20
74.649361
 11
-215.1611
 21
72.285225
  0
LINE
  8
0
  6
CONTINUOUS
 62
     7
 10
0.26449475
 20
68.092049
 11
0.26449475
 21
66.448586
  0
LINE
  8
0
  6
CONTINUOUS
 62
     7
 10
-0.93551749
 20
68.092049
 11
-0.93551749
 21
66.448586
  0
LINE
  8
0
  6
CONTINUOUS
 62
     7
 10
-0.93551749
 20
57.735508
 11
-0.93551749
 21
56.092045
  0
LINE
  8
0
  6
CONTINUOUS
 62
     7
 10
0.26449475
 20
57.735508
 11
0.26449475
 21
56.092045
  0
LINE
  8
0
  6
CONTINUOUS
 62
     7
 10
-0.93551749
 20
65.244225
 11
-0.93551749
 21
62.092045
  0
LINE
  8
0
  6
CONTINUOUS
 62
     7
 10
0.26449475
 20
65.244225
 11
0.26449475
 21
62.092045
  0
LINE
  8
0
  6
CONTINUOUS
 62
     7
 10
137.09688
 20
62.330681
 11
137.09688
 21
60.687218
  0
LINE
  8
0
  6
CONTINUOUS
 62
     7
 10
135.89687
 20
62.330681
 11
135.89687
 21
60.687218
  0
LINE
  8
0
  6
CONTINUOUS
 62
     7
 10
135.89687
 20
51.974144
 11
135.89687
 21
50.330681
  0
LINE
  8
0
  6
CONTINUOUS
 62
     7
 10
137.09688
 20
51.974144
 11
137.09688
 21
50.330681
  0
LINE
  8
0
  6
CONTINUOUS
 62
     7
 10
135.89687
 20
59.482857
 11
135.89687
 21
56.330681
  0
LINE
  8
0
  6
CONTINUOUS
 62
     7
 10
137.09688
 20
59.482857
 11
137.09688
 21
56.330681
  0
LINE
  8
0
  6
CONTINUOUS
 62
     7
 10
-54.839508
 20
-120.39014
 11
-54.839508
 21
-122.44447
  0
LINE
  8
0
  6
CONTINUOUS
 62
     7
 10
-56.339508
 20
-120.39014
 11
-56.339508
 21
-122.44447
  0
LINE
  8
0
  6
CONTINUOUS
 62
     7
 10
-56.339508
 20
-133.33582
 11
-56.339508
 21
-135.39014
  0
LINE
  8
0
  6
CONTINUOUS
 62
     7
 10
-54.839508
 20
-133.33582
 11
-54.839508
 21
-135.39014
  0
LINE
  8
0
  6
CONTINUOUS
 62
     7
 10
-56.339508
 20
-123.94992
 11
-56.339508
 21
-127.89014
  0
LINE
  8
0
  6
CONTINUOUS
 62
     7
 10
-54.839508
 20
-123.94992
 11
-54.839508
 21
-127.89014
  0
LINE
  8
0
  6
CONTINUOUS
 62
     7
 10
-100.61242
 20
-457.23248
 11
-100.61242
 21
-459.69769
  0
LINE
  8
0
  6
CONTINUOUS
 62
     7
 10
-102.41241
 20
-457.23248
 11
-102.41241
 21
-459.69769
  0
LINE
  8
0
  6
CONTINUOUS
 62
     7
 10
-102.41241
 20
-472.76727
 11
-102.41241
 21
-475.23248
  0
LINE
  8
0
  6
CONTINUOUS
 62
     7
 10
-100.61242
 20
-472.76727
 11
-100.61242
 21
-475.23248
  0
LINE
  8
0
  6
CONTINUOUS
 62
     7
 10
-102.41241
 20
-461.50421
 11
-102.41241
 21
-466.23248
  0
LINE
  8
0
  6
CONTINUOUS
 62
     7
 10
-100.61242
 20
-461.50421
 11
-100.61242
 21
-466.23248
  0
ARC
  8
0
  6
CONTINUOUS
 62
     7
 10
-210.67168
 20
135.84581
 40
1
 50
270
 51
315
  0
ARC
  8
0
  6
CONTINUOUS
 62
     7
 10
-211.25746
 20
133.84581
 40
1
 50
90.000003
 51
135
  0
ARC
  8
0
  6
CONTINUOUS
 62
     7
 10
-185.92293
 20
111.09708
 40
1
 50
135
 51
180.00001
  0
ARC
  8
0
  6
CONTINUOUS
 62
     7
 10
-187.92294
 20
110.51128
 40
1
 50
315
 51
360
  0
ARC
  8
0
  6
CONTINUOUS
 62
     7
 10
-110.46294
 20
140.79555
 40
1
 50
270
 51
315
  0
ARC
  8
0
  6
CONTINUOUS
 62
     7
 10
-111.04873
 20
138.79556
 40
1
 50
90.000003
 51
135
  0
ARC
  8
0
  6
CONTINUOUS
 62
     7
 10
-83.471565
 20
111.21839
 40
1
 50
315
 51
360
  0
ARC
  8
0
  6
CONTINUOUS
 62
     7
 10
-81.471565
 20
111.80418
 40
1
 50
135
 51
180.00001
  0
ARC
  8
0
  6
CONTINUOUS
 62
     7
 10
6.3652172
 20
146.80597
 40
1
 50
270
 51
315
  0
ARC
  8
0
  6
CONTINUOUS
 62
     7
 10
5.0723248
 20
144.80597
 40
1
 50
90.000003
 51
135
  0
ARC
  8
0
  6
CONTINUOUS
 62
     7
 10
38.306351
 20
111.57195
 40
1
 50
315
 51
360
  0
ARC
  8
0
  6
CONTINUOUS
 62
     7
 10
40.306347
 20
112.86484
 40
1
 50
135
 51
180.00001
  0
ARC
  8
0
  6
CONTINUOUS
 62
     7
 10
143.95036
 20
154.58414
 40
1
 50
270
 51
315
  0
ARC
  8
0
  6
CONTINUOUS
 62
     7
 10
141.95036
 20
152.58414
 40
1
 50
90.000003
 51
135
  0
ARC
  8
0
  6
CONTINUOUS
 62
     7
 10
182.96257
 20
111.57195
 40
1
 50
315
 51
360
  0
ARC
  8
0
  6
CONTINUOUS
 62
     7
 10
184.96255
 20
113.57194
 40
1
 50
135
 51
180.00001
  0
ARC
  8
0
  6
CONTINUOUS
 62
     7
 10
-208.84196
 20
-18.617132
 40
1
 50
270
 51
315
  0
ARC
  8
0
  6
CONTINUOUS
 62
     7
 10
-210.4884
 20
-20.617134
 40
1
 50
90.000003
 51
135
  0
ARC
  8
0
  6
CONTINUOUS
 62
     7
 10
-165.58713
 20
-65.518417
 40
1
 50
315
 51
360
  0
ARC
  8
0
  6
CONTINUOUS
 62
     7
 10
-163.58713
 20
-63.871971
 40
1
 50
135
 51
180.00001
  0
ARC
  8
0
  6
CONTINUOUS
 62
     7
 10
-48.830055
 20
-10.838959
 40
1
 50
270
 51
315
  0
ARC
  8
0
  6
CONTINUOUS
 62
     7
 10
-51.537163
 20
-12.838959
 40
1
 50
90.000003
 51
135
  0
ARC
  8
0
  6
CONTINUOUS
 62
     7
 10
2.9100618
 20
-67.286186
 40
1
 50
315
 51
360
  0
ARC
  8
0
  6
CONTINUOUS
 62
     7
 10
4.9100618
 20
-64.579079
 40
1
 50
135
 51
180.00001
  0
ARC
  8
0
  6
CONTINUOUS
 62
     7
 10
-95.915428
 20
-280.81445
 40
1.5
 50
255
 51
315
  0
ARC
  8
0
  6
CONTINUOUS
 62
     7
 10
-102.26866
 20
-282.21793
 40
1.5
 50
74.999999
 51
135
  0
ARC
  8
0
  6
CONTINUOUS
 62
     7
 10
-2.5666032
 20
-381.91998
 40
1.5
 50
315
 51
14.999999
  0
ARC
  8
0
  6
CONTINUOUS
 62
     7
 10
-1.1631181
 20
-375.56674
 40
1.5
 50
135
 51
195
  0
ARC
  8
0
  6
CONTINUOUS
 62
     7
 10
669.7691
 20
109.57469
 40
1.5
 50
255
 51
315
  0
ARC
  8
0
  6
CONTINUOUS
 62
     7
 10
664.53125
 20
107.87235
 40
1.5
 50
74.999999
 51
135
  0
ARC
  8
0
  6
CONTINUOUS
 62
     7
 10
469.39401
 20
101.61974
 40
1.5
 50
255
 51
315
  0
ARC
  8
0
  6
CONTINUOUS
 62
     7
 10
464.435
 20
99.842697
 40
1.5
 50
74.999999
 51
135
  0
ARC
  8
0
  6
CONTINUOUS
 62
     7
 10
535.14569
 20
29.132017
 40
1.5
 50
315
 51
14.999999
  0
ARC
  8
0
  6
CONTINUOUS
 62
     7
 10
536.92273
 20
34.091042
 40
1.5
 50
135
 51
195
  0
ARC
  8
0
  6
CONTINUOUS
 62
     7
 10
746.13666
 20
33.207161
 40
1.5
 50
135
 51
195
  0
ARC
  8
0
  6
CONTINUOUS
 62
     7
 10
744.43433
 20
27.969286
 40
1.5
 50
315
 51
14.999999
  0
ARC
  8
0
  6
CONTINUOUS
 62
     7
 10
-199.06076
 20
83.622192
 40
1
 50
315
 51
0
  0
ARC
  8
0
  6
CONTINUOUS
 62
     7
 10
-233.06076
 20
81.793777
 40
1
 50
0
 51
45.000001
  0
ARC
  8
0
  6
CONTINUOUS
 62
     7
 10
-232.06076
 20
83.622192
 40
1
 50
179.99999
 51
225
  0
ARC
  8
0
  6
CONTINUOUS
 62
     7
 10
-198.06076
 20
81.793777
 40
1
 50
135
 51
180.00001
  0
ARC
  8
0
  6
CONTINUOUS
 62
     7
 10
-95.559135
 20
77.793777
 40
1
 50
135
 51
180.00001
  0
ARC
  8
0
  6
CONTINUOUS
 62
     7
 10
-136.55914
 20
77.793777
 40
1
 50
0
 51
45.000001
  0
ARC
  8
0
  6
CONTINUOUS
 62
     7
 10
-135.55914
 20
79.622192
 40
1
 50
179.99999
 51
225
  0
ARC
  8
0
  6
CONTINUOUS
 62
     7
 10
-96.559135
 20
79.622192
 40
1
 50
315
 51
0
  0
ARC
  8
0
  6
CONTINUOUS
 62
     7
 10
23.708368
 20
72.79377
 40
1
 50
135
 51
180.00001
  0
ARC
  8
0
  6
CONTINUOUS
 62
     7
 10
-24.291632
 20
72.79377
 40
1
 50
0
 51
45.000001
  0
ARC
  8
0
  6
CONTINUOUS
 62
     7
 10
-23.791632
 20
75.122192
 40
1
 50
179.99999
 51
225
  0
ARC
  8
0
  6
CONTINUOUS
 62
     7
 10
23.208368
 20
75.122192
 40
1
 50
315
 51
0
  0
ARC
  8
0
  6
CONTINUOUS
 62
     7
 10
165.58641
 20
66.79377
 40
1
 50
135
 51
180.00001
  0
ARC
  8
0
  6
CONTINUOUS
 62
     7
 10
107.5864
 20
66.79377
 40
1
 50
0
 51
45.000001
  0
ARC
  8
0
  6
CONTINUOUS
 62
     7
 10
107.5864
 20
69.6222
 40
1
 50
179.99999
 51
225
  0
ARC
  8
0
  6
CONTINUOUS
 62
     7
 10
165.58641
 20
69.6222
 40
1
 50
315
 51
0
  0
ARC
  8
0
  6
CONTINUOUS
 62
     7
 10
-184.20592
 20
-113.65014
 40
1
 50
135
 51
180.00001
  0
ARC
  8
0
  6
CONTINUOUS
 62
     7
 10
-248.20592
 20
-113.65014
 40
1
 50
0
 51
45.000001
  0
ARC
  8
0
  6
CONTINUOUS
 62
     7
 10
-247.95592
 20
-111.07172
 40
1
 50
179.99999
 51
225
  0
ARC
  8
0
  6
CONTINUOUS
 62
     7
 10
-184.45592
 20
-111.07172
 40
1
 50
315
 51
0
  0
ARC
  8
0
  6
CONTINUOUS
 62
     7
 10
-17.486908
 20
-118.65015
 40
1
 50
135
 51
180.00001
  0
ARC
  8
0
  6
CONTINUOUS
 62
     7
 10
-93.486908
 20
-118.65015
 40
1
 50
0
 51
45.000001
  0
ARC
  8
0
  6
CONTINUOUS
 62
     7
 10
-93.986908
 20
-115.32172
 40
1
 50
179.99999
 51
225
  0
ARC
  8
0
  6
CONTINUOUS
 62
     7
 10
-16.986908
 20
-115.32172
 40
1
 50
315
 51
0
  0
ARC
  8
0
  6
CONTINUOUS
 62
     7
 10
449.93033
 20
85.338028
 40
1.5
 50
135
 51
180.00001
  0
ARC
  8
0
  6
CONTINUOUS
 62
     7
 10
446.93033
 20
83.045158
 40
1.5
 50
315
 51
360
  0
ARC
  8
0
  6
CONTINUOUS
 62
     7
 10
518.34814
 20
11.627369
 40
1.5
 50
90.000003
 51
135
  0
ARC
  8
0
  6
CONTINUOUS
 62
     7
 10
520.64099
 20
14.627351
 40
1.5
 50
270
 51
315
  0
ARC
  8
0
  6
CONTINUOUS
 62
     7
 10
512.74091
 20
-1.9096642
 40
1.5
 50
179.99999
 51
225
  0
ARC
  8
0
  6
CONTINUOUS
 62
     7
 10
512.24091
 20
-5.6523037
 40
1.5
 50
360
 51
45.000001
  0
ARC
  8
0
  6
CONTINUOUS
 62
     7
 10
414.49091
 20
-30.928097
 40
1.5
 50
0
 51
60.000002
  0
ARC
  8
0
  6
CONTINUOUS
 62
     7
 10
412.24091
 20
-26.164959
 40
1.5
 50
179.99999
 51
240.00001
  0
ARC
  8
0
  6
CONTINUOUS
 62
     7
 10
512.24091
 20
-26.164959
 40
1.5
 50
300
 51
0
  0
ARC
  8
0
  6
CONTINUOUS
 62
     7
 10
509.99091
 20
-30.928097
 40
1.5
 50
120
 51
180.00001
  0
ARC
  8
0
  6
CONTINUOUS
 62
     7
 10
412.24091
 20
-5.6523037
 40
1.5
 50
135
 51
180.00001
  0
ARC
  8
0
  6
CONTINUOUS
 62
     7
 10
411.74091
 20
-1.9096642
 40
1.5
 50
315
 51
360
  0
ARC
  8
0
  6
CONTINUOUS
 62
     7
 10
649.31946
 20
92.660583
 40
1.5
 50
135
 51
180.00001
  0
ARC
  8
0
  6
CONTINUOUS
 62
     7
 10
646.31946
 20
90.367706
 40
1.5
 50
315
 51
360
  0
ARC
  8
0
  6
CONTINUOUS
 62
     7
 10
726.92963
 20
9.7575321
 40
1.5
 50
90.000003
 51
135
  0
ARC
  8
0
  6
CONTINUOUS
 62
     7
 10
729.22253
 20
12.757514
 40
1.5
 50
270
 51
315
  0
ARC
  8
0
  6
CONTINUOUS
 62
     7
 10
720.49988
 20
-5.7653255
 40
1.5
 50
179.99999
 51
225
  0
ARC
  8
0
  6
CONTINUOUS
 62
     7
 10
719.99988
 20
-9.5079651
 40
1.5
 50
0
 51
45.000001
  0
ARC
  8
0
  6
CONTINUOUS
 62
     7
 10
609.49988
 20
-35.928097
 40
1.5
 50
0
 51
60.000002
  0
ARC
  8
0
  6
CONTINUOUS
 62
     7
 10
606.99988
 20
-31.020622
 40
1.5
 50
179.99999
 51
240.00001
  0
ARC
  8
0
  6
CONTINUOUS
 62
     7
 10
717.49988
 20
-35.928097
 40
1.5
 50
120
 51
180.00001
  0
ARC
  8
0
  6
CONTINUOUS
 62
     7
 10
719.99988
 20
-31.020622
 40
1.5
 50
300
 51
0
  0
ARC
  8
0
  6
CONTINUOUS
 62
     7
 10
606.99988
 20
-9.5079651
 40
1.5
 50
135
 51
180.00001
  0
ARC
  8
0
  6
CONTINUOUS
 62
     7
 10
606.49988
 20
-5.7653255
 40
1.5
 50
315
 51
0
  0
ARC
  8
0
  6
CONTINUOUS
 62
     7
 10
-118.89462
 20
-298.8439
 40
1.5
 50
135
 51
180.00001
  0
ARC
  8
0
  6
CONTINUOUS
 62
     7
 10
-121.89462
 20
-301.13678
 40
1.5
 50
315
 51
360
  0
ARC
  8
0
  6
CONTINUOUS
 62
     7
 10
-21.485455
 20
-401.54596
 40
1.5
 50
90.000003
 51
135
  0
ARC
  8
0
  6
CONTINUOUS
 62
     7
 10
-19.19256
 20
-398.54596
 40
1.5
 50
270
 51
315
  0
ARC
  8
0
  6
CONTINUOUS
 62
     7
 10
-30.477549
 20
-423.25476
 40
1.5
 50
179.99999
 51
225
  0
ARC
  8
0
  6
CONTINUOUS
 62
     7
 10
-30.977549
 20
-426.99741
 40
1.5
 50
0
 51
45.000001
  0
ARC
  8
0
  6
CONTINUOUS
 62
     7
 10
-168.47755
 20
-455.9949
 40
1.5
 50
0
 51
60.000002
  0
ARC
  8
0
  6
CONTINUOUS
 62
     7
 10
-171.97755
 20
-450.51007
 40
1.5
 50
179.99999
 51
240.00001
  0
ARC
  8
0
  6
CONTINUOUS
 62
     7
 10
-30.977549
 20
-450.51007
 40
1.5
 50
300
 51
0
  0
ARC
  8
0
  6
CONTINUOUS
 62
     7
 10
-34.477547
 20
-455.9949
 40
1.5
 50
120
 51
180.00001
  0
ARC
  8
0
  6
CONTINUOUS
 62
     7
 10
-171.97755
 20
-426.99741
 40
1.5
 50
135
 51
180.00001
  0
ARC
  8
0
  6
CONTINUOUS
 62
     7
 10
-172.47755
 20
-423.25476
 40
1.5
 50
315
 51
0
  0
ARC
  8
0
  6
CONTINUOUS
 62
     7
 10
-189.86076
 20
95.562691
 40
8.1999998
 50
135
 51
180.00001
  0
ARC
  8
0
  6
CONTINUOUS
 62
     7
 10
-85.559135
 20
93.574478
 40
10
 50
135
 51
180.00001
  0
ARC
  8
0
  6
CONTINUOUS
 62
     7
 10
35.208366
 20
91.503403
 40
11
 50
135
 51
180.00001
  0
ARC
  8
0
  6
CONTINUOUS
 62
     7
 10
180.08641
 20
88.189697
 40
13.5
 50
135
 51
180.00001
  0
ARC
  8
0
  6
CONTINUOUS
 62
     7
 10
-167.95592
 20
-91.221733
 40
15.5
 50
135
 51
180.00001
  0
ARC
  8
0
  6
CONTINUOUS
 62
     7
 10
0.013092041
 20
-94.224785
 40
16
 50
135
 51
180.00001
  0
ARC
  8
0
  6
CONTINUOUS
 62
     7
 10
528.74091
 20
-0.60728401
 40
17.5
 50
135
 51
180.00001
  0
ARC
  8
0
  6
CONTINUOUS
 62
     7
 10
736.99988
 20
-3.5067797
 40
18
 50
135
 51
180.00001
  0
ARC
  8
0
  6
CONTINUOUS
 62
     7
 10
-11.977549
 20
-418.20099
 40
20
 50
135
 51
180.00001
  0
ARC
  8
0
  6
CONTINUOUS
 62
     7
 10
-195.86076
 20
98.047974
 40
37.200001
 50
135
 51
180.00001
  0
ARC
  8
0
  6
CONTINUOUS
 62
     7
 10
-91.559143
 20
96.059753
 40
45
 50
135
 51
180.00001
  0
ARC
  8
0
  6
CONTINUOUS
 62
     7
 10
29.208368
 20
93.988701
 40
54
 50
135
 51
180.00001
  0
ARC
  8
0
  6
CONTINUOUS
 62
     7
 10
172.5864
 20
91.296303
 40
66
 50
135
 51
180.00001
  0
ARC
  8
0
  6
CONTINUOUS
 62
     7
 10
-174.95592
 20
-88.322235
 40
74
 50
135
 51
180.00001
  0
ARC
  8
0
  6
CONTINUOUS
 62
     7
 10
-7.486908
 20
-91.118179
 40
87.5
 50
135
 51
180.00001
  0
ARC
  8
0
  6
CONTINUOUS
 62
     7
 10
519.74091
 20
3.1206381
 40
106.5
 50
135
 51
180.00001
  0
ARC
  8
0
  6
CONTINUOUS
 62
     7
 10
727.99988
 20
0.22114246
 40
120
 50
135
 51
180.00001
  0
ARC
  8
0
  6
CONTINUOUS
 62
     7
 10
-20.977554
 20
-414.47308
 40
150
 50
135
 51
180.00001
  0
ARC
  8
0
  6
CONTINUOUS
 62
     7
 10
464.9061
 20
-40.907986
 40
3
 50
306.00833
 51
53.991676
  0
ARC
  8
0
  6
CONTINUOUS
 62
     7
 10
464.9061
 20
-40.907986
 40
4.5
 50
306.00833
 51
53.991676
  0
ARC
  8
0
  6
CONTINUOUS
 62
     7
 10
458.9061
 20
-40.907986
 40
3
 50
126.00833
 51
233.99168
  0
ARC
  8
0
  6
CONTINUOUS
 62
     7
 10
458.9061
 20
-40.907986
 40
4.5
 50
126.00833
 51
233.99168
  0
ARC
  8
0
  6
CONTINUOUS
 62
     7
 10
461.9061
 20
-45.03587
 40
9.6028843
 50
53.991676
 51
85.520553
  0
ARC
  8
0
  6
CONTINUOUS
 62
     7
 10
461.9061
 20
-45.03587
 40
8.1028843
 50
53.991676
 51
84.689121
  0
ARC
  8
0
  6
CONTINUOUS
 62
     7
 10
461.9061
 20
-36.780102
 40
8.1028843
 50
233.99167
 51
306.00832
  0
ARC
  8
0
  6
CONTINUOUS
 62
     7
 10
461.9061
 20
-36.780102
 40
9.6028843
 50
233.99167
 51
265.52055
  0
ARC
  8
0
  6
CONTINUOUS
 62
     7
 10
461.9061
 20
-33.970486
 40
0.9375
 50
36.869897
 51
143.1301
  0
ARC
  8
0
  6
CONTINUOUS
 62
     7
 10
461.9061
 20
-40.345486
 40
0.9375
 50
216.8699
 51
323.13009
  0
ARC
  8
0
  6
CONTINUOUS
 62
     7
 10
461.9061
 20
-47.845486
 40
0.9375
 50
216.8699
 51
323.13009
  0
ARC
  8
0
  6
CONTINUOUS
 62
     7
 10
461.9061
 20
-45.03587
 40
9.6028843
 50
94.479452
 51
126.00833
  0
ARC
  8
0
  6
CONTINUOUS
 62
     7
 10
461.9061
 20
-45.03587
 40
8.1028843
 50
95.310878
 51
126.00833
  0
ARC
  8
0
  6
CONTINUOUS
 62
     7
 10
461.9061
 20
-36.780102
 40
9.6028843
 50
274.47945
 51
306.00833
  0
ARC
  8
0
  6
CONTINUOUS
 62
     7
 10
-114.42757
 20
69.847725
 40
1.8
 50
306.00833
 51
53.991676
  0
ARC
  8
0
  6
CONTINUOUS
 62
     7
 10
-114.42757
 20
69.847725
 40
2.7
 50
306.00833
 51
53.991676
  0
ARC
  8
0
  6
CONTINUOUS
 62
     7
 10
-118.02757
 20
69.847725
 40
1.8
 50
126.00833
 51
233.99168
  0
ARC
  8
0
  6
CONTINUOUS
 62
     7
 10
-118.02757
 20
69.847725
 40
2.7
 50
126.00833
 51
233.99168
  0
ARC
  8
0
  6
CONTINUOUS
 62
     7
 10
-116.22755
 20
67.370995
 40
5.7617307
 50
53.991676
 51
85.520553
  0
ARC
  8
0
  6
CONTINUOUS
 62
     7
 10
-116.22755
 20
67.370995
 40
4.8617306
 50
53.991676
 51
84.689121
  0
ARC
  8
0
  6
CONTINUOUS
 62
     7
 10
-116.22755
 20
72.324455
 40
4.8617306
 50
233.99167
 51
306.00832
  0
ARC
  8
0
  6
CONTINUOUS
 62
     7
 10
-116.22755
 20
72.324455
 40
5.7617307
 50
233.99167
 51
265.52055
  0
ARC
  8
0
  6
CONTINUOUS
 62
     7
 10
-116.22755
 20
74.010231
 40
0.5625
 50
36.869897
 51
143.1301
  0
ARC
  8
0
  6
CONTINUOUS
 62
     7
 10
-116.22755
 20
70.185219
 40
0.5625
 50
216.8699
 51
323.13009
  0
ARC
  8
0
  6
CONTINUOUS
 62
     7
 10
-116.22755
 20
65.685219
 40
0.5625
 50
216.8699
 51
323.13009
  0
ARC
  8
0
  6
CONTINUOUS
 62
     7
 10
-116.22755
 20
67.370995
 40
5.7617307
 50
94.479452
 51
126.00833
  0
ARC
  8
0
  6
CONTINUOUS
 62
     7
 10
-116.22755
 20
67.370995
 40
4.8617306
 50
95.310878
 51
126.00833
  0
ARC
  8
0
  6
CONTINUOUS
 62
     7
 10
-116.22755
 20
72.324455
 40
5.7617307
 50
274.47945
 51
306.00833
  0
ARC
  8
0
  6
CONTINUOUS
 62
     7
 10
-213.82802
 20
-123.86086
 40
2.4000001
 50
306.00833
 51
53.991676
  0
ARC
  8
0
  6
CONTINUOUS
 62
     7
 10
-213.82802
 20
-123.86086
 40
3.5999999
 50
306.00833
 51
53.991676
  0
ARC
  8
0
  6
CONTINUOUS
 62
     7
 10
-218.62801
 20
-123.86086
 40
2.4000001
 50
126.00833
 51
233.99168
  0
ARC
  8
0
  6
CONTINUOUS
 62
     7
 10
-218.62801
 20
-123.86086
 40
3.5999999
 50
126.00833
 51
233.99168
  0
ARC
  8
0
  6
CONTINUOUS
 62
     7
 10
-216.22801
 20
-127.16316
 40
7.6823077
 50
53.991676
 51
85.520553
  0
ARC
  8
0
  6
CONTINUOUS
 62
     7
 10
-216.22801
 20
-127.16316
 40
6.4823079
 50
53.991676
 51
84.689121
  0
ARC
  8
0
  6
CONTINUOUS
 62
     7
 10
-216.22801
 20
-120.55855
 40
6.4823079
 50
233.99167
 51
306.00832
  0
ARC
  8
0
  6
CONTINUOUS
 62
     7
 10
-216.22801
 20
-120.55855
 40
7.6823077
 50
233.99167
 51
265.52055
  0
ARC
  8
0
  6
CONTINUOUS
 62
     7
 10
-216.22801
 20
-118.31085
 40
0.75
 50
36.869897
 51
143.1301
  0
ARC
  8
0
  6
CONTINUOUS
 62
     7
 10
-216.22801
 20
-123.41086
 40
0.75
 50
216.8699
 51
323.13009
  0
ARC
  8
0
  6
CONTINUOUS
 62
     7
 10
-216.22801
 20
-129.41086
 40
0.75
 50
216.8699
 51
323.13009
  0
ARC
  8
0
  6
CONTINUOUS
 62
     7
 10
-216.22801
 20
-127.16316
 40
6.4823079
 50
95.310878
 51
126.00833
  0
ARC
  8
0
  6
CONTINUOUS
 62
     7
 10
-216.22801
 20
-127.16316
 40
7.6823077
 50
94.479452
 51
126.00833
  0
ARC
  8
0
  6
CONTINUOUS
 62
     7
 10
-216.22801
 20
-120.55855
 40
7.6823077
 50
274.47945
 51
306.00833
  0
ARC
  8
0
  6
CONTINUOUS
 62
     7
 10
666.94403
 20
-46.037975
 40
3.5999999
 50
306.00833
 51
53.991676
  0
ARC
  8
0
  6
CONTINUOUS
 62
     7
 10
666.94403
 20
-46.037975
 40
5.4000001
 50
306.00833
 51
53.991676
  0
ARC
  8
0
  6
CONTINUOUS
 62
     7
 10
659.74402
 20
-46.037975
 40
3.5999999
 50
126.00833
 51
233.99168
  0
ARC
  8
0
  6
CONTINUOUS
 62
     7
 10
659.74402
 20
-46.037975
 40
5.4000001
 50
126.00833
 51
233.99168
  0
ARC
  8
0
  6
CONTINUOUS
 62
     7
 10
663.34399
 20
-50.991467
 40
11.523461
 50
53.991676
 51
85.520553
  0
ARC
  8
0
  6
CONTINUOUS
 62
     7
 10
663.34399
 20
-50.991467
 40
9.7234612
 50
53.991676
 51
84.689121
  0
ARC
  8
0
  6
CONTINUOUS
 62
     7
 10
663.34399
 20
-41.084545
 40
9.7234612
 50
233.99167
 51
306.00832
  0
ARC
  8
0
  6
CONTINUOUS
 62
     7
 10
663.34399
 20
-41.084545
 40
11.523461
 50
233.99167
 51
265.52055
  0
ARC
  8
0
  6
CONTINUOUS
 62
     7
 10
663.34399
 20
-37.712963
 40
1.125
 50
36.869897
 51
143.1301
  0
ARC
  8
0
  6
CONTINUOUS
 62
     7
 10
663.34399
 20
-45.362988
 40
1.125
 50
216.8699
 51
323.13009
  0
ARC
  8
0
  6
CONTINUOUS
 62
     7
 10
663.34399
 20
-54.362988
 40
1.125
 50
216.8699
 51
323.13009
  0
ARC
  8
0
  6
CONTINUOUS
 62
     7
 10
663.34399
 20
-50.991467
 40
11.523461
 50
94.479452
 51
126.00833
  0
ARC
  8
0
  6
CONTINUOUS
 62
     7
 10
663.34399
 20
-50.991467
 40
9.7234612
 50
95.310878
 51
126.00833
  0
ARC
  8
0
  6
CONTINUOUS
 62
     7
 10
663.34399
 20
-41.084545
 40
11.523461
 50
274.47945
 51
306.00833
  0
ARC
  8
0
  6
CONTINUOUS
 62
     7
 10
-213.8111
 20
72.285225
 40
1.8
 50
306.00833
 51
53.991676
  0
ARC
  8
0
  6
CONTINUOUS
 62
     7
 10
-213.8111
 20
72.285225
 40
2.7
 50
306.00833
 51
53.991676
  0
ARC
  8
0
  6
CONTINUOUS
 62
     7
 10
-217.4111
 20
72.285225
 40
1.8
 50
126.00833
 51
233.99168
  0
ARC
  8
0
  6
CONTINUOUS
 62
     7
 10
-217.4111
 20
72.285225
 40
2.7
 50
126.00833
 51
233.99168
  0
ARC
  8
0
  6
CONTINUOUS
 62
     7
 10
-215.61108
 20
69.808495
 40
5.7617307
 50
53.991676
 51
85.520553
  0
ARC
  8
0
  6
CONTINUOUS
 62
     7
 10
-215.61108
 20
69.808495
 40
4.8617306
 50
53.991676
 51
84.689121
  0
ARC
  8
0
  6
CONTINUOUS
 62
     7
 10
-215.61108
 20
74.761955
 40
4.8617306
 50
233.99167
 51
306.00832
  0
ARC
  8
0
  6
CONTINUOUS
 62
     7
 10
-215.61108
 20
74.761955
 40
5.7617307
 50
233.99167
 51
265.52055
  0
ARC
  8
0
  6
CONTINUOUS
 62
     7
 10
-215.61108
 20
76.447731
 40
0.5625
 50
36.869897
 51
143.1301
  0
ARC
  8
0
  6
CONTINUOUS
 62
     7
 10
-215.61108
 20
72.622719
 40
0.5625
 50
216.8699
 51
323.13009
  0
ARC
  8
0
  6
CONTINUOUS
 62
     7
 10
-215.61108
 20
68.122719
 40
0.5625
 50
216.8699
 51
323.13009
  0
ARC
  8
0
  6
CONTINUOUS
 62
     7
 10
-215.61108
 20
69.808495
 40
5.7617307
 50
94.479452
 51
126.00833
  0
ARC
  8
0
  6
CONTINUOUS
 62
     7
 10
-215.61108
 20
69.808495
 40
4.8617306
 50
95.310878
 51
126.00833
  0
ARC
  8
0
  6
CONTINUOUS
 62
     7
 10
-215.61108
 20
74.761955
 40
5.7617307
 50
274.47945
 51
306.00833
  0
ARC
  8
0
  6
CONTINUOUS
 62
     7
 10
2.0644825
 20
62.092045
 40
2.4000001
 50
306.00833
 51
53.991676
  0
ARC
  8
0
  6
CONTINUOUS
 62
     7
 10
2.0644825
 20
62.092045
 40
3.5999999
 50
306.00833
 51
53.991676
  0
ARC
  8
0
  6
CONTINUOUS
 62
     7
 10
-2.7355053
 20
62.092045
 40
2.4000001
 50
126.00833
 51
233.99168
  0
ARC
  8
0
  6
CONTINUOUS
 62
     7
 10
-2.7355053
 20
62.092045
 40
3.5999999
 50
126.00833
 51
233.99168
  0
ARC
  8
0
  6
CONTINUOUS
 62
     7
 10
-0.33551136
 20
58.789738
 40
7.6823077
 50
53.991676
 51
85.520553
  0
ARC
  8
0
  6
CONTINUOUS
 62
     7
 10
-0.33551136
 20
58.789738
 40
6.4823079
 50
53.991676
 51
84.689121
  0
ARC
  8
0
  6
CONTINUOUS
 62
     7
 10
-0.33551136
 20
65.394356
 40
6.4823079
 50
233.99167
 51
306.00832
  0
ARC
  8
0
  6
CONTINUOUS
 62
     7
 10
-0.33551136
 20
65.394356
 40
7.6823077
 50
233.99167
 51
265.52055
  0
ARC
  8
0
  6
CONTINUOUS
 62
     7
 10
-0.33551136
 20
67.642052
 40
0.75
 50
36.869897
 51
143.1301
  0
ARC
  8
0
  6
CONTINUOUS
 62
     7
 10
-0.33551136
 20
62.542042
 40
0.75
 50
216.8699
 51
323.13009
  0
ARC
  8
0
  6
CONTINUOUS
 62
     7
 10
-0.33551136
 20
56.542042
 40
0.75
 50
216.8699
 51
323.13009
  0
ARC
  8
0
  6
CONTINUOUS
 62
     7
 10
-0.33551136
 20
58.789738
 40
6.4823079
 50
95.310878
 51
126.00833
  0
ARC
  8
0
  6
CONTINUOUS
 62
     7
 10
-0.33551136
 20
58.789738
 40
7.6823077
 50
94.479452
 51
126.00833
  0
ARC
  8
0
  6
CONTINUOUS
 62
     7
 10
-0.33551136
 20
65.394356
 40
7.6823077
 50
274.47945
 51
306.00833
  0
ARC
  8
0
  6
CONTINUOUS
 62
     7
 10
138.89687
 20
56.330681
 40
2.4000001
 50
306.00833
 51
53.991676
  0
ARC
  8
0
  6
CONTINUOUS
 62
     7
 10
138.89687
 20
56.330681
 40
3.5999999
 50
306.00833
 51
53.991676
  0
ARC
  8
0
  6
CONTINUOUS
 62
     7
 10
134.09688
 20
56.330681
 40
2.4000001
 50
126.00833
 51
233.99168
  0
ARC
  8
0
  6
CONTINUOUS
 62
     7
 10
134.09688
 20
56.330681
 40
3.5999999
 50
126.00833
 51
233.99168
  0
ARC
  8
0
  6
CONTINUOUS
 62
     7
 10
136.49687
 20
53.028374
 40
7.6823077
 50
53.991676
 51
85.520553
  0
ARC
  8
0
  6
CONTINUOUS
 62
     7
 10
136.49687
 20
53.028374
 40
6.4823079
 50
53.991676
 51
84.689121
  0
ARC
  8
0
  6
CONTINUOUS
 62
     7
 10
136.49687
 20
59.632988
 40
6.4823079
 50
233.99167
 51
306.00832
  0
ARC
  8
0
  6
CONTINUOUS
 62
     7
 10
136.49687
 20
59.632988
 40
7.6823077
 50
233.99167
 51
265.52055
  0
ARC
  8
0
  6
CONTINUOUS
 62
     7
 10
136.49687
 20
61.880684
 40
0.75
 50
36.869897
 51
143.1301
  0
ARC
  8
0
  6
CONTINUOUS
 62
     7
 10
136.49687
 20
56.780678
 40
0.75
 50
216.8699
 51
323.13009
  0
ARC
  8
0
  6
CONTINUOUS
 62
     7
 10
136.49687
 20
50.780678
 40
0.75
 50
216.8699
 51
323.13009
  0
ARC
  8
0
  6
CONTINUOUS
 62
     7
 10
136.49687
 20
53.028374
 40
6.4823079
 50
95.310878
 51
126.00833
  0
ARC
  8
0
  6
CONTINUOUS
 62
     7
 10
136.49687
 20
53.028374
 40
7.6823077
 50
94.479452
 51
126.00833
  0
ARC
  8
0
  6
CONTINUOUS
 62
     7
 10
136.49687
 20
59.632988
 40
7.6823077
 50
274.47945
 51
306.00833
  0
ARC
  8
0
  6
CONTINUOUS
 62
     7
 10
-52.589508
 20
-127.89014
 40
3
 50
306.00833
 51
53.991676
  0
ARC
  8
0
  6
CONTINUOUS
 62
     7
 10
-52.589508
 20
-127.89014
 40
4.5
 50
306.00833
 51
53.991676
  0
ARC
  8
0
  6
CONTINUOUS
 62
     7
 10
-58.589508
 20
-127.89014
 40
3
 50
126.00833
 51
233.99168
  0
ARC
  8
0
  6
CONTINUOUS
 62
     7
 10
-58.589508
 20
-127.89014
 40
4.5
 50
126.00833
 51
233.99168
  0
ARC
  8
0
  6
CONTINUOUS
 62
     7
 10
-55.589508
 20
-132.01802
 40
9.6028843
 50
53.991676
 51
85.520553
  0
ARC
  8
0
  6
CONTINUOUS
 62
     7
 10
-55.589508
 20
-132.01802
 40
8.1028843
 50
53.991676
 51
84.689121
  0
ARC
  8
0
  6
CONTINUOUS
 62
     7
 10
-55.589508
 20
-123.76225
 40
8.1028843
 50
233.99167
 51
306.00832
  0
ARC
  8
0
  6
CONTINUOUS
 62
     7
 10
-55.589508
 20
-123.76225
 40
9.6028843
 50
233.99167
 51
265.52055
  0
ARC
  8
0
  6
CONTINUOUS
 62
     7
 10
-55.589508
 20
-120.95264
 40
0.9375
 50
36.869897
 51
143.1301
  0
ARC
  8
0
  6
CONTINUOUS
 62
     7
 10
-55.589508
 20
-127.32764
 40
0.9375
 50
216.8699
 51
323.13009
  0
ARC
  8
0
  6
CONTINUOUS
 62
     7
 10
-55.589508
 20
-134.82764
 40
0.9375
 50
216.8699
 51
323.13009
  0
ARC
  8
0
  6
CONTINUOUS
 62
     7
 10
-55.589508
 20
-132.01802
 40
9.6028843
 50
94.479452
 51
126.00833
  0
ARC
  8
0
  6
CONTINUOUS
 62
     7
 10
-55.589508
 20
-132.01802
 40
8.1028843
 50
95.310878
 51
126.00833
  0
ARC
  8
0
  6
CONTINUOUS
 62
     7
 10
-55.589508
 20
-123.76225
 40
9.6028843
 50
274.47945
 51
306.00833
  0
ARC
  8
0
  6
CONTINUOUS
 62
     7
 10
-97.912407
 20
-466.23248
 40
3.5999999
 50
306.00833
 51
53.991676
  0
ARC
  8
0
  6
CONTINUOUS
 62
     7
 10
-97.912407
 20
-466.23248
 40
5.4000001
 50
306.00833
 51
53.991676
  0
ARC
  8
0
  6
CONTINUOUS
 62
     7
 10
-105.11242
 20
-466.23248
 40
3.5999999
 50
126.00833
 51
233.99168
  0
ARC
  8
0
  6
CONTINUOUS
 62
     7
 10
-105.11242
 20
-466.23248
 40
5.4000001
 50
126.00833
 51
233.99168
  0
ARC
  8
0
  6
CONTINUOUS
 62
     7
 10
-101.51244
 20
-471.18597
 40
11.523461
 50
53.991676
 51
85.520553
  0
ARC
  8
0
  6
CONTINUOUS
 62
     7
 10
-101.51244
 20
-471.18597
 40
9.7234612
 50
53.991676
 51
84.689121
  0
ARC
  8
0
  6
CONTINUOUS
 62
     7
 10
-101.51244
 20
-461.27905
 40
9.7234612
 50
233.99167
 51
306.00832
  0
ARC
  8
0
  6
CONTINUOUS
 62
     7
 10
-101.51244
 20
-461.27905
 40
11.523461
 50
233.99167
 51
265.52055
  0
ARC
  8
0
  6
CONTINUOUS
 62
     7
 10
-101.51244
 20
-457.90747
 40
1.125
 50
36.869897
 51
143.1301
  0
ARC
  8
0
  6
CONTINUOUS
 62
     7
 10
-101.51244
 20
-465.5575
 40
1.125
 50
216.8699
 51
323.13009
  0
ARC
  8
0
  6
CONTINUOUS
 62
     7
 10
-101.51244
 20
-474.5575
 40
1.125
 50
216.8699
 51
323.13009
  0
ARC
  8
0
  6
CONTINUOUS
 62
     7
 10
-101.51244
 20
-471.18597
 40
11.523461
 50
94.479452
 51
126.00833
  0
ARC
  8
0
  6
CONTINUOUS
 62
     7
 10
-101.51244
 20
-471.18597
 40
9.7234612
 50
95.310878
 51
126.00833
  0
ARC
  8
0
  6
CONTINUOUS
 62
     7
 10
-101.51244
 20
-461.27905
 40
11.523461
 50
274.47945
 51
306.00833
  0
TEXT
  8
0
  6
CONTINUOUS
 62
     7
 10
94.253567
 20
168.25
 40
10
 41
0.85124967
  1
１１／４
  0
TEXT
  8
0
  6
CONTINUOUS
 62
     7
 10
-248.77752
 20
-6.8606077
 40
10
 41
0.85124967
  1
１１／２
  0
TEXT
  8
0
  6
CONTINUOUS
 62
     7
 10
-78.517277
 20
-8.0884459
 40
10
 41
0.90036056
  1
２
  0
TEXT
  8
0
  6
CONTINUOUS
 62
     7
 10
410.72477
 20
96.779747
 40
10
 41
0.85124967
  1
２１／２
  0
TEXT
  8
0
  6
CONTINUOUS
 62
     7
 10
630.37266
 20
107.05196
 40
10
 41
0.90036056
  1
３
  0
TEXT
  8
0
  6
CONTINUOUS
 62
     7
 10
-144.61354
 20
-286.37778
 40
10
 41
0.90036056
  1
４
  0
TEXT
  8
0
  6
CONTINUOUS
 62
     7
 10
-112.48413
 20
180.52132
 40
10
 41
0.85426334
  1
ＲＣＦ－ＭＫ－４５%%Dエルボ
  0
TEXT
  8
0
  6
CONTINUOUS
 62
     7
 10
-220.22142
 20
156.35001
 40
10
 41
1.0178572
  1
1/2
  0
TEXT
  8
0
  6
CONTINUOUS
 62
     7
 10
-122.57143
 20
157.39999
 40
10
 41
1.0178573
  1
3/4
  0
TEXT
  8
0
  6
CONTINUOUS
 62
     7
 10
-11.97143
 20
150.05
 40
10
 41
1.0714291
  1
1
  0
ENDSEC
  0
EOF
