  0
SECTION
  2
HEADER
  9
$EXTMAX
 10
0
 20
297
  9
$EXTMIN
 10
-210
 20
0
  0
ENDSEC
  0
SECTION
  2
TABLES
  0
TABLE
  2
LTYPE
 70
    22
  0
LTYPE
  2
CONTINUOUS
 70
    64
  3
Solid line
 72
    65
 73
     0
 40
0.000000
  0
LTYPE
  2
DASHED
 70
    64
  3
__ __ __ __ __ __ __ __ __ __ __ __ __ __ __
 72
    65
 73
     2
 40
3.500000
 49
2.000000
 49
-1.500000
  0
LTYPE
  2
CENTER
 70
    64
  3
____ _ ____ _ ____ _ ____ _ ____ _ ____ _ ____
 72
    65
 73
     4
 40
17.500000
 49
13.000000
 49
-1.500000
 49
1.500000
 49
-1.500000
  0
LTYPE
  2
PHANTOM
 70
    64
  3
_____ _ _ _____ _ _ _____ _ _ _____ _ _ ____  
 72
    65
 73
     6
 40
15.500000
 49
8.000000
 49
-1.500000
 49
1.500000
 49
-1.500000
 49
1.500000
 49
-1.500000
  0
LTYPE
  2
DOT
 70
    64
  3
. . . . . . . . . . . . . . . . . . . . . . . .
 72
    65
 73
     2
 40
0.25
 49
0.0
 49
-0.25
  0
ENDTAB
  0
TABLE
  2
LAYER
 70
     2
  0
LAYER
  2
0
 70
     0
 62
     7
  6
CONTINUOUS
  0
LAYER
  2
1
 70
     0
 62
     7
  6
CONTINUOUS
  0
ENDTAB
  0
TABLE
  2
STYLE
 70
     1
  0
STYLE
  2
STANDARD
 70
     0
 40
0.000000
 41
1.000000
 50
0.000000
 71
     0
 42
0.200000
  3
txt
  4
BIGFONT
  0
ENDTAB
  0
TABLE
  2
VIEW
 70
     0
  0
ENDTAB
  0
ENDSEC
  0
SECTION
  2
BLOCKS
  0
ENDSEC
  0
SECTION
  2
ENTITIES
  0
POINT
  8
0
  6
CONTINUOUS
 62
     7
 10
-111.57174
 20
186.41396
  0
POINT
  8
0
  6
CONTINUOUS
 62
     7
 10
-111.57174
 20
109.61658
  0
POINT
  8
0
  6
CONTINUOUS
 62
     7
 10
-111.57174
 20
109.61658
  0
LINE
  8
0
  6
CONTINUOUS
 62
     7
 10
-127.89674
 20
93.11657
 11
-127.89674
 21
77.616577
  0
LINE
  8
0
  6
CONTINUOUS
 62
     7
 10
-127.89674
 20
77.616577
 11
-94.896744
 21
77.616577
  0
LINE
  8
0
  6
CENTER
 62
     7
 10
-111.57174
 20
221.80554
 11
-111.57174
 21
150.62018
  0
LINE
  8
0
  6
CONTINUOUS
 62
     7
 10
-94.896744
 20
89.116562
 11
-94.896744
 21
77.616577
  0
LINE
  8
0
  6
CONTINUOUS
 62
     7
 10
-102.19791
 20
169.91396
 11
-79.571739
 21
169.91396
  0
LINE
  8
0
  6
CONTINUOUS
 62
     7
 10
-79.571739
 20
173.41396
 11
-76.61721
 21
173.41396
  0
LINE
  8
0
  6
CONTINUOUS
 62
     7
 10
-76.61721
 20
199.41396
 11
-76.61721
 21
173.41396
  0
LINE
  8
0
  6
CONTINUOUS
 62
     7
 10
-79.571739
 20
199.41396
 11
-76.61721
 21
199.41396
  0
LINE
  8
0
  6
CONTINUOUS
 62
     7
 10
-102.1979
 20
202.91394
 11
-79.571739
 21
202.91394
  0
LINE
  8
0
  6
CONTINUOUS
 62
     7
 10
-123.89674
 20
127.61657
 11
-99.071739
 21
127.61657
  0
LINE
  8
0
  6
CONTINUOUS
 62
     7
 10
-123.89674
 20
127.61657
 11
-123.89674
 21
108.86459
  0
LINE
  8
0
  6
CONTINUOUS
 62
     7
 10
-123.89674
 20
122.48933
 11
-99.071739
 21
122.48933
  0
LINE
  8
0
  6
CENTER
 62
     7
 10
-134.93509
 20
109.61658
 11
-71.61721
 21
109.61658
  0
LINE
  8
0
  6
CONTINUOUS
 62
     7
 10
-99.071739
 20
127.61657
 11
-99.071739
 21
122.48933
  0
LINE
  8
0
  6
CONTINUOUS
 62
     7
 10
-79.571739
 20
202.91394
 11
-79.571739
 21
169.91396
  0
LINE
  8
0
  6
CENTER
 62
     7
 10
-138.34933
 20
186.41396
 11
-71.185745
 21
186.41396
  0
LINE
  8
0
  6
CENTER
 62
     7
 10
-124.67531
 20
163.41396
 11
-97.729439
 21
163.41396
  0
LINE
  8
0
  6
CENTER
 62
     7
 10
-124.67531
 20
209.41396
 11
-98.131615
 21
209.41396
  0
LINE
  8
0
  6
CONTINUOUS
 62
     7
 10
-124.07174
 20
186.41395
 11
-119.43191
 21
210.90317
  0
LINE
  8
0
  6
CONTINUOUS
 62
     7
 10
-99.071743
 20
186.41395
 11
-103.71158
 21
210.90318
  0
LINE
  8
0
  6
CONTINUOUS
 62
     7
 10
-124.07174
 20
186.41396
 11
-119.43191
 21
161.92472
  0
LINE
  8
0
  6
CONTINUOUS
 62
     7
 10
-99.071744
 20
186.41396
 11
-103.71158
 21
161.92473
  0
LINE
  8
0
  6
CENTER
 62
     7
 10
-111.57174
 20
132.12003
 11
-111.57174
 21
72.616577
  0
LINE
  8
0
  6
CONTINUOUS
 62
     7
 10
-95.50103
 20
126.11657
 11
-79.571739
 21
126.11657
  0
LINE
  8
0
  6
CONTINUOUS
 62
     7
 10
-90.896744
 20
93.11657
 11
-79.571739
 21
93.11657
  0
LINE
  8
0
  6
CONTINUOUS
 62
     7
 10
-79.571739
 20
126.11657
 11
-79.571739
 21
93.11657
  0
LINE
  8
0
  6
CONTINUOUS
 62
     7
 10
-79.571739
 20
122.61658
 11
-76.61721
 21
122.61658
  0
LINE
  8
0
  6
CONTINUOUS
 62
     7
 10
-76.61721
 20
122.61658
 11
-76.61721
 21
96.616577
  0
LINE
  8
0
  6
CONTINUOUS
 62
     7
 10
-79.571739
 20
96.616577
 11
-76.61721
 21
96.616577
  0
LINE
  8
0
  6
CONTINUOUS
 62
     7
 10
-81.62867
 20
202.91394
 11
-81.62867
 21
169.91396
  0
LINE
  8
0
  6
CONTINUOUS
 62
     7
 10
-88.62867
 20
202.91394
 11
-88.62867
 21
169.91396
  0
LINE
  8
0
  6
CONTINUOUS
 62
     7
 10
-88.62867
 20
126.11657
 11
-88.62867
 21
93.11657
  0
LINE
  8
0
  6
CONTINUOUS
 62
     7
 10
-81.62867
 20
126.11657
 11
-81.62867
 21
93.11657
  0
LINE
  8
0
  6
CONTINUOUS
 62
     7
 10
-109.60278
 20
108.28403
 11
-108.7312
 21
107.41245
  0
LINE
  8
0
  6
CONTINUOUS
 62
     7
 10
-110.23918
 20
107.64764
 11
-109.36759
 21
106.77605
  0
LINE
  8
0
  6
CONTINUOUS
 62
     7
 10
-104.74678
 20
102.15524
 11
-103.87521
 21
101.28368
  0
LINE
  8
0
  6
CONTINUOUS
 62
     7
 10
-104.11038
 20
102.79163
 11
-103.23882
 21
101.92007
  0
LINE
  8
0
  6
CONTINUOUS
 62
     7
 10
-108.72887
 20
106.13734
 11
-107.0572
 21
104.46566
  0
LINE
  8
0
  6
CONTINUOUS
 62
     7
 10
-108.09248
 20
106.77373
 11
-106.4208
 21
105.10205
  0
ARC
  8
0
  6
CONTINUOUS
 62
     7
 10
-90.896744
 20
89.116562
 40
4
 50
90.000003
 51
180.00001
  0
ARC
  8
0
  6
CONTINUOUS
 62
     7
 10
-119.40139
 20
119.48933
 40
3
 50
312.89717
 51
90.000003
  0
ARC
  8
0
  6
CONTINUOUS
 62
     7
 10
-94.896744
 20
93.11657
 40
33
 50
90.000003
 51
97.26826
  0
ARC
  8
0
  6
CONTINUOUS
 62
     7
 10
-94.896744
 20
93.11657
 40
33
 50
117.11627
 51
180.00001
  0
ARC
  8
0
  6
CONTINUOUS
 62
     7
 10
-95.50103
 20
131.11656
 40
5
 50
224.427
 51
270
  0
ARC
  8
0
  6
CONTINUOUS
 62
     7
 10
-111.57174
 20
163.41396
 40
8
 50
190.72834
 51
0
  0
CIRCLE
  8
0
  6
CONTINUOUS
 62
     7
 10
-111.57174
 20
163.41396
 40
3
  0
ARC
  8
0
  6
CONTINUOUS
 62
     7
 10
-111.57174
 20
209.41396
 40
8
 50
0
 51
169.27166
  0
CIRCLE
  8
0
  6
CONTINUOUS
 62
     7
 10
-111.57174
 20
209.41396
 40
3
  0
ARC
  8
0
  6
CONTINUOUS
 62
     7
 10
-111.57174
 20
186.41396
 40
16.325001
 50
128.0628
 51
231.93719
  0
ARC
  8
0
  6
CONTINUOUS
 62
     7
 10
-104.98768
 20
103.03253
 40
4.8617306
 50
140.31088
 51
171.00833
  0
ARC
  8
0
  6
CONTINUOUS
 62
     7
 10
-108.4903
 20
106.53516
 40
5.7617307
 50
319.47945
 51
351.00832
  0
ARC
  8
0
  6
CONTINUOUS
 62
     7
 10
-105.46619
 20
106.05664
 40
1.8
 50
351.00832
 51
98.991673
  0
ARC
  8
0
  6
CONTINUOUS
 62
     7
 10
-105.46619
 20
106.05664
 40
2.7
 50
351.00832
 51
98.991673
  0
ARC
  8
0
  6
CONTINUOUS
 62
     7
 10
-108.01177
 20
103.51105
 40
1.8
 50
171.00833
 51
278.99167
  0
ARC
  8
0
  6
CONTINUOUS
 62
     7
 10
-108.01177
 20
103.51105
 40
2.7
 50
171.00833
 51
278.99167
  0
ARC
  8
0
  6
CONTINUOUS
 62
     7
 10
-104.98768
 20
103.03253
 40
5.7617307
 50
98.991673
 51
130.52056
  0
ARC
  8
0
  6
CONTINUOUS
 62
     7
 10
-104.98768
 20
103.03253
 40
4.8617306
 50
98.991673
 51
129.68912
  0
ARC
  8
0
  6
CONTINUOUS
 62
     7
 10
-108.4903
 20
106.53516
 40
4.8617306
 50
278.99167
 51
351.00832
  0
ARC
  8
0
  6
CONTINUOUS
 62
     7
 10
-108.4903
 20
106.53516
 40
5.7617307
 50
278.99167
 51
310.52055
  0
ARC
  8
0
  6
CONTINUOUS
 62
     7
 10
-109.68232
 20
107.72717
 40
0.5625
 50
81.869899
 51
188.1301
  0
ARC
  8
0
  6
CONTINUOUS
 62
     7
 10
-106.97764
 20
105.02249
 40
0.5625
 50
261.8699
 51
8.1301031
  0
ARC
  8
0
  6
CONTINUOUS
 62
     7
 10
-103.79566
 20
101.84052
 40
0.5625
 50
261.8699
 51
8.1301031
  0
ARC
  8
0
  6
CONTINUOUS
 62
     7
 10
-104.98768
 20
103.03253
 40
5.7617307
 50
139.47946
 51
171.00833
  0
TEXT
  8
0
  6
CONTINUOUS
 62
     7
 10
-186.56013
 20
276.28214
 40
5
 41
0.84210156
  1
ＲＣＦ－Ｋ　ＺＷＴＬ（給水栓用　座付きエルボ）
  0
TEXT
  8
0
  6
CONTINUOUS
 62
     7
 10
-178.77444
 20
232.97818
 40
5
 41
0.84633858
  1
３／４Ｘ１／２
  0
TEXT
  8
0
  6
CONTINUOUS
 62
     7
 10
-83.310767
 20
93.508708
 40
3.2
 41
0.84447575
  1
１／２　器具側　１３
 50
90.000003
  0
TEXT
  8
0
  6
CONTINUOUS
 62
     7
 10
-83.61003
 20
170.12127
 40
3.2
 41
0.84447575
  1
１／２　器具側　１３
 50
90.000003
  0
POINT
  8
1
  6
CONTINUOUS
 62
     7
 10
-210
 20
0
  0
POINT
  8
1
  6
CONTINUOUS
 62
     7
 10
0
 20
0
  0
POINT
  8
1
  6
CONTINUOUS
 62
     7
 10
0
 20
0
  0
POINT
  8
1
  6
CONTINUOUS
 62
     7
 10
-210
 20
297
  0
POINT
  8
1
  6
CONTINUOUS
 62
     7
 10
-210
 20
0
  0
POINT
  8
1
  6
CONTINUOUS
 62
     7
 10
0
 20
0
  0
POINT
  8
1
  6
CONTINUOUS
 62
     7
 10
0
 20
297
  0
LINE
  8
1
  6
CONTINUOUS
 62
     7
 10
-210
 20
0
 11
0
 21
0
  0
LINE
  8
1
  6
CONTINUOUS
 62
     7
 10
-210
 20
297
 11
0
 21
297
  0
LINE
  8
1
  6
CONTINUOUS
 62
     7
 10
0
 20
297
 11
0
 21
0
  0
LINE
  8
1
  6
CONTINUOUS
 62
     7
 10
-210
 20
297
 11
-210
 21
0
  0
ENDSEC
  0
EOF
