  0
SECTION
  2
HEADER
  9
$EXTMAX
 10
0
 20
297
  9
$EXTMIN
 10
-210
 20
0
  0
ENDSEC
  0
SECTION
  2
TABLES
  0
TABLE
  2
LTYPE
 70
    22
  0
LTYPE
  2
CONTINUOUS
 70
    64
  3
Solid line
 72
    65
 73
     0
 40
0.000000
  0
LTYPE
  2
DASHED
 70
    64
  3
__ __ __ __ __ __ __ __ __ __ __ __ __ __ __
 72
    65
 73
     2
 40
3.500000
 49
2.000000
 49
-1.500000
  0
LTYPE
  2
CENTER
 70
    64
  3
____ _ ____ _ ____ _ ____ _ ____ _ ____ _ ____
 72
    65
 73
     4
 40
17.500000
 49
13.000000
 49
-1.500000
 49
1.500000
 49
-1.500000
  0
LTYPE
  2
PHANTOM
 70
    64
  3
_____ _ _ _____ _ _ _____ _ _ _____ _ _ ____  
 72
    65
 73
     6
 40
15.500000
 49
8.000000
 49
-1.500000
 49
1.500000
 49
-1.500000
 49
1.500000
 49
-1.500000
  0
LTYPE
  2
DOT
 70
    64
  3
. . . . . . . . . . . . . . . . . . . . . . . .
 72
    65
 73
     2
 40
0.25
 49
0.0
 49
-0.25
  0
ENDTAB
  0
TABLE
  2
LAYER
 70
     2
  0
LAYER
  2
0
 70
     0
 62
     7
  6
CONTINUOUS
  0
LAYER
  2
1
 70
     0
 62
     7
  6
CONTINUOUS
  0
ENDTAB
  0
TABLE
  2
STYLE
 70
     1
  0
STYLE
  2
STANDARD
 70
     0
 40
0.000000
 41
1.000000
 50
0.000000
 71
     0
 42
0.200000
  3
txt
  4
BIGFONT
  0
ENDTAB
  0
TABLE
  2
VIEW
 70
     0
  0
ENDTAB
  0
ENDSEC
  0
SECTION
  2
BLOCKS
  0
ENDSEC
  0
SECTION
  2
ENTITIES
  0
POINT
  8
0
  6
CONTINUOUS
 62
     7
 10
-124.62976
 20
227.66437
  0
POINT
  8
0
  6
CONTINUOUS
 62
     7
 10
-125.3
 20
157.85001
  0
POINT
  8
0
  6
CONTINUOUS
 62
     7
 10
-127.05
 20
71.050003
  0
POINT
  8
0
  6
CONTINUOUS
 62
     7
 10
-82.336082
 20
157.88522
  0
LINE
  8
0
  6
CONTINUOUS
 62
     7
 10
-124.62976
 20
241.16437
 11
-124.62976
 21
214.16437
  0
LINE
  8
0
  6
CENTER
 62
     7
 10
-129.62975
 20
227.66437
 11
-78.85022
 21
227.66437
  0
LINE
  8
0
  6
CONTINUOUS
 62
     7
 10
-124.62976
 20
214.16437
 11
-109.61316
 21
214.16437
  0
LINE
  8
0
  6
CONTINUOUS
 62
     7
 10
-102.26468
 20
211.16437
 11
-86.629761
 21
211.16437
  0
LINE
  8
0
  6
CONTINUOUS
 62
     7
 10
-101.62976
 20
209.66437
 11
-94.629761
 21
209.66437
  0
LINE
  8
0
  6
CONTINUOUS
 62
     7
 10
-93.629761
 20
210.66437
 11
-93.629761
 21
211.16437
  0
LINE
  8
0
  6
CONTINUOUS
 62
     7
 10
-86.629761
 20
214.66437
 11
-83.85022
 21
214.66437
  0
LINE
  8
0
  6
CONTINUOUS
 62
     7
 10
-83.85022
 20
240.66437
 11
-83.85022
 21
214.66437
  0
LINE
  8
0
  6
CONTINUOUS
 62
     7
 10
-86.629761
 20
240.66437
 11
-83.85022
 21
240.66437
  0
LINE
  8
0
  6
CONTINUOUS
 62
     7
 10
-86.629761
 20
244.16437
 11
-86.629761
 21
211.16437
  0
LINE
  8
0
  6
CONTINUOUS
 62
     7
 10
-102.26468
 20
244.16437
 11
-86.629761
 21
244.16437
  0
LINE
  8
0
  6
CONTINUOUS
 62
     7
 10
-93.629761
 20
244.66437
 11
-93.629761
 21
244.16437
  0
LINE
  8
0
  6
CONTINUOUS
 62
     7
 10
-101.62976
 20
245.66437
 11
-94.629761
 21
245.66437
  0
LINE
  8
0
  6
CONTINUOUS
 62
     7
 10
-124.62976
 20
241.16437
 11
-109.61316
 21
241.16437
  0
LINE
  8
0
  6
CONTINUOUS
 62
     7
 10
-125.3
 20
141.35001
 11
-125.3
 21
174.35001
  0
LINE
  8
0
  6
CONTINUOUS
 62
     7
 10
-125.3
 20
174.35001
 11
-112.3
 21
174.35001
  0
LINE
  8
0
  6
CONTINUOUS
 62
     7
 10
-98.300003
 20
180.35001
 11
-91.300003
 21
180.35001
  0
LINE
  8
0
  6
CONTINUOUS
 62
     7
 10
-100.3
 20
178.35001
 11
-83.300003
 21
178.35001
  0
LINE
  8
0
  6
CONTINUOUS
 62
     7
 10
-83.300003
 20
178.35001
 11
-83.300003
 21
137.35001
  0
LINE
  8
0
  6
CONTINUOUS
 62
     7
 10
-83.300003
 20
174.10001
 11
-80.674515
 21
174.10001
  0
LINE
  8
0
  6
CONTINUOUS
 62
     7
 10
-80.674515
 20
174.10001
 11
-80.674515
 21
141.60001
  0
LINE
  8
0
  6
CONTINUOUS
 62
     7
 10
-83.300003
 20
141.60001
 11
-80.674515
 21
141.60001
  0
LINE
  8
0
  6
CONTINUOUS
 62
     7
 10
-100.3
 20
137.35001
 11
-83.300003
 21
137.35001
  0
LINE
  8
0
  6
CONTINUOUS
 62
     7
 10
-98.300003
 20
135.35001
 11
-91.300003
 21
135.35001
  0
LINE
  8
0
  6
CONTINUOUS
 62
     7
 10
-125.3
 20
141.35001
 11
-112.3
 21
141.35001
  0
LINE
  8
0
  6
CENTER
 62
     7
 10
-130.3
 20
157.85001
 11
-75.674515
 21
157.85001
  0
LINE
  8
0
  6
CONTINUOUS
 62
     7
 10
-127.05
 20
91.550003
 11
-127.05
 21
50.550003
  0
LINE
  8
0
  6
CONTINUOUS
 62
     7
 10
-110.05
 20
91.550003
 11
-127.05
 21
91.550003
  0
LINE
  8
0
  6
CONTINUOUS
 62
     7
 10
-98.050003
 20
97.550003
 11
-87.050003
 21
97.550003
  0
LINE
  8
0
  6
CONTINUOUS
 62
     7
 10
-97.220688
 20
96.050003
 11
-79.050003
 21
96.050003
  0
LINE
  8
0
  6
CONTINUOUS
 62
     7
 10
-87.050003
 20
97.550003
 11
-87.050003
 21
96.050003
  0
LINE
  8
0
  6
CONTINUOUS
 62
     7
 10
-79.050003
 20
96.050003
 11
-79.050003
 21
46.050003
  0
LINE
  8
0
  6
CONTINUOUS
 62
     7
 10
-79.050003
 20
91.800003
 11
-76.25499
 21
91.800003
  0
LINE
  8
0
  6
CONTINUOUS
 62
     7
 10
-76.25499
 20
91.800003
 11
-76.25499
 21
50.300003
  0
LINE
  8
0
  6
CONTINUOUS
 62
     7
 10
-79.050003
 20
50.300003
 11
-76.25499
 21
50.300003
  0
LINE
  8
0
  6
CONTINUOUS
 62
     7
 10
-87.050003
 20
44.550003
 11
-87.050003
 21
46.050003
  0
LINE
  8
0
  6
CONTINUOUS
 62
     7
 10
-98.050003
 20
44.550003
 11
-87.050003
 21
44.550003
  0
LINE
  8
0
  6
CONTINUOUS
 62
     7
 10
-97.220688
 20
46.050003
 11
-79.050003
 21
46.050003
  0
LINE
  8
0
  6
CONTINUOUS
 62
     7
 10
-111.05
 20
50.550003
 11
-127.05
 21
50.550003
  0
LINE
  8
0
  6
CENTER
 62
     7
 10
-132.05
 20
71.050003
 11
-71.25499
 21
71.050003
  0
LINE
  8
0
  6
CONTINUOUS
 62
     7
 10
-87.849998
 20
244.16437
 11
-87.849998
 21
211.16437
  0
LINE
  8
0
  6
CONTINUOUS
 62
     7
 10
-94.849998
 20
244.16437
 11
-94.849998
 21
211.16437
  0
LINE
  8
0
  6
CONTINUOUS
 62
     7
 10
-84.349998
 20
178.35001
 11
-84.349998
 21
137.35001
  0
LINE
  8
0
  6
CONTINUOUS
 62
     7
 10
-91.349998
 20
178.35001
 11
-91.349998
 21
137.35001
  0
LINE
  8
0
  6
CONTINUOUS
 62
     7
 10
-80.150002
 20
96.050003
 11
-80.150002
 21
46.050003
  0
LINE
  8
0
  6
CONTINUOUS
 62
     7
 10
-87.150002
 20
96.050003
 11
-87.150002
 21
46.050003
  0
LINE
  8
0
  6
CONTINUOUS
 62
     7
 10
-97.683815
 20
230.82442
 11
-97.683815
 21
230.00269
  0
LINE
  8
0
  6
CONTINUOUS
 62
     7
 10
-98.283821
 20
230.82442
 11
-98.283821
 21
230.00269
  0
LINE
  8
0
  6
CONTINUOUS
 62
     7
 10
-98.283821
 20
225.64615
 11
-98.283821
 21
224.82442
  0
LINE
  8
0
  6
CONTINUOUS
 62
     7
 10
-97.683815
 20
225.64615
 11
-97.683815
 21
224.82442
  0
LINE
  8
0
  6
CONTINUOUS
 62
     7
 10
-98.283821
 20
229.4005
 11
-98.283821
 21
227.82442
  0
LINE
  8
0
  6
CONTINUOUS
 62
     7
 10
-97.683815
 20
229.4005
 11
-97.683815
 21
227.82442
  0
LINE
  8
0
  6
CONTINUOUS
 62
     7
 10
-91.556526
 20
75.652267
 11
-91.556526
 21
74.419662
  0
LINE
  8
0
  6
CONTINUOUS
 62
     7
 10
-92.456551
 20
75.652267
 11
-92.456551
 21
74.419662
  0
LINE
  8
0
  6
CONTINUOUS
 62
     7
 10
-92.456551
 20
67.884872
 11
-92.456551
 21
66.652267
  0
LINE
  8
0
  6
CONTINUOUS
 62
     7
 10
-91.556526
 20
67.884872
 11
-91.556526
 21
66.652267
  0
LINE
  8
0
  6
CONTINUOUS
 62
     7
 10
-92.456551
 20
73.516403
 11
-92.456551
 21
71.152267
  0
LINE
  8
0
  6
CONTINUOUS
 62
     7
 10
-91.556526
 20
73.516403
 11
-91.556526
 21
71.152267
  0
LINE
  8
0
  6
CONTINUOUS
 62
     7
 10
-95.301414
 20
162.4568
 11
-95.301414
 21
161.2242
  0
LINE
  8
0
  6
CONTINUOUS
 62
     7
 10
-96.201439
 20
162.4568
 11
-96.201439
 21
161.2242
  0
LINE
  8
0
  6
CONTINUOUS
 62
     7
 10
-96.201439
 20
154.68941
 11
-96.201439
 21
153.4568
  0
LINE
  8
0
  6
CONTINUOUS
 62
     7
 10
-95.301414
 20
154.68941
 11
-95.301414
 21
153.4568
  0
LINE
  8
0
  6
CONTINUOUS
 62
     7
 10
-96.201439
 20
160.32094
 11
-96.201439
 21
157.9568
  0
LINE
  8
0
  6
CONTINUOUS
 62
     7
 10
-95.301414
 20
160.32094
 11
-95.301414
 21
157.9568
  0
ARC
  8
0
  6
CONTINUOUS
 62
     7
 10
-109.61316
 20
206.66437
 40
7.5
 50
45.584693
 51
90.000003
  0
ARC
  8
0
  6
CONTINUOUS
 62
     7
 10
-102.26468
 20
214.16437
 40
3
 50
225.58469
 51
270
  0
ARC
  8
0
  6
CONTINUOUS
 62
     7
 10
-101.62976
 20
214.66437
 40
5
 50
193.67558
 51
270
  0
ARC
  8
0
  6
CONTINUOUS
 62
     7
 10
-94.629761
 20
210.66437
 40
1
 50
270
 51
0
  0
ARC
  8
0
  6
CONTINUOUS
 62
     7
 10
-94.629761
 20
244.66437
 40
1
 50
0
 51
90.000003
  0
ARC
  8
0
  6
CONTINUOUS
 62
     7
 10
-101.62976
 20
240.66437
 40
5
 50
90.000003
 51
166.32442
  0
ARC
  8
0
  6
CONTINUOUS
 62
     7
 10
-102.26468
 20
241.16437
 40
3
 50
90.000003
 51
134.41531
  0
ARC
  8
0
  6
CONTINUOUS
 62
     7
 10
-109.61316
 20
248.66437
 40
7.5
 50
270
 51
314.41531
  0
ARC
  8
0
  6
CONTINUOUS
 62
     7
 10
-112.3
 20
184.35001
 40
10
 50
270
 51
306.8699
  0
ARC
  8
0
  6
CONTINUOUS
 62
     7
 10
-100.3
 20
168.35001
 40
10
 50
90.000003
 51
126.8699
  0
ARC
  8
0
  6
CONTINUOUS
 62
     7
 10
-98.300003
 20
175.35001
 40
5
 50
90.000003
 51
146.46522
  0
ARC
  8
0
  6
CONTINUOUS
 62
     7
 10
-91.300003
 20
179.35001
 40
1
 50
0
 51
90.000003
  0
ARC
  8
0
  6
CONTINUOUS
 62
     7
 10
-89.300003
 20
179.35001
 40
1
 50
179.99999
 51
270
  0
ARC
  8
0
  6
CONTINUOUS
 62
     7
 10
-89.300003
 20
136.35001
 40
1
 50
90.000003
 51
180.00001
  0
ARC
  8
0
  6
CONTINUOUS
 62
     7
 10
-91.300003
 20
136.35001
 40
1
 50
270
 51
0
  0
ARC
  8
0
  6
CONTINUOUS
 62
     7
 10
-98.300003
 20
140.35001
 40
5
 50
213.53478
 51
270
  0
ARC
  8
0
  6
CONTINUOUS
 62
     7
 10
-100.3
 20
147.35001
 40
10
 50
233.1301
 51
270
  0
ARC
  8
0
  6
CONTINUOUS
 62
     7
 10
-112.3
 20
131.35001
 40
10
 50
53.130102
 51
90.000003
  0
ARC
  8
0
  6
CONTINUOUS
 62
     7
 10
-111.05
 20
103.55
 40
12
 50
270
 51
306.04933
  0
ARC
  8
0
  6
CONTINUOUS
 62
     7
 10
-97.220688
 20
84.550003
 40
11.5
 50
90.000003
 51
126.04932
  0
ARC
  8
0
  6
CONTINUOUS
 62
     7
 10
-98.050003
 20
94.550003
 40
3
 50
90.000003
 51
162.73188
  0
ARC
  8
0
  6
CONTINUOUS
 62
     7
 10
-98.050003
 20
47.550003
 40
3
 50
197.26812
 51
270
  0
ARC
  8
0
  6
CONTINUOUS
 62
     7
 10
-97.220688
 20
57.550003
 40
11.5
 50
233.95068
 51
270
  0
ARC
  8
0
  6
CONTINUOUS
 62
     7
 10
-111.05
 20
38.550003
 40
12
 50
53.95067
 51
90.000003
  0
ARC
  8
0
  6
CONTINUOUS
 62
     7
 10
-96.783821
 20
227.82442
 40
1.2
 50
306.00832
 51
53.991676
  0
ARC
  8
0
  6
CONTINUOUS
 62
     7
 10
-96.783821
 20
227.82442
 40
1.8
 50
306.00832
 51
53.991676
  0
ARC
  8
0
  6
CONTINUOUS
 62
     7
 10
-99.183815
 20
227.82442
 40
1.2
 50
126.00833
 51
233.99168
  0
ARC
  8
0
  6
CONTINUOUS
 62
     7
 10
-99.183815
 20
227.82442
 40
1.8
 50
126.00833
 51
233.99168
  0
ARC
  8
0
  6
CONTINUOUS
 62
     7
 10
-97.983803
 20
226.17326
 40
3.8411539
 50
53.991676
 51
85.520553
  0
ARC
  8
0
  6
CONTINUOUS
 62
     7
 10
-97.983803
 20
226.17326
 40
3.241154
 50
53.991676
 51
84.689121
  0
ARC
  8
0
  6
CONTINUOUS
 62
     7
 10
-97.983803
 20
229.47557
 40
3.241154
 50
233.99167
 51
306.00832
  0
ARC
  8
0
  6
CONTINUOUS
 62
     7
 10
-97.983803
 20
229.47557
 40
3.8411539
 50
233.99167
 51
265.52055
  0
ARC
  8
0
  6
CONTINUOUS
 62
     7
 10
-97.983803
 20
230.59941
 40
0.375
 50
36.869897
 51
143.1301
  0
ARC
  8
0
  6
CONTINUOUS
 62
     7
 10
-97.983803
 20
228.04942
 40
0.375
 50
216.8699
 51
323.1301
  0
ARC
  8
0
  6
CONTINUOUS
 62
     7
 10
-97.983803
 20
225.04942
 40
0.375
 50
216.8699
 51
323.1301
  0
ARC
  8
0
  6
CONTINUOUS
 62
     7
 10
-97.983803
 20
229.47557
 40
3.8411539
 50
274.47945
 51
306.00832
  0
ARC
  8
0
  6
CONTINUOUS
 62
     7
 10
-97.983803
 20
226.17326
 40
3.241154
 50
95.310878
 51
126.00833
  0
ARC
  8
0
  6
CONTINUOUS
 62
     7
 10
-97.983803
 20
226.17326
 40
3.8411539
 50
94.479452
 51
126.00833
  0
ARC
  8
0
  6
CONTINUOUS
 62
     7
 10
-90.206551
 20
71.152267
 40
1.8
 50
306.00832
 51
53.991676
  0
ARC
  8
0
  6
CONTINUOUS
 62
     7
 10
-90.206551
 20
71.152267
 40
2.7
 50
306.00832
 51
53.991676
  0
ARC
  8
0
  6
CONTINUOUS
 62
     7
 10
-93.806526
 20
71.152267
 40
1.8
 50
126.00833
 51
233.99168
  0
ARC
  8
0
  6
CONTINUOUS
 62
     7
 10
-93.806526
 20
71.152267
 40
2.7
 50
126.00833
 51
233.99168
  0
ARC
  8
0
  6
CONTINUOUS
 62
     7
 10
-92.006538
 20
68.675522
 40
5.7617307
 50
53.991676
 51
85.520553
  0
ARC
  8
0
  6
CONTINUOUS
 62
     7
 10
-92.006538
 20
68.675522
 40
4.8617306
 50
53.991676
 51
84.689121
  0
ARC
  8
0
  6
CONTINUOUS
 62
     7
 10
-92.006538
 20
73.628983
 40
4.8617306
 50
233.99167
 51
306.00832
  0
ARC
  8
0
  6
CONTINUOUS
 62
     7
 10
-92.006538
 20
73.628983
 40
5.7617307
 50
233.99167
 51
265.52055
  0
ARC
  8
0
  6
CONTINUOUS
 62
     7
 10
-92.006538
 20
75.314774
 40
0.5625
 50
36.869897
 51
143.1301
  0
ARC
  8
0
  6
CONTINUOUS
 62
     7
 10
-92.006538
 20
71.489761
 40
0.5625
 50
216.8699
 51
323.1301
  0
ARC
  8
0
  6
CONTINUOUS
 62
     7
 10
-92.006538
 20
66.989761
 40
0.5625
 50
216.8699
 51
323.1301
  0
ARC
  8
0
  6
CONTINUOUS
 62
     7
 10
-92.006538
 20
68.675522
 40
5.7617307
 50
94.479452
 51
126.00833
  0
ARC
  8
0
  6
CONTINUOUS
 62
     7
 10
-92.006538
 20
68.675522
 40
4.8617306
 50
95.310878
 51
126.00833
  0
ARC
  8
0
  6
CONTINUOUS
 62
     7
 10
-92.006538
 20
73.628983
 40
5.7617307
 50
274.47945
 51
306.00832
  0
ARC
  8
0
  6
CONTINUOUS
 62
     7
 10
-93.951439
 20
157.9568
 40
1.8
 50
306.00832
 51
53.991676
  0
ARC
  8
0
  6
CONTINUOUS
 62
     7
 10
-93.951439
 20
157.9568
 40
2.7
 50
306.00832
 51
53.991676
  0
ARC
  8
0
  6
CONTINUOUS
 62
     7
 10
-97.551414
 20
157.9568
 40
1.8
 50
126.00833
 51
233.99168
  0
ARC
  8
0
  6
CONTINUOUS
 62
     7
 10
-97.551414
 20
157.9568
 40
2.7
 50
126.00833
 51
233.99168
  0
ARC
  8
0
  6
CONTINUOUS
 62
     7
 10
-95.751427
 20
155.48007
 40
5.7617307
 50
53.991676
 51
85.520553
  0
ARC
  8
0
  6
CONTINUOUS
 62
     7
 10
-95.751427
 20
155.48007
 40
4.8617306
 50
53.991676
 51
84.689121
  0
ARC
  8
0
  6
CONTINUOUS
 62
     7
 10
-95.751427
 20
160.43353
 40
4.8617306
 50
233.99167
 51
306.00832
  0
ARC
  8
0
  6
CONTINUOUS
 62
     7
 10
-95.751427
 20
160.43353
 40
5.7617307
 50
233.99167
 51
265.52055
  0
ARC
  8
0
  6
CONTINUOUS
 62
     7
 10
-95.751427
 20
162.11931
 40
0.5625
 50
36.869897
 51
143.1301
  0
ARC
  8
0
  6
CONTINUOUS
 62
     7
 10
-95.751427
 20
158.2943
 40
0.5625
 50
216.8699
 51
323.1301
  0
ARC
  8
0
  6
CONTINUOUS
 62
     7
 10
-95.751427
 20
153.7943
 40
0.5625
 50
216.8699
 51
323.1301
  0
ARC
  8
0
  6
CONTINUOUS
 62
     7
 10
-95.751427
 20
155.48007
 40
5.7617307
 50
94.479452
 51
126.00833
  0
ARC
  8
0
  6
CONTINUOUS
 62
     7
 10
-95.751427
 20
155.48007
 40
4.8617306
 50
95.310878
 51
126.00833
  0
ARC
  8
0
  6
CONTINUOUS
 62
     7
 10
-95.751427
 20
160.43353
 40
5.7617307
 50
274.47945
 51
306.00832
  0
TEXT
  8
0
  6
CONTINUOUS
 62
     7
 10
-186.56013
 20
276.28214
 40
5
 41
0.84237086
  1
ＲＣＦ－Ｋ　ＺＷＳ（給水栓用　ソケット）
  0
TEXT
  8
0
  6
CONTINUOUS
 62
     7
 10
-129.59285
 20
258.10001
 40
3.2
 41
1.0178573
  1
1/2
  0
TEXT
  8
0
  6
CONTINUOUS
 62
     7
 10
-126.09285
 20
107.6
 40
3.2
 41
1.0714291
  1
1
  0
TEXT
  8
0
  6
CONTINUOUS
 62
     7
 10
-125.56786
 20
187.75001
 40
3.2
 41
1.0178573
  1
3/4
  0
TEXT
  8
0
  6
CONTINUOUS
 62
     7
 10
-81.874998
 20
57.307139
 40
3.2
 41
0.8449534
  1
１　　器具側　２５
 50
90.000003
  0
TEXT
  8
0
  6
CONTINUOUS
 62
     7
 10
-86.075003
 20
141.65715
 40
3.2
 41
0.84447575
  1
３／４　器具側　２０
 50
90.000003
  0
TEXT
  8
0
  6
CONTINUOUS
 62
     7
 10
-89.4
 20
211.65715
 40
3.2
 41
0.84447575
  1
１／２　器具側　１３
 50
90.000003
  0
POINT
  8
1
  6
CONTINUOUS
 62
     7
 10
-210
 20
0
  0
POINT
  8
1
  6
CONTINUOUS
 62
     7
 10
0
 20
0
  0
POINT
  8
1
  6
CONTINUOUS
 62
     7
 10
0
 20
0
  0
POINT
  8
1
  6
CONTINUOUS
 62
     7
 10
-210
 20
297
  0
POINT
  8
1
  6
CONTINUOUS
 62
     7
 10
-210
 20
0
  0
POINT
  8
1
  6
CONTINUOUS
 62
     7
 10
0
 20
0
  0
POINT
  8
1
  6
CONTINUOUS
 62
     7
 10
0
 20
297
  0
LINE
  8
1
  6
CONTINUOUS
 62
     7
 10
-210
 20
0
 11
0
 21
0
  0
LINE
  8
1
  6
CONTINUOUS
 62
     7
 10
-210
 20
297
 11
0
 21
297
  0
LINE
  8
1
  6
CONTINUOUS
 62
     7
 10
0
 20
297
 11
0
 21
0
  0
LINE
  8
1
  6
CONTINUOUS
 62
     7
 10
-210
 20
297
 11
-210
 21
0
  0
ENDSEC
  0
EOF
