  0
SECTION
  2
HEADER
  9
$EXTMAX
 10
0
 20
297
  9
$EXTMIN
 10
-210
 20
0
  0
ENDSEC
  0
SECTION
  2
TABLES
  0
TABLE
  2
LTYPE
 70
    22
  0
LTYPE
  2
CONTINUOUS
 70
    64
  3
Solid line
 72
    65
 73
     0
 40
0.000000
  0
LTYPE
  2
DASHED
 70
    64
  3
__ __ __ __ __ __ __ __ __ __ __ __ __ __ __
 72
    65
 73
     2
 40
3.500000
 49
2.000000
 49
-1.500000
  0
LTYPE
  2
CENTER
 70
    64
  3
____ _ ____ _ ____ _ ____ _ ____ _ ____ _ ____
 72
    65
 73
     4
 40
17.500000
 49
13.000000
 49
-1.500000
 49
1.500000
 49
-1.500000
  0
LTYPE
  2
PHANTOM
 70
    64
  3
_____ _ _ _____ _ _ _____ _ _ _____ _ _ ____  
 72
    65
 73
     6
 40
15.500000
 49
8.000000
 49
-1.500000
 49
1.500000
 49
-1.500000
 49
1.500000
 49
-1.500000
  0
LTYPE
  2
DOT
 70
    64
  3
. . . . . . . . . . . . . . . . . . . . . . . .
 72
    65
 73
     2
 40
0.25
 49
0.0
 49
-0.25
  0
ENDTAB
  0
TABLE
  2
LAYER
 70
     2
  0
LAYER
  2
0
 70
     0
 62
     7
  6
CONTINUOUS
  0
LAYER
  2
1
 70
     0
 62
     7
  6
CONTINUOUS
  0
ENDTAB
  0
TABLE
  2
STYLE
 70
     1
  0
STYLE
  2
STANDARD
 70
     0
 40
0.000000
 41
1.000000
 50
0.000000
 71
     0
 42
0.200000
  3
txt
  4
BIGFONT
  0
ENDTAB
  0
TABLE
  2
VIEW
 70
     0
  0
ENDTAB
  0
ENDSEC
  0
SECTION
  2
BLOCKS
  0
ENDSEC
  0
SECTION
  2
ENTITIES
  0
POINT
  8
0
  6
CONTINUOUS
 62
     7
 10
-127.575
 20
200.2
  0
POINT
  8
0
  6
CONTINUOUS
 62
     7
 10
-107.575
 20
200.2
  0
POINT
  8
0
  6
CONTINUOUS
 62
     7
 10
-128.625
 20
95.199997
  0
POINT
  8
0
  6
CONTINUOUS
 62
     7
 10
-106.125
 20
95.199997
  0
POINT
  8
0
  6
CONTINUOUS
 62
     7
 10
-107.575
 20
200.2
  0
POINT
  8
0
  6
CONTINUOUS
 62
     7
 10
-106.125
 20
95.199997
  0
POINT
  8
0
  6
CONTINUOUS
 62
     7
 10
-107.575
 20
200.2
  0
POINT
  8
0
  6
CONTINUOUS
 62
     7
 10
-107.575
 20
200.2
  0
POINT
  8
0
  6
CONTINUOUS
 62
     7
 10
-106.125
 20
95.199997
  0
LINE
  8
0
  6
CONTINUOUS
 62
     7
 10
-116.075
 20
182.7
 11
-116.075
 21
183.2
  0
LINE
  8
0
  6
CONTINUOUS
 62
     7
 10
-116.075
 20
217.7
 11
-116.075
 21
217.2
  0
LINE
  8
0
  6
CONTINUOUS
 62
     7
 10
-99.574997
 20
218.2
 11
-115.575
 21
218.2
  0
LINE
  8
0
  6
CONTINUOUS
 62
     7
 10
-99.074997
 20
217.7
 11
-99.074997
 21
217.2
  0
LINE
  8
0
  6
CONTINUOUS
 62
     7
 10
-87.574997
 20
216.7
 11
-87.574997
 21
183.7
  0
LINE
  8
0
  6
CONTINUOUS
 62
     7
 10
-87.574997
 20
213.2
 11
-84.794037
 21
213.2
  0
LINE
  8
0
  6
CONTINUOUS
 62
     7
 10
-87.574997
 20
216.7
 11
-127.575
 21
216.7
  0
LINE
  8
0
  6
CENTER
 62
     7
 10
-132.575
 20
200.2
 11
-82.574997
 21
200.2
  0
LINE
  8
0
  6
CONTINUOUS
 62
     7
 10
-87.574997
 20
187.2
 11
-84.794037
 21
187.2
  0
LINE
  8
0
  6
CONTINUOUS
 62
     7
 10
-99.074997
 20
182.7
 11
-99.074997
 21
183.2
  0
LINE
  8
0
  6
CONTINUOUS
 62
     7
 10
-127.575
 20
183.7
 11
-127.575
 21
216.7
  0
LINE
  8
0
  6
CONTINUOUS
 62
     7
 10
-99.574997
 20
182.2
 11
-115.575
 21
182.2
  0
LINE
  8
0
  6
CONTINUOUS
 62
     7
 10
-87.574997
 20
183.7
 11
-127.575
 21
183.7
  0
LINE
  8
0
  6
CONTINUOUS
 62
     7
 10
-84.794037
 20
213.2
 11
-84.794037
 21
187.2
  0
LINE
  8
0
  6
CONTINUOUS
 62
     7
 10
-88.550285
 20
216.7
 11
-88.550285
 21
183.7
  0
LINE
  8
0
  6
CONTINUOUS
 62
     7
 10
-95.550285
 20
216.7
 11
-95.550285
 21
183.7
  0
LINE
  8
0
  6
CONTINUOUS
 62
     7
 10
-128.625
 20
74.699997
 11
-128.625
 21
95.199997
  0
LINE
  8
0
  6
CENTER
 62
     7
 10
-133.51563
 20
95.199997
 11
-75.999504
 21
95.199997
  0
LINE
  8
0
  6
CONTINUOUS
 62
     7
 10
-83.625008
 20
74.699997
 11
-128.625
 21
74.699997
  0
LINE
  8
0
  6
CONTINUOUS
 62
     7
 10
-83.625008
 20
115.7
 11
-128.625
 21
115.7
  0
LINE
  8
0
  6
CONTINUOUS
 62
     7
 10
-128.625
 20
115.7
 11
-128.625
 21
95.199997
  0
LINE
  8
0
  6
CONTINUOUS
 62
     7
 10
-83.625008
 20
115.7
 11
-83.625008
 21
74.699997
  0
LINE
  8
0
  6
CONTINUOUS
 62
     7
 10
-83.625008
 20
111.45
 11
-80.999504
 21
111.45
  0
LINE
  8
0
  6
CONTINUOUS
 62
     7
 10
-80.999504
 20
111.45
 11
-80.999504
 21
78.949997
  0
LINE
  8
0
  6
CONTINUOUS
 62
     7
 10
-83.625008
 20
78.949997
 11
-80.999504
 21
78.949997
  0
LINE
  8
0
  6
CONTINUOUS
 62
     7
 10
-85.574997
 20
115.7
 11
-85.574997
 21
74.699997
  0
LINE
  8
0
  6
CONTINUOUS
 62
     7
 10
-92.574997
 20
115.7
 11
-92.574997
 21
74.699997
  0
LINE
  8
0
  6
CONTINUOUS
 62
     7
 10
-107.125
 20
204.7
 11
-107.125
 21
203.46739
  0
LINE
  8
0
  6
CONTINUOUS
 62
     7
 10
-108.02499
 20
204.7
 11
-108.02499
 21
203.46739
  0
LINE
  8
0
  6
CONTINUOUS
 62
     7
 10
-108.02499
 20
196.9326
 11
-108.02499
 21
195.7
  0
LINE
  8
0
  6
CONTINUOUS
 62
     7
 10
-107.125
 20
196.9326
 11
-107.125
 21
195.7
  0
LINE
  8
0
  6
CONTINUOUS
 62
     7
 10
-108.02499
 20
202.56413
 11
-108.02499
 21
200.2
  0
LINE
  8
0
  6
CONTINUOUS
 62
     7
 10
-107.125
 20
202.56413
 11
-107.125
 21
200.2
  0
LINE
  8
0
  6
CONTINUOUS
 62
     7
 10
-105.52499
 20
101.2
 11
-105.52499
 21
99.556534
  0
LINE
  8
0
  6
CONTINUOUS
 62
     7
 10
-106.72501
 20
101.2
 11
-106.72501
 21
99.556534
  0
LINE
  8
0
  6
CONTINUOUS
 62
     7
 10
-106.72501
 20
90.84346
 11
-106.72501
 21
89.199997
  0
LINE
  8
0
  6
CONTINUOUS
 62
     7
 10
-105.52499
 20
90.84346
 11
-105.52499
 21
89.199997
  0
LINE
  8
0
  6
CONTINUOUS
 62
     7
 10
-106.72501
 20
98.352173
 11
-106.72501
 21
95.199997
  0
LINE
  8
0
  6
CONTINUOUS
 62
     7
 10
-105.52499
 20
98.352173
 11
-105.52499
 21
95.199997
  0
LINE
  8
0
  6
CONTINUOUS
 62
     7
 10
-97.625
 20
73.199997
 11
-114.625
 21
73.199997
  0
LINE
  8
0
  6
CONTINUOUS
 62
     7
 10
-97.625
 20
117.2
 11
-114.625
 21
117.2
  0
ARC
  8
0
  6
CONTINUOUS
 62
     7
 10
-116.575
 20
217.2
 40
0.5
 50
270
 51
0
  0
ARC
  8
0
  6
CONTINUOUS
 62
     7
 10
-115.575
 20
217.7
 40
0.5
 50
90.000003
 51
180.00001
  0
ARC
  8
0
  6
CONTINUOUS
 62
     7
 10
-116.575
 20
183.2
 40
0.5
 50
0
 51
90.000003
  0
ARC
  8
0
  6
CONTINUOUS
 62
     7
 10
-99.574997
 20
217.7
 40
0.5
 50
0
 51
90.000003
  0
ARC
  8
0
  6
CONTINUOUS
 62
     7
 10
-98.574997
 20
217.2
 40
0.5
 50
179.99999
 51
270
  0
ARC
  8
0
  6
CONTINUOUS
 62
     7
 10
-98.574997
 20
183.2
 40
0.5
 50
90.000003
 51
180.00001
  0
ARC
  8
0
  6
CONTINUOUS
 62
     7
 10
-99.574997
 20
182.7
 40
0.5
 50
270
 51
0
  0
ARC
  8
0
  6
CONTINUOUS
 62
     7
 10
-115.575
 20
182.7
 40
0.5
 50
179.99999
 51
270
  0
ARC
  8
0
  6
CONTINUOUS
 62
     7
 10
-106.125
 20
91.89769
 40
6.4823079
 50
95.310878
 51
126.00833
  0
ARC
  8
0
  6
CONTINUOUS
 62
     7
 10
-106.125
 20
98.502304
 40
7.6823077
 50
274.47945
 51
306.00832
  0
ARC
  8
0
  6
CONTINUOUS
 62
     7
 10
-106.125
 20
91.89769
 40
7.6823077
 50
94.479452
 51
126.00833
  0
ARC
  8
0
  6
CONTINUOUS
 62
     7
 10
-106.125
 20
89.649994
 40
0.75
 50
216.8699
 51
323.1301
  0
ARC
  8
0
  6
CONTINUOUS
 62
     7
 10
-105.77499
 20
200.2
 40
1.8
 50
306.00832
 51
53.991676
  0
ARC
  8
0
  6
CONTINUOUS
 62
     7
 10
-105.77499
 20
200.2
 40
2.7
 50
306.00832
 51
53.991676
  0
ARC
  8
0
  6
CONTINUOUS
 62
     7
 10
-109.375
 20
200.2
 40
1.8
 50
126.00833
 51
233.99168
  0
ARC
  8
0
  6
CONTINUOUS
 62
     7
 10
-109.375
 20
200.2
 40
2.7
 50
126.00833
 51
233.99168
  0
ARC
  8
0
  6
CONTINUOUS
 62
     7
 10
-107.575
 20
197.72327
 40
5.7617307
 50
53.991676
 51
85.520553
  0
ARC
  8
0
  6
CONTINUOUS
 62
     7
 10
-107.575
 20
197.72327
 40
4.8617306
 50
53.991676
 51
84.689121
  0
ARC
  8
0
  6
CONTINUOUS
 62
     7
 10
-107.575
 20
202.67673
 40
4.8617306
 50
233.99167
 51
306.00832
  0
ARC
  8
0
  6
CONTINUOUS
 62
     7
 10
-107.575
 20
202.67673
 40
5.7617307
 50
233.99167
 51
265.52055
  0
ARC
  8
0
  6
CONTINUOUS
 62
     7
 10
-107.575
 20
204.3625
 40
0.5625
 50
36.869897
 51
143.1301
  0
ARC
  8
0
  6
CONTINUOUS
 62
     7
 10
-107.575
 20
200.53749
 40
0.5625
 50
216.8699
 51
323.1301
  0
ARC
  8
0
  6
CONTINUOUS
 62
     7
 10
-107.575
 20
196.03749
 40
0.5625
 50
216.8699
 51
323.1301
  0
ARC
  8
0
  6
CONTINUOUS
 62
     7
 10
-107.575
 20
197.72327
 40
5.7617307
 50
94.479452
 51
126.00833
  0
ARC
  8
0
  6
CONTINUOUS
 62
     7
 10
-107.575
 20
197.72327
 40
4.8617306
 50
95.310878
 51
126.00833
  0
ARC
  8
0
  6
CONTINUOUS
 62
     7
 10
-107.575
 20
202.67673
 40
5.7617307
 50
274.47945
 51
306.00832
  0
ARC
  8
0
  6
CONTINUOUS
 62
     7
 10
-103.72501
 20
95.199997
 40
2.4000001
 50
306.00832
 51
53.991676
  0
ARC
  8
0
  6
CONTINUOUS
 62
     7
 10
-103.72501
 20
95.199997
 40
3.5999999
 50
306.00832
 51
53.991676
  0
ARC
  8
0
  6
CONTINUOUS
 62
     7
 10
-108.52499
 20
95.199997
 40
2.4000001
 50
126.00833
 51
233.99168
  0
ARC
  8
0
  6
CONTINUOUS
 62
     7
 10
-108.52499
 20
95.199997
 40
3.5999999
 50
126.00833
 51
233.99168
  0
ARC
  8
0
  6
CONTINUOUS
 62
     7
 10
-106.125
 20
91.89769
 40
7.6823077
 50
53.991676
 51
85.520553
  0
ARC
  8
0
  6
CONTINUOUS
 62
     7
 10
-106.125
 20
91.89769
 40
6.4823079
 50
53.991676
 51
84.689121
  0
ARC
  8
0
  6
CONTINUOUS
 62
     7
 10
-106.125
 20
98.502304
 40
6.4823079
 50
233.99167
 51
306.00832
  0
ARC
  8
0
  6
CONTINUOUS
 62
     7
 10
-106.125
 20
98.502304
 40
7.6823077
 50
233.99167
 51
265.52055
  0
ARC
  8
0
  6
CONTINUOUS
 62
     7
 10
-106.125
 20
100.75
 40
0.75
 50
36.869897
 51
143.1301
  0
ARC
  8
0
  6
CONTINUOUS
 62
     7
 10
-106.125
 20
95.649994
 40
0.75
 50
216.8699
 51
323.1301
  0
ARC
  8
0
  6
CONTINUOUS
 62
     7
 10
-117.22307
 20
117.2
 40
1.5
 50
270
 51
330
  0
ARC
  8
0
  6
CONTINUOUS
 62
     7
 10
-95.026917
 20
73.199997
 40
1.5
 50
90.000003
 51
150
  0
ARC
  8
0
  6
CONTINUOUS
 62
     7
 10
-117.22307
 20
73.199997
 40
1.5
 50
30.000001
 51
90.000003
  0
ARC
  8
0
  6
CONTINUOUS
 62
     7
 10
-97.625
 20
115.7
 40
1.5
 50
30.000001
 51
90.000003
  0
ARC
  8
0
  6
CONTINUOUS
 62
     7
 10
-114.625
 20
115.7
 40
1.5
 50
90.000003
 51
150
  0
ARC
  8
0
  6
CONTINUOUS
 62
     7
 10
-114.625
 20
74.699997
 40
1.5
 50
210
 51
270
  0
ARC
  8
0
  6
CONTINUOUS
 62
     7
 10
-97.625
 20
74.699997
 40
1.5
 50
270
 51
330
  0
ARC
  8
0
  6
CONTINUOUS
 62
     7
 10
-95.026917
 20
117.2
 40
1.5
 50
210
 51
270
  0
TEXT
  8
0
  6
CONTINUOUS
 62
     7
 10
-186.56013
 20
276.28214
 40
5
 41
0.84202696
  1
ＲＣＦ－Ｋ　ＺＷＲＳ（給水栓用　径違いソケット）
  0
TEXT
  8
0
  6
CONTINUOUS
 62
     7
 10
-144.89956
 20
243.47449
 40
3.2
 41
1.0071429
  1
3/4X1/2
  0
TEXT
  8
0
  6
CONTINUOUS
 62
     7
 10
-149.71785
 20
147.50001
 40
3.2
 41
1.0102042
  1
1X3/4
  0
TEXT
  8
0
  6
CONTINUOUS
 62
     7
 10
-90.410513
 20
184.52816
 40
3.2
 41
0.84447575
  1
１／２　器具側　１３
 50
90.000003
  0
TEXT
  8
0
  6
CONTINUOUS
 62
     7
 10
-86.775
 20
79.357142
 40
3.2
 41
0.84447575
  1
３／４　器具側　２０
 50
90.000003
  0
POINT
  8
1
  6
CONTINUOUS
 62
     7
 10
-210
 20
0
  0
POINT
  8
1
  6
CONTINUOUS
 62
     7
 10
0
 20
0
  0
POINT
  8
1
  6
CONTINUOUS
 62
     7
 10
0
 20
0
  0
POINT
  8
1
  6
CONTINUOUS
 62
     7
 10
-210
 20
297
  0
POINT
  8
1
  6
CONTINUOUS
 62
     7
 10
-210
 20
0
  0
POINT
  8
1
  6
CONTINUOUS
 62
     7
 10
0
 20
0
  0
POINT
  8
1
  6
CONTINUOUS
 62
     7
 10
0
 20
297
  0
LINE
  8
1
  6
CONTINUOUS
 62
     7
 10
-210
 20
0
 11
0
 21
0
  0
LINE
  8
1
  6
CONTINUOUS
 62
     7
 10
-210
 20
297
 11
0
 21
297
  0
LINE
  8
1
  6
CONTINUOUS
 62
     7
 10
0
 20
297
 11
0
 21
0
  0
LINE
  8
1
  6
CONTINUOUS
 62
     7
 10
-210
 20
297
 11
-210
 21
0
  0
ENDSEC
  0
EOF
