  0
SECTION
  2
HEADER
  9
$EXTMAX
 10
0
 20
297
  9
$EXTMIN
 10
-210
 20
0
  0
ENDSEC
  0
SECTION
  2
TABLES
  0
TABLE
  2
LTYPE
 70
    22
  0
LTYPE
  2
CONTINUOUS
 70
    64
  3
Solid line
 72
    65
 73
     0
 40
0.000000
  0
LTYPE
  2
DASHED
 70
    64
  3
__ __ __ __ __ __ __ __ __ __ __ __ __ __ __
 72
    65
 73
     2
 40
3.500000
 49
2.000000
 49
-1.500000
  0
LTYPE
  2
CENTER
 70
    64
  3
____ _ ____ _ ____ _ ____ _ ____ _ ____ _ ____
 72
    65
 73
     4
 40
17.500000
 49
13.000000
 49
-1.500000
 49
1.500000
 49
-1.500000
  0
LTYPE
  2
PHANTOM
 70
    64
  3
_____ _ _ _____ _ _ _____ _ _ _____ _ _ ____  
 72
    65
 73
     6
 40
15.500000
 49
8.000000
 49
-1.500000
 49
1.500000
 49
-1.500000
 49
1.500000
 49
-1.500000
  0
LTYPE
  2
DOT
 70
    64
  3
. . . . . . . . . . . . . . . . . . . . . . . .
 72
    65
 73
     2
 40
0.25
 49
0.0
 49
-0.25
  0
ENDTAB
  0
TABLE
  2
LAYER
 70
     2
  0
LAYER
  2
0
 70
     0
 62
     7
  6
CONTINUOUS
  0
LAYER
  2
1
 70
     0
 62
     7
  6
CONTINUOUS
  0
ENDTAB
  0
TABLE
  2
STYLE
 70
     1
  0
STYLE
  2
STANDARD
 70
     0
 40
0.000000
 41
1.000000
 50
0.000000
 71
     0
 42
0.200000
  3
txt
  4
BIGFONT
  0
ENDTAB
  0
TABLE
  2
VIEW
 70
     0
  0
ENDTAB
  0
ENDSEC
  0
SECTION
  2
BLOCKS
  0
ENDSEC
  0
SECTION
  2
ENTITIES
  0
POINT
  8
0
  6
CONTINUOUS
 62
     7
 10
-131.8456
 20
206.62317
  0
POINT
  8
0
  6
CONTINUOUS
 62
     7
 10
-133.175
 20
102.2
  0
POINT
  8
0
  6
CONTINUOUS
 62
     7
 10
-131.8456
 20
206.62317
  0
POINT
  8
0
  6
CONTINUOUS
 62
     7
 10
-133.175
 20
102.2
  0
LINE
  8
0
  6
CENTER
 62
     7
 10
-131.8456
 20
225.49763
 11
-131.8456
 21
169.41351
  0
LINE
  8
0
  6
CENTER
 62
     7
 10
-151.25934
 20
206.62317
 11
-88.703972
 21
206.62317
  0
LINE
  8
0
  6
CONTINUOUS
 62
     7
 10
-115.1706
 20
223.12317
 11
-99.670601
 21
223.12317
  0
LINE
  8
0
  6
CONTINUOUS
 62
     7
 10
-99.670601
 20
223.12317
 11
-99.670601
 21
190.12317
  0
LINE
  8
0
  6
CONTINUOUS
 62
     7
 10
-99.670601
 20
219.62317
 11
-96.891052
 21
219.62317
  0
LINE
  8
0
  6
CONTINUOUS
 62
     7
 10
-96.891052
 20
219.62317
 11
-96.891052
 21
193.62317
  0
LINE
  8
0
  6
CONTINUOUS
 62
     7
 10
-99.670601
 20
193.62317
 11
-96.891052
 21
193.62317
  0
LINE
  8
0
  6
CONTINUOUS
 62
     7
 10
-111.1706
 20
190.12317
 11
-99.670601
 21
190.12317
  0
LINE
  8
0
  6
CONTINUOUS
 62
     7
 10
-115.1706
 20
186.12317
 11
-115.1706
 21
174.62317
  0
LINE
  8
0
  6
CONTINUOUS
 62
     7
 10
-148.17059
 20
174.62317
 11
-115.1706
 21
174.62317
  0
LINE
  8
0
  6
CONTINUOUS
 62
     7
 10
-148.17059
 20
190.12317
 11
-148.17059
 21
174.62317
  0
LINE
  8
0
  6
CONTINUOUS
 62
     7
 10
-100.94786
 20
223.12317
 11
-100.94786
 21
190.12317
  0
LINE
  8
0
  6
CONTINUOUS
 62
     7
 10
-107.94786
 20
223.12317
 11
-107.94786
 21
190.12317
  0
LINE
  8
0
  6
CONTINUOUS
 62
     7
 10
-153.675
 20
81.699997
 11
-153.675
 21
60.199997
  0
LINE
  8
0
  6
CONTINUOUS
 62
     7
 10
-112.675
 20
60.199997
 11
-153.675
 21
60.199997
  0
LINE
  8
0
  6
CONTINUOUS
 62
     7
 10
-112.675
 20
76.699997
 11
-112.675
 21
60.199997
  0
LINE
  8
0
  6
CONTINUOUS
 62
     7
 10
-107.675
 20
81.699997
 11
-91.174995
 21
81.699997
  0
LINE
  8
0
  6
CENTER
 62
     7
 10
-83.474998
 20
102.2
 11
-157.675
 21
102.2
  0
LINE
  8
0
  6
CENTER
 62
     7
 10
-133.175
 20
127.05
 11
-133.175
 21
53.900009
  0
LINE
  8
0
  6
CONTINUOUS
 62
     7
 10
-112.675
 20
122.7
 11
-91.174995
 21
122.7
  0
LINE
  8
0
  6
CONTINUOUS
 62
     7
 10
-91.174995
 20
81.699997
 11
-91.174995
 21
122.7
  0
LINE
  8
0
  6
CONTINUOUS
 62
     7
 10
-91.174995
 20
118.45
 11
-88.549507
 21
118.45
  0
LINE
  8
0
  6
CONTINUOUS
 62
     7
 10
-88.549507
 20
118.45
 11
-88.549507
 21
85.949997
  0
LINE
  8
0
  6
CONTINUOUS
 62
     7
 10
-91.174995
 20
85.949997
 11
-88.549507
 21
85.949997
  0
LINE
  8
0
  6
CONTINUOUS
 62
     7
 10
-93.030685
 20
122.7
 11
-93.030685
 21
81.699997
  0
LINE
  8
0
  6
CONTINUOUS
 62
     7
 10
-100.03069
 20
122.7
 11
-100.03069
 21
81.699997
  0
LINE
  8
0
  6
CONTINUOUS
 62
     7
 10
-129.87665
 20
205.29063
 11
-129.00506
 21
204.41905
  0
LINE
  8
0
  6
CONTINUOUS
 62
     7
 10
-130.51304
 20
204.65424
 11
-129.64146
 21
203.78265
  0
LINE
  8
0
  6
CONTINUOUS
 62
     7
 10
-125.02064
 20
199.16184
 11
-124.14908
 21
198.29028
  0
LINE
  8
0
  6
CONTINUOUS
 62
     7
 10
-124.38425
 20
199.79823
 11
-123.51269
 21
198.92667
  0
LINE
  8
0
  6
CONTINUOUS
 62
     7
 10
-129.00273
 20
203.14393
 11
-127.33106
 21
201.47226
  0
LINE
  8
0
  6
CONTINUOUS
 62
     7
 10
-128.36634
 20
203.78032
 11
-126.69467
 21
202.10865
  0
LINE
  8
0
  6
CONTINUOUS
 62
     7
 10
-130.98906
 20
100.86257
 11
-129.82696
 21
99.70047
  0
LINE
  8
0
  6
CONTINUOUS
 62
     7
 10
-131.83759
 20
100.01405
 11
-130.67548
 21
98.851944
  0
LINE
  8
0
  6
CONTINUOUS
 62
     7
 10
-124.51441
 20
92.690872
 11
-123.3523
 21
91.52877
  0
LINE
  8
0
  6
CONTINUOUS
 62
     7
 10
-123.66588
 20
93.539398
 11
-122.50378
 21
92.377296
  0
LINE
  8
0
  6
CONTINUOUS
 62
     7
 10
-129.82387
 20
98.000336
 11
-127.59494
 21
95.771408
  0
LINE
  8
0
  6
CONTINUOUS
 62
     7
 10
-128.97534
 20
98.848862
 11
-126.74642
 21
96.619934
  0
ARC
  8
0
  6
CONTINUOUS
 62
     7
 10
-115.1706
 20
190.12317
 40
33
 50
90.000003
 51
180.00001
  0
ARC
  8
0
  6
CONTINUOUS
 62
     7
 10
-111.1706
 20
186.12317
 40
4
 50
90.000003
 51
180.00001
  0
ARC
  8
0
  6
CONTINUOUS
 62
     7
 10
-107.675
 20
76.699997
 40
5
 50
90.000003
 51
180.00001
  0
ARC
  8
0
  6
CONTINUOUS
 62
     7
 10
-112.675
 20
81.699997
 40
41
 50
90.000003
 51
180.00001
  0
ARC
  8
0
  6
CONTINUOUS
 62
     7
 10
-124.8356
 20
93.860596
 40
7.6823077
 50
139.47946
 51
171.00833
  0
ARC
  8
0
  6
CONTINUOUS
 62
     7
 10
-129.50577
 20
98.530762
 40
7.6823077
 50
319.47945
 51
351.00832
  0
ARC
  8
0
  6
CONTINUOUS
 62
     7
 10
-124.8356
 20
93.860596
 40
6.4823079
 50
140.31088
 51
171.00833
  0
ARC
  8
0
  6
CONTINUOUS
 62
     7
 10
-125.74005
 20
203.06323
 40
1.8
 50
351.00832
 51
98.991673
  0
ARC
  8
0
  6
CONTINUOUS
 62
     7
 10
-125.74005
 20
203.06323
 40
2.7
 50
351.00832
 51
98.991673
  0
ARC
  8
0
  6
CONTINUOUS
 62
     7
 10
-128.28563
 20
200.51764
 40
1.8
 50
171.00833
 51
278.99167
  0
ARC
  8
0
  6
CONTINUOUS
 62
     7
 10
-128.28563
 20
200.51764
 40
2.7
 50
171.00833
 51
278.99167
  0
ARC
  8
0
  6
CONTINUOUS
 62
     7
 10
-125.26154
 20
200.03912
 40
5.7617307
 50
98.991673
 51
130.52056
  0
ARC
  8
0
  6
CONTINUOUS
 62
     7
 10
-125.26154
 20
200.03912
 40
4.8617306
 50
98.991673
 51
129.68912
  0
ARC
  8
0
  6
CONTINUOUS
 62
     7
 10
-128.76416
 20
203.54175
 40
4.8617306
 50
278.99167
 51
351.00832
  0
ARC
  8
0
  6
CONTINUOUS
 62
     7
 10
-128.76416
 20
203.54175
 40
5.7617307
 50
278.99167
 51
310.52055
  0
ARC
  8
0
  6
CONTINUOUS
 62
     7
 10
-129.95618
 20
204.73376
 40
0.5625
 50
81.869899
 51
188.1301
  0
ARC
  8
0
  6
CONTINUOUS
 62
     7
 10
-127.2515
 20
202.02908
 40
0.5625
 50
261.8699
 51
8.1301031
  0
ARC
  8
0
  6
CONTINUOUS
 62
     7
 10
-124.06952
 20
198.84711
 40
0.5625
 50
261.8699
 51
8.1301031
  0
ARC
  8
0
  6
CONTINUOUS
 62
     7
 10
-125.26154
 20
200.03912
 40
5.7617307
 50
139.47946
 51
171.00833
  0
ARC
  8
0
  6
CONTINUOUS
 62
     7
 10
-125.26154
 20
200.03912
 40
4.8617306
 50
140.31088
 51
171.00833
  0
ARC
  8
0
  6
CONTINUOUS
 62
     7
 10
-128.76416
 20
203.54175
 40
5.7617307
 50
319.47945
 51
351.00832
  0
ARC
  8
0
  6
CONTINUOUS
 62
     7
 10
-131.09512
 20
100.12012
 40
0.75
 50
81.869899
 51
188.1301
  0
ARC
  8
0
  6
CONTINUOUS
 62
     7
 10
-127.48888
 20
96.51387
 40
0.75
 50
261.8699
 51
8.1301031
  0
ARC
  8
0
  6
CONTINUOUS
 62
     7
 10
-123.24625
 20
92.27124
 40
0.75
 50
261.8699
 51
8.1301031
  0
ARC
  8
0
  6
CONTINUOUS
 62
     7
 10
-125.47363
 20
97.892731
 40
2.4000001
 50
351.00832
 51
98.991673
  0
ARC
  8
0
  6
CONTINUOUS
 62
     7
 10
-125.47363
 20
97.892731
 40
3.5999999
 50
351.00832
 51
98.991673
  0
ARC
  8
0
  6
CONTINUOUS
 62
     7
 10
-128.86774
 20
94.498627
 40
2.4000001
 50
171.00833
 51
278.99167
  0
ARC
  8
0
  6
CONTINUOUS
 62
     7
 10
-128.86774
 20
94.498627
 40
3.5999999
 50
171.00833
 51
278.99167
  0
ARC
  8
0
  6
CONTINUOUS
 62
     7
 10
-124.8356
 20
93.860596
 40
7.6823077
 50
98.991673
 51
130.52056
  0
ARC
  8
0
  6
CONTINUOUS
 62
     7
 10
-124.8356
 20
93.860596
 40
6.4823079
 50
98.991673
 51
129.68912
  0
ARC
  8
0
  6
CONTINUOUS
 62
     7
 10
-129.50577
 20
98.530762
 40
6.4823079
 50
278.99167
 51
351.00832
  0
ARC
  8
0
  6
CONTINUOUS
 62
     7
 10
-129.50577
 20
98.530762
 40
7.6823077
 50
278.99167
 51
310.52055
  0
TEXT
  8
0
  6
CONTINUOUS
 62
     7
 10
-186.56013
 20
276.28214
 40
5
 41
0.84210156
  1
ＲＣＦ－Ｋ　ＺＷＲＬ（給水栓用　径違いエルボ）
  0
TEXT
  8
0
  6
CONTINUOUS
 62
     7
 10
-152.83115
 20
232.64852
 40
3.2
 41
1.0071429
  1
3/4X1/2
  0
TEXT
  8
0
  6
CONTINUOUS
 62
     7
 10
-102.97217
 20
190.40176
 40
3.2
 41
0.84447575
  1
１／２　器具側　１３
 50
90.000003
  0
TEXT
  8
0
  6
CONTINUOUS
 62
     7
 10
-94.91477
 20
85.341227
 40
3.2
 41
0.84447575
  1
３／４　器具側　２０
 50
90.000003
  0
TEXT
  8
0
  6
CONTINUOUS
 62
     7
 10
-153.04285
 20
137.35
 40
3.2
 41
1.0102042
  1
1X3/4
  0
POINT
  8
1
  6
CONTINUOUS
 62
     7
 10
-210
 20
0
  0
POINT
  8
1
  6
CONTINUOUS
 62
     7
 10
0
 20
0
  0
POINT
  8
1
  6
CONTINUOUS
 62
     7
 10
0
 20
0
  0
POINT
  8
1
  6
CONTINUOUS
 62
     7
 10
-210
 20
297
  0
POINT
  8
1
  6
CONTINUOUS
 62
     7
 10
-210
 20
0
  0
POINT
  8
1
  6
CONTINUOUS
 62
     7
 10
0
 20
0
  0
POINT
  8
1
  6
CONTINUOUS
 62
     7
 10
0
 20
297
  0
LINE
  8
1
  6
CONTINUOUS
 62
     7
 10
-210
 20
0
 11
0
 21
0
  0
LINE
  8
1
  6
CONTINUOUS
 62
     7
 10
-210
 20
297
 11
0
 21
297
  0
LINE
  8
1
  6
CONTINUOUS
 62
     7
 10
0
 20
297
 11
0
 21
0
  0
LINE
  8
1
  6
CONTINUOUS
 62
     7
 10
-210
 20
297
 11
-210
 21
0
  0
ENDSEC
  0
EOF
