  0
SECTION
  2
HEADER
  9
$EXTMAX
 10
0
 20
297
  9
$EXTMIN
 10
-210
 20
0
  0
ENDSEC
  0
SECTION
  2
TABLES
  0
TABLE
  2
LTYPE
 70
    22
  0
LTYPE
  2
CONTINUOUS
 70
    64
  3
Solid line
 72
    65
 73
     0
 40
0.000000
  0
LTYPE
  2
DASHED
 70
    64
  3
__ __ __ __ __ __ __ __ __ __ __ __ __ __ __
 72
    65
 73
     2
 40
3.500000
 49
2.000000
 49
-1.500000
  0
LTYPE
  2
CENTER
 70
    64
  3
____ _ ____ _ ____ _ ____ _ ____ _ ____ _ ____
 72
    65
 73
     4
 40
17.500000
 49
13.000000
 49
-1.500000
 49
1.500000
 49
-1.500000
  0
LTYPE
  2
PHANTOM
 70
    64
  3
_____ _ _ _____ _ _ _____ _ _ _____ _ _ ____  
 72
    65
 73
     6
 40
15.500000
 49
8.000000
 49
-1.500000
 49
1.500000
 49
-1.500000
 49
1.500000
 49
-1.500000
  0
LTYPE
  2
DOT
 70
    64
  3
. . . . . . . . . . . . . . . . . . . . . . . .
 72
    65
 73
     2
 40
0.25
 49
0.0
 49
-0.25
  0
ENDTAB
  0
TABLE
  2
LAYER
 70
     2
  0
LAYER
  2
0
 70
     0
 62
     7
  6
CONTINUOUS
  0
LAYER
  2
1
 70
     0
 62
     7
  6
CONTINUOUS
  0
ENDTAB
  0
TABLE
  2
STYLE
 70
     1
  0
STYLE
  2
STANDARD
 70
     0
 40
0.000000
 41
1.000000
 50
0.000000
 71
     0
 42
0.200000
  3
txt
  4
BIGFONT
  0
ENDTAB
  0
TABLE
  2
VIEW
 70
     0
  0
ENDTAB
  0
ENDSEC
  0
SECTION
  2
BLOCKS
  0
ENDSEC
  0
SECTION
  2
ENTITIES
  0
POINT
  8
0
  6
CONTINUOUS
 62
     7
 10
-123.00711
 20
232.61673
  0
POINT
  8
0
  6
CONTINUOUS
 62
     7
 10
-126.7
 20
150.85001
  0
POINT
  8
0
  6
CONTINUOUS
 62
     7
 10
-129.09282
 20
76.416885
  0
POINT
  8
0
  6
CONTINUOUS
 62
     7
 10
-123.00711
 20
232.61673
  0
POINT
  8
0
  6
CONTINUOUS
 62
     7
 10
-107.5565
 20
232.68161
  0
POINT
  8
0
  6
CONTINUOUS
 62
     7
 10
-107.94372
 20
151.17502
  0
POINT
  8
0
  6
CONTINUOUS
 62
     7
 10
-106.68489
 20
76.444199
  0
LINE
  8
0
  6
CONTINUOUS
 62
     7
 10
-136.50711
 20
218.11673
 11
-136.50711
 21
202.61673
  0
LINE
  8
0
  6
CONTINUOUS
 62
     7
 10
-109.50711
 20
202.61673
 11
-136.50711
 21
202.61673
  0
LINE
  8
0
  6
CONTINUOUS
 62
     7
 10
-109.50711
 20
212.11673
 11
-109.50711
 21
202.61673
  0
LINE
  8
0
  6
CONTINUOUS
 62
     7
 10
-94.007111
 20
216.11673
 11
-105.50711
 21
216.11673
  0
LINE
  8
0
  6
CONTINUOUS
 62
     7
 10
-94.007111
 20
249.11673
 11
-94.007111
 21
216.11673
  0
LINE
  8
0
  6
CONTINUOUS
 62
     7
 10
-94.007111
 20
219.61673
 11
-91.227608
 21
219.61673
  0
LINE
  8
0
  6
CONTINUOUS
 62
     7
 10
-91.227608
 20
245.61673
 11
-91.227608
 21
219.61673
  0
LINE
  8
0
  6
CONTINUOUS
 62
     7
 10
-94.007111
 20
245.61673
 11
-91.227608
 21
245.61673
  0
LINE
  8
0
  6
CONTINUOUS
 62
     7
 10
-94.007111
 20
249.11673
 11
-105.50711
 21
249.11673
  0
LINE
  8
0
  6
CENTER
 62
     7
 10
-84
 20
232.61673
 11
-142.10001
 21
232.61673
  0
LINE
  8
0
  6
CENTER
 62
     7
 10
-123.00636
 20
253.05
 11
-123.00636
 21
199.85001
  0
LINE
  8
0
  6
CONTINUOUS
 62
     7
 10
-95.839478
 20
249.11673
 11
-95.839478
 21
216.11673
  0
LINE
  8
0
  6
CONTINUOUS
 62
     7
 10
-102.83948
 20
249.11673
 11
-102.83948
 21
216.11673
  0
LINE
  8
0
  6
CENTER
 62
     7
 10
-146.7832
 20
150.85001
 11
-86.778473
 21
150.85001
  0
LINE
  8
0
  6
CENTER
 62
     7
 10
-126.7
 20
173.61789
 11
-126.7
 21
109.56789
  0
LINE
  8
0
  6
CONTINUOUS
 62
     7
 10
-109.2
 20
171.35001
 11
-92.699997
 21
171.35001
  0
LINE
  8
0
  6
CONTINUOUS
 62
     7
 10
-90.063995
 20
134.60001
 11
-90.063995
 21
167.10001
  0
LINE
  8
0
  6
CONTINUOUS
 62
     7
 10
-92.699997
 20
130.35001
 11
-92.699997
 21
171.35001
  0
LINE
  8
0
  6
CONTINUOUS
 62
     7
 10
-92.699997
 20
167.10001
 11
-90.063995
 21
167.10001
  0
LINE
  8
0
  6
CONTINUOUS
 62
     7
 10
-92.699997
 20
134.60001
 11
-90.063995
 21
134.60001
  0
LINE
  8
0
  6
CONTINUOUS
 62
     7
 10
-105.2
 20
130.35001
 11
-92.699997
 21
130.35001
  0
LINE
  8
0
  6
CONTINUOUS
 62
     7
 10
-110.2
 20
125.35
 11
-110.2
 21
115.85
  0
LINE
  8
0
  6
CONTINUOUS
 62
     7
 10
-110.2
 20
115.85
 11
-126.7
 21
115.85
  0
LINE
  8
0
  6
CONTINUOUS
 62
     7
 10
-143.2
 20
115.85
 11
-126.7
 21
115.85
  0
LINE
  8
0
  6
CONTINUOUS
 62
     7
 10
-143.2
 20
137.35001
 11
-143.2
 21
115.85
  0
LINE
  8
0
  6
CONTINUOUS
 62
     7
 10
-94.283195
 20
171.35001
 11
-94.283195
 21
130.35001
  0
LINE
  8
0
  6
CONTINUOUS
 62
     7
 10
-101.2832
 20
171.35001
 11
-101.2832
 21
130.35001
  0
LINE
  8
0
  6
CONTINUOUS
 62
     7
 10
-108.59282
 20
34.416885
 11
-149.5928
 21
34.416885
  0
LINE
  8
0
  6
CONTINUOUS
 62
     7
 10
-149.5928
 20
59.416885
 11
-149.5928
 21
34.416885
  0
LINE
  8
0
  6
CONTINUOUS
 62
     7
 10
-108.59282
 20
46.416885
 11
-108.59282
 21
34.416885
  0
LINE
  8
0
  6
CONTINUOUS
 62
     7
 10
-89.092819
 20
51.416885
 11
-103.59282
 21
51.416885
  0
LINE
  8
0
  6
CONTINUOUS
 62
     7
 10
-89.092819
 20
101.41688
 11
-89.092819
 21
51.416885
  0
LINE
  8
0
  6
CONTINUOUS
 62
     7
 10
-89.092819
 20
55.666885
 11
-86.320343
 21
55.666885
  0
LINE
  8
0
  6
CONTINUOUS
 62
     7
 10
-86.320343
 20
97.166878
 11
-86.320343
 21
55.666885
  0
LINE
  8
0
  6
CENTER
 62
     7
 10
-129.09282
 20
102.2
 11
-129.09282
 21
31.416885
  0
LINE
  8
0
  6
CENTER
 62
     7
 10
-84.092819
 20
76.416885
 11
-155.925
 21
76.416885
  0
LINE
  8
0
  6
CONTINUOUS
 62
     7
 10
-89.092819
 20
101.41688
 11
-107.59282
 21
101.41688
  0
LINE
  8
0
  6
CONTINUOUS
 62
     7
 10
-89.092819
 20
97.166878
 11
-86.320343
 21
97.166878
  0
LINE
  8
0
  6
CONTINUOUS
 62
     7
 10
-108.0065
 20
237.18161
 11
-108.0065
 21
235.94901
  0
LINE
  8
0
  6
CONTINUOUS
 62
     7
 10
-107.10651
 20
237.18161
 11
-107.10651
 21
235.94901
  0
LINE
  8
0
  6
CONTINUOUS
 62
     7
 10
-107.10651
 20
229.41422
 11
-107.10651
 21
228.18161
  0
LINE
  8
0
  6
CONTINUOUS
 62
     7
 10
-108.0065
 20
229.41422
 11
-108.0065
 21
228.18161
  0
LINE
  8
0
  6
CONTINUOUS
 62
     7
 10
-107.10651
 20
235.04575
 11
-107.10651
 21
232.68161
  0
LINE
  8
0
  6
CONTINUOUS
 62
     7
 10
-108.0065
 20
235.04575
 11
-108.0065
 21
232.68161
  0
LINE
  8
0
  6
CONTINUOUS
 62
     7
 10
-108.54371
 20
157.17502
 11
-108.54371
 21
155.53156
  0
LINE
  8
0
  6
CONTINUOUS
 62
     7
 10
-107.34371
 20
157.17502
 11
-107.34371
 21
155.53156
  0
LINE
  8
0
  6
CONTINUOUS
 62
     7
 10
-107.34371
 20
146.8185
 11
-107.34371
 21
145.17502
  0
LINE
  8
0
  6
CONTINUOUS
 62
     7
 10
-108.54371
 20
146.8185
 11
-108.54371
 21
145.17502
  0
LINE
  8
0
  6
CONTINUOUS
 62
     7
 10
-107.34371
 20
154.32719
 11
-107.34371
 21
151.17502
  0
LINE
  8
0
  6
CONTINUOUS
 62
     7
 10
-108.54371
 20
154.32719
 11
-108.54371
 21
151.17502
  0
LINE
  8
0
  6
CONTINUOUS
 62
     7
 10
-107.28488
 20
82.444199
 11
-107.28488
 21
80.800735
  0
LINE
  8
0
  6
CONTINUOUS
 62
     7
 10
-106.08488
 20
82.444199
 11
-106.08488
 21
80.800735
  0
LINE
  8
0
  6
CONTINUOUS
 62
     7
 10
-106.08488
 20
72.087662
 11
-106.08488
 21
70.444199
  0
LINE
  8
0
  6
CONTINUOUS
 62
     7
 10
-107.28488
 20
72.087662
 11
-107.28488
 21
70.444199
  0
LINE
  8
0
  6
CONTINUOUS
 62
     7
 10
-106.08488
 20
79.59639
 11
-106.08488
 21
76.444199
  0
LINE
  8
0
  6
CONTINUOUS
 62
     7
 10
-107.28488
 20
79.59639
 11
-107.28488
 21
76.444199
  0
LINE
  8
0
  6
CONTINUOUS
 62
     7
 10
-98.80574
 20
101.41688
 11
-98.80574
 21
51.416885
  0
LINE
  8
0
  6
CONTINUOUS
 62
     7
 10
-91.80574
 20
101.41688
 11
-91.80574
 21
51.416885
  0
ARC
  8
0
  6
CONTINUOUS
 62
     7
 10
-105.50711
 20
212.11673
 40
4
 50
90.000003
 51
180.00001
  0
ARC
  8
0
  6
CONTINUOUS
 62
     7
 10
-105.50711
 20
218.11673
 40
31
 50
90.000003
 51
180.00001
  0
ARC
  8
0
  6
CONTINUOUS
 62
     7
 10
-109.2
 20
137.35001
 40
34
 50
89.999996
 51
179.99999
  0
ARC
  8
0
  6
CONTINUOUS
 62
     7
 10
-105.2
 20
125.35
 40
5
 50
89.999996
 51
179.99999
  0
ARC
  8
0
  6
CONTINUOUS
 62
     7
 10
-103.59282
 20
46.416885
 40
5
 50
90.000003
 51
180.00001
  0
ARC
  8
0
  6
CONTINUOUS
 62
     7
 10
-107.59282
 20
59.416885
 40
42
 50
90.000003
 51
180.00001
  0
ARC
  8
0
  6
CONTINUOUS
 62
     7
 10
-107.5565
 20
235.15833
 40
5.7617307
 50
233.99167
 51
265.52055
  0
ARC
  8
0
  6
CONTINUOUS
 62
     7
 10
-109.35651
 20
232.68161
 40
1.8
 50
126.00833
 51
233.99168
  0
ARC
  8
0
  6
CONTINUOUS
 62
     7
 10
-109.35651
 20
232.68161
 40
2.7
 50
126.00833
 51
233.99168
  0
ARC
  8
0
  6
CONTINUOUS
 62
     7
 10
-105.7565
 20
232.68161
 40
1.8
 50
306.00832
 51
53.991672
  0
ARC
  8
0
  6
CONTINUOUS
 62
     7
 10
-105.7565
 20
232.68161
 40
2.7
 50
306.00832
 51
53.991672
  0
ARC
  8
0
  6
CONTINUOUS
 62
     7
 10
-107.5565
 20
230.20486
 40
5.7617307
 50
94.479452
 51
126.00833
  0
ARC
  8
0
  6
CONTINUOUS
 62
     7
 10
-107.5565
 20
230.20486
 40
4.8617306
 50
95.310878
 51
126.00833
  0
ARC
  8
0
  6
CONTINUOUS
 62
     7
 10
-107.5565
 20
235.15833
 40
4.8617306
 50
233.99167
 51
306.00833
  0
ARC
  8
0
  6
CONTINUOUS
 62
     7
 10
-107.5565
 20
235.15833
 40
5.7617307
 50
274.47945
 51
306.00833
  0
ARC
  8
0
  6
CONTINUOUS
 62
     7
 10
-107.5565
 20
236.84412
 40
0.5625
 50
36.869908
 51
143.1301
  0
ARC
  8
0
  6
CONTINUOUS
 62
     7
 10
-107.5565
 20
233.0191
 40
0.5625
 50
216.8699
 51
323.1301
  0
ARC
  8
0
  6
CONTINUOUS
 62
     7
 10
-107.5565
 20
228.5191
 40
0.5625
 50
216.8699
 51
323.1301
  0
ARC
  8
0
  6
CONTINUOUS
 62
     7
 10
-107.5565
 20
230.20486
 40
5.7617307
 50
53.991672
 51
85.520546
  0
ARC
  8
0
  6
CONTINUOUS
 62
     7
 10
-107.5565
 20
230.20486
 40
4.8617306
 50
53.991672
 51
84.689121
  0
ARC
  8
0
  6
CONTINUOUS
 62
     7
 10
-110.34371
 20
151.17502
 40
2.4000001
 50
126.00833
 51
233.99168
  0
ARC
  8
0
  6
CONTINUOUS
 62
     7
 10
-110.34371
 20
151.17502
 40
3.5999999
 50
126.00833
 51
233.99168
  0
ARC
  8
0
  6
CONTINUOUS
 62
     7
 10
-105.54371
 20
151.17502
 40
2.4000001
 50
306.00832
 51
53.991672
  0
ARC
  8
0
  6
CONTINUOUS
 62
     7
 10
-105.54371
 20
151.17502
 40
3.5999999
 50
306.00832
 51
53.991672
  0
ARC
  8
0
  6
CONTINUOUS
 62
     7
 10
-107.94372
 20
147.87271
 40
7.6823077
 50
94.479452
 51
126.00833
  0
ARC
  8
0
  6
CONTINUOUS
 62
     7
 10
-107.94372
 20
147.87271
 40
6.4823079
 50
95.310878
 51
126.00833
  0
ARC
  8
0
  6
CONTINUOUS
 62
     7
 10
-107.94372
 20
154.47733
 40
6.4823079
 50
233.99167
 51
306.00833
  0
ARC
  8
0
  6
CONTINUOUS
 62
     7
 10
-107.94372
 20
154.47733
 40
7.6823077
 50
274.47945
 51
306.00833
  0
ARC
  8
0
  6
CONTINUOUS
 62
     7
 10
-107.94372
 20
156.72502
 40
0.75
 50
36.869908
 51
143.1301
  0
ARC
  8
0
  6
CONTINUOUS
 62
     7
 10
-107.94372
 20
151.62503
 40
0.75
 50
216.8699
 51
323.1301
  0
ARC
  8
0
  6
CONTINUOUS
 62
     7
 10
-107.94372
 20
145.62503
 40
0.75
 50
216.8699
 51
323.1301
  0
ARC
  8
0
  6
CONTINUOUS
 62
     7
 10
-107.94372
 20
147.87271
 40
6.4823079
 50
53.991672
 51
84.689121
  0
ARC
  8
0
  6
CONTINUOUS
 62
     7
 10
-107.94372
 20
147.87271
 40
7.6823077
 50
53.991672
 51
85.520546
  0
ARC
  8
0
  6
CONTINUOUS
 62
     7
 10
-107.94372
 20
154.47733
 40
7.6823077
 50
233.99167
 51
265.52055
  0
ARC
  8
0
  6
CONTINUOUS
 62
     7
 10
-109.08488
 20
76.444199
 40
2.4000001
 50
126.00833
 51
233.99168
  0
ARC
  8
0
  6
CONTINUOUS
 62
     7
 10
-109.08488
 20
76.444199
 40
3.5999999
 50
126.00833
 51
233.99168
  0
ARC
  8
0
  6
CONTINUOUS
 62
     7
 10
-104.28488
 20
76.444199
 40
2.4000001
 50
306.00832
 51
53.991672
  0
ARC
  8
0
  6
CONTINUOUS
 62
     7
 10
-104.28488
 20
76.444199
 40
3.5999999
 50
306.00832
 51
53.991672
  0
ARC
  8
0
  6
CONTINUOUS
 62
     7
 10
-106.68489
 20
73.141891
 40
7.6823077
 50
94.479452
 51
126.00833
  0
ARC
  8
0
  6
CONTINUOUS
 62
     7
 10
-106.68489
 20
73.141891
 40
6.4823079
 50
95.310878
 51
126.00833
  0
ARC
  8
0
  6
CONTINUOUS
 62
     7
 10
-106.68489
 20
79.746506
 40
6.4823079
 50
233.99167
 51
306.00833
  0
ARC
  8
0
  6
CONTINUOUS
 62
     7
 10
-106.68489
 20
79.746506
 40
7.6823077
 50
274.47945
 51
306.00833
  0
ARC
  8
0
  6
CONTINUOUS
 62
     7
 10
-106.68489
 20
81.994217
 40
0.75
 50
36.869908
 51
143.1301
  0
ARC
  8
0
  6
CONTINUOUS
 62
     7
 10
-106.68489
 20
76.894211
 40
0.75
 50
216.8699
 51
323.1301
  0
ARC
  8
0
  6
CONTINUOUS
 62
     7
 10
-106.68489
 20
70.894211
 40
0.75
 50
216.8699
 51
323.1301
  0
ARC
  8
0
  6
CONTINUOUS
 62
     7
 10
-106.68489
 20
73.141891
 40
6.4823079
 50
53.991672
 51
84.689121
  0
ARC
  8
0
  6
CONTINUOUS
 62
     7
 10
-106.68489
 20
73.141891
 40
7.6823077
 50
53.991672
 51
85.520546
  0
ARC
  8
0
  6
CONTINUOUS
 62
     7
 10
-106.68489
 20
79.746506
 40
7.6823077
 50
233.99167
 51
265.52055
  0
TEXT
  8
0
  6
CONTINUOUS
 62
     7
 10
-186.56013
 20
276.28214
 40
5
 41
0.84247986
  1
ＲＣＦ－Ｋ　ＺＷＬ（給水栓用　エルボ）
  0
TEXT
  8
0
  6
CONTINUOUS
 62
     7
 10
-135.08365
 20
259.62308
 40
3.2
 41
1.0178573
  1
1/2
  0
TEXT
  8
0
  6
CONTINUOUS
 62
     7
 10
-127.41417
 20
183.23725
 40
3.2
 41
1.0178573
  1
3/4
  0
TEXT
  8
0
  6
CONTINUOUS
 62
     7
 10
-139.51476
 20
100.39905
 40
3.2
 41
1.0714291
  1
1
  0
TEXT
  8
0
  6
CONTINUOUS
 62
     7
 10
-97.634238
 20
216.37277
 40
3.2
 41
0.84447575
  1
１／２　器具側　１３
 50
90.000003
  0
TEXT
  8
0
  6
CONTINUOUS
 62
     7
 10
-96.050001
 20
133.95715
 40
3.2
 41
0.84447575
  1
３／４　器具側　２０
 50
90.000003
  0
TEXT
  8
0
  6
CONTINUOUS
 62
     7
 10
-93.549994
 20
60.009776
 40
3.2
 41
0.84447575
  1
　１　　器具側　２５
 50
90.000003
  0
POINT
  8
1
  6
CONTINUOUS
 62
     7
 10
-210
 20
0
  0
POINT
  8
1
  6
CONTINUOUS
 62
     7
 10
0
 20
0
  0
POINT
  8
1
  6
CONTINUOUS
 62
     7
 10
0
 20
0
  0
POINT
  8
1
  6
CONTINUOUS
 62
     7
 10
-210
 20
297
  0
POINT
  8
1
  6
CONTINUOUS
 62
     7
 10
-210
 20
0
  0
POINT
  8
1
  6
CONTINUOUS
 62
     7
 10
0
 20
0
  0
POINT
  8
1
  6
CONTINUOUS
 62
     7
 10
0
 20
297
  0
LINE
  8
1
  6
CONTINUOUS
 62
     7
 10
-210
 20
0
 11
0
 21
0
  0
LINE
  8
1
  6
CONTINUOUS
 62
     7
 10
-210
 20
297
 11
0
 21
297
  0
LINE
  8
1
  6
CONTINUOUS
 62
     7
 10
0
 20
297
 11
0
 21
0
  0
LINE
  8
1
  6
CONTINUOUS
 62
     7
 10
-210
 20
297
 11
-210
 21
0
  0
ENDSEC
  0
EOF
