  0
SECTION
  2
HEADER
  9
$EXTMAX
 10
0
 20
297
  9
$EXTMIN
 10
-210
 20
0
  0
ENDSEC
  0
SECTION
  2
TABLES
  0
TABLE
  2
LTYPE
 70
    22
  0
LTYPE
  2
CONTINUOUS
 70
    64
  3
Solid line
 72
    65
 73
     0
 40
0.000000
  0
LTYPE
  2
DASHED
 70
    64
  3
__ __ __ __ __ __ __ __ __ __ __ __ __ __ __
 72
    65
 73
     2
 40
3.500000
 49
2.000000
 49
-1.500000
  0
LTYPE
  2
CENTER
 70
    64
  3
____ _ ____ _ ____ _ ____ _ ____ _ ____ _ ____
 72
    65
 73
     4
 40
17.500000
 49
13.000000
 49
-1.500000
 49
1.500000
 49
-1.500000
  0
LTYPE
  2
PHANTOM
 70
    64
  3
_____ _ _ _____ _ _ _____ _ _ _____ _ _ ____  
 72
    65
 73
     6
 40
15.500000
 49
8.000000
 49
-1.500000
 49
1.500000
 49
-1.500000
 49
1.500000
 49
-1.500000
  0
LTYPE
  2
DOT
 70
    64
  3
. . . . . . . . . . . . . . . . . . . . . . . .
 72
    65
 73
     2
 40
0.25
 49
0.0
 49
-0.25
  0
ENDTAB
  0
TABLE
  2
LAYER
 70
     2
  0
LAYER
  2
0
 70
     0
 62
     7
  6
CONTINUOUS
  0
LAYER
  2
1
 70
     0
 62
     7
  6
CONTINUOUS
  0
ENDTAB
  0
TABLE
  2
STYLE
 70
     1
  0
STYLE
  2
STANDARD
 70
     0
 40
0.000000
 41
1.000000
 50
0.000000
 71
     0
 42
0.200000
  3
txt
  4
BIGFONT
  0
ENDTAB
  0
TABLE
  2
VIEW
 70
     0
  0
ENDTAB
  0
ENDSEC
  0
SECTION
  2
BLOCKS
  0
ENDSEC
  0
SECTION
  2
ENTITIES
  0
POINT
  8
0
  6
CONTINUOUS
 62
     7
 10
-139.65164
 20
93.931931
  0
POINT
  8
0
  6
CONTINUOUS
 62
     7
 10
-135.22083
 20
220.36728
  0
POINT
  8
0
  6
CONTINUOUS
 62
     7
 10
-137.13881
 20
164.45137
  0
POINT
  8
0
  6
CONTINUOUS
 62
     7
 10
72.404129
 20
242.23238
  0
POINT
  8
0
  6
CONTINUOUS
 62
     7
 10
73.097122
 20
152.14333
  0
POINT
  8
0
  6
CONTINUOUS
 62
     7
 10
74.483109
 20
56.51033
  0
POINT
  8
0
  6
CONTINUOUS
 62
     7
 10
-117.72083
 20
220.36728
  0
POINT
  8
0
  6
CONTINUOUS
 62
     7
 10
-117.13881
 20
164.45137
  0
POINT
  8
0
  6
CONTINUOUS
 62
     7
 10
-117.15166
 20
93.931931
  0
POINT
  8
0
  6
CONTINUOUS
 62
     7
 10
-117.72083
 20
220.36728
  0
POINT
  8
0
  6
CONTINUOUS
 62
     7
 10
-117.13881
 20
164.45137
  0
POINT
  8
0
  6
CONTINUOUS
 62
     7
 10
-117.13881
 20
164.45137
  0
POINT
  8
0
  6
CONTINUOUS
 62
     7
 10
-117.15166
 20
93.931931
  0
POINT
  8
0
  6
CONTINUOUS
 62
     7
 10
97.404129
 20
242.23238
  0
POINT
  8
0
  6
CONTINUOUS
 62
     7
 10
100.59712
 20
152.14333
  0
POINT
  8
0
  6
CONTINUOUS
 62
     7
 10
104.48311
 20
56.51033
  0
POINT
  8
0
  6
CONTINUOUS
 62
     7
 10
97.404129
 20
242.23238
  0
POINT
  8
0
  6
CONTINUOUS
 62
     7
 10
100.59712
 20
152.14333
  0
POINT
  8
0
  6
CONTINUOUS
 62
     7
 10
104.48311
 20
56.51033
  0
POINT
  8
0
  6
CONTINUOUS
 62
     7
 10
-117.72083
 20
220.36728
  0
POINT
  8
0
  6
CONTINUOUS
 62
     7
 10
-117.13881
 20
164.45137
  0
POINT
  8
0
  6
CONTINUOUS
 62
     7
 10
-117.15166
 20
93.931931
  0
POINT
  8
0
  6
CONTINUOUS
 62
     7
 10
97.404129
 20
242.23238
  0
POINT
  8
0
  6
CONTINUOUS
 62
     7
 10
100.59712
 20
152.14333
  0
POINT
  8
0
  6
CONTINUOUS
 62
     7
 10
104.48311
 20
56.51033
  0
LINE
  8
0
  6
CONTINUOUS
 62
     7
 10
-139.65164
 20
114.43193
 11
-139.65164
 21
73.431931
  0
LINE
  8
0
  6
CONTINUOUS
 62
     7
 10
-139.65164
 20
73.431931
 11
-94.651665
 21
73.431931
  0
LINE
  8
0
  6
CENTER
 62
     7
 10
-144.54227
 20
93.931931
 11
-59.526173
 21
93.931931
  0
LINE
  8
0
  6
CONTINUOUS
 62
     7
 10
-64.651649
 20
113.68193
 11
-90.651649
 21
113.68193
  0
LINE
  8
0
  6
CONTINUOUS
 62
     7
 10
-64.651649
 20
113.68193
 11
-64.651649
 21
74.181931
  0
LINE
  8
0
  6
CONTINUOUS
 62
     7
 10
-64.651649
 20
74.181931
 11
-90.651649
 21
74.181931
  0
LINE
  8
0
  6
CONTINUOUS
 62
     7
 10
-94.277145
 20
73.431931
 11
-91.151649
 21
73.431931
  0
LINE
  8
0
  6
CONTINUOUS
 62
     7
 10
-139.65164
 20
114.43193
 11
-94.651665
 21
114.43193
  0
LINE
  8
0
  6
CONTINUOUS
 62
     7
 10
-94.651665
 20
114.43193
 11
-94.651665
 21
73.431931
  0
LINE
  8
0
  6
CONTINUOUS
 62
     7
 10
-94.277145
 20
73.431931
 11
-94.277145
 21
114.43193
  0
LINE
  8
0
  6
CONTINUOUS
 62
     7
 10
-94.277145
 20
114.43193
 11
-91.151649
 21
114.43193
  0
LINE
  8
0
  6
CONTINUOUS
 62
     7
 10
-91.151649
 20
114.43193
 11
-91.151649
 21
73.431931
  0
LINE
  8
0
  6
CONTINUOUS
 62
     7
 10
-90.651649
 20
113.68193
 11
-90.651649
 21
74.181931
  0
LINE
  8
0
  6
CENTER
 62
     7
 10
-140.22083
 20
220.36728
 11
-72.420822
 21
220.36728
  0
LINE
  8
0
  6
CONTINUOUS
 62
     7
 10
-135.22083
 20
233.86728
 11
-135.22083
 21
206.86728
  0
LINE
  8
0
  6
CONTINUOUS
 62
     7
 10
-100.22083
 20
233.86728
 11
-135.22083
 21
233.86728
  0
LINE
  8
0
  6
CONTINUOUS
 62
     7
 10
-100.22083
 20
233.86728
 11
-100.22083
 21
206.86728
  0
LINE
  8
0
  6
CONTINUOUS
 62
     7
 10
-99.720825
 20
233.86728
 11
-99.720825
 21
206.86728
  0
LINE
  8
0
  6
CONTINUOUS
 62
     7
 10
-99.720825
 20
233.86728
 11
-97.220825
 21
233.86728
  0
LINE
  8
0
  6
CONTINUOUS
 62
     7
 10
-97.220825
 20
233.86728
 11
-97.220825
 21
206.86728
  0
LINE
  8
0
  6
CONTINUOUS
 62
     7
 10
-96.720825
 20
234.36728
 11
-96.720825
 21
206.36728
  0
LINE
  8
0
  6
CONTINUOUS
 62
     7
 10
-76.220818
 20
234.36728
 11
-76.220818
 21
206.36728
  0
LINE
  8
0
  6
CONTINUOUS
 62
     7
 10
-99.720825
 20
206.86728
 11
-97.220825
 21
206.86728
  0
LINE
  8
0
  6
CONTINUOUS
 62
     7
 10
-100.22083
 20
206.86728
 11
-135.22083
 21
206.86728
  0
LINE
  8
0
  6
CONTINUOUS
 62
     7
 10
-137.13881
 20
147.95137
 11
-137.13881
 21
180.95135
  0
LINE
  8
0
  6
CONTINUOUS
 62
     7
 10
-97.138809
 20
180.95135
 11
-97.138809
 21
147.95137
  0
LINE
  8
0
  6
CONTINUOUS
 62
     7
 10
-96.638809
 20
180.95135
 11
-96.638809
 21
147.95137
  0
LINE
  8
0
  6
CONTINUOUS
 62
     7
 10
-96.638809
 20
180.95135
 11
-94.638809
 21
180.95135
  0
LINE
  8
0
  6
CONTINUOUS
 62
     7
 10
-94.638809
 20
180.95135
 11
-94.638809
 21
147.95137
  0
LINE
  8
0
  6
CONTINUOUS
 62
     7
 10
-94.138809
 20
180.70137
 11
-94.138809
 21
148.20137
  0
LINE
  8
0
  6
CONTINUOUS
 62
     7
 10
-94.138809
 20
180.70137
 11
-72.138809
 21
180.70137
  0
LINE
  8
0
  6
CONTINUOUS
 62
     7
 10
-72.138809
 20
180.70137
 11
-72.138809
 21
148.20137
  0
LINE
  8
0
  6
CONTINUOUS
 62
     7
 10
-94.138809
 20
148.20137
 11
-72.138809
 21
148.20137
  0
LINE
  8
0
  6
CONTINUOUS
 62
     7
 10
-96.638809
 20
147.95137
 11
-94.638809
 21
147.95137
  0
LINE
  8
0
  6
CONTINUOUS
 62
     7
 10
-137.13881
 20
147.95137
 11
-97.138809
 21
147.95137
  0
LINE
  8
0
  6
CONTINUOUS
 62
     7
 10
-125.63881
 20
146.95137
 11
-125.63881
 21
147.45137
  0
LINE
  8
0
  6
CONTINUOUS
 62
     7
 10
-117.13881
 20
146.45137
 11
-125.13881
 21
146.45137
  0
LINE
  8
0
  6
CONTINUOUS
 62
     7
 10
-117.13881
 20
146.45137
 11
-109.13881
 21
146.45137
  0
LINE
  8
0
  6
CONTINUOUS
 62
     7
 10
-108.63881
 20
146.95137
 11
-108.63881
 21
147.45137
  0
LINE
  8
0
  6
CONTINUOUS
 62
     7
 10
-97.138809
 20
180.95135
 11
-137.13881
 21
180.95135
  0
LINE
  8
0
  6
CONTINUOUS
 62
     7
 10
-125.63881
 20
181.95135
 11
-125.63881
 21
181.45135
  0
LINE
  8
0
  6
CONTINUOUS
 62
     7
 10
-117.13881
 20
182.45135
 11
-125.13881
 21
182.45135
  0
LINE
  8
0
  6
CONTINUOUS
 62
     7
 10
-117.13881
 20
182.45135
 11
-109.13881
 21
182.45135
  0
LINE
  8
0
  6
CONTINUOUS
 62
     7
 10
-108.63881
 20
181.95135
 11
-108.63881
 21
181.45135
  0
LINE
  8
0
  6
CENTER
 62
     7
 10
-142.13882
 20
164.45137
 11
-66.795403
 21
164.45137
  0
LINE
  8
0
  6
CONTINUOUS
 62
     7
 10
156.40413
 20
267.23236
 11
156.40413
 21
217.23238
  0
LINE
  8
0
  6
CONTINUOUS
 62
     7
 10
72.404129
 20
267.23239
 11
72.404129
 21
217.23238
  0
LINE
  8
0
  6
CENTER
 62
     7
 10
67.404129
 20
242.23238
 11
161.40413
 21
242.23238
  0
LINE
  8
0
  6
CONTINUOUS
 62
     7
 10
72.404129
 20
217.23238
 11
122.40413
 21
217.23238
  0
LINE
  8
0
  6
CONTINUOUS
 62
     7
 10
122.90413
 20
217.23238
 11
125.90413
 21
217.23238
  0
LINE
  8
0
  6
CONTINUOUS
 62
     7
 10
109.40413
 20
268.23239
 11
109.40413
 21
267.73239
  0
LINE
  8
0
  6
CONTINUOUS
 62
     7
 10
85.404114
 20
268.23239
 11
85.404114
 21
267.73239
  0
LINE
  8
0
  6
CONTINUOUS
 62
     7
 10
97.404129
 20
268.23239
 11
85.404114
 21
268.23239
  0
LINE
  8
0
  6
CONTINUOUS
 62
     7
 10
97.404129
 20
268.23239
 11
109.40413
 21
268.23239
  0
LINE
  8
0
  6
CONTINUOUS
 62
     7
 10
72.404129
 20
267.23239
 11
122.40413
 21
267.23239
  0
LINE
  8
0
  6
CONTINUOUS
 62
     7
 10
122.40413
 20
267.23239
 11
122.40413
 21
217.23238
  0
LINE
  8
0
  6
CONTINUOUS
 62
     7
 10
122.90413
 20
267.23239
 11
122.90413
 21
217.23238
  0
LINE
  8
0
  6
CONTINUOUS
 62
     7
 10
122.90413
 20
267.23239
 11
125.90413
 21
267.23239
  0
LINE
  8
0
  6
CONTINUOUS
 62
     7
 10
125.90413
 20
267.23239
 11
125.90413
 21
217.23238
  0
LINE
  8
0
  6
CONTINUOUS
 62
     7
 10
126.40413
 20
267.23236
 11
126.40413
 21
217.23238
  0
LINE
  8
0
  6
CONTINUOUS
 62
     7
 10
109.40413
 20
216.23238
 11
109.40413
 21
216.73238
  0
LINE
  8
0
  6
CONTINUOUS
 62
     7
 10
97.404129
 20
216.23238
 11
109.40413
 21
216.23238
  0
LINE
  8
0
  6
CONTINUOUS
 62
     7
 10
97.404129
 20
216.23238
 11
85.404114
 21
216.23238
  0
LINE
  8
0
  6
CONTINUOUS
 62
     7
 10
85.404114
 20
216.23238
 11
85.404114
 21
216.73238
  0
LINE
  8
0
  6
CONTINUOUS
 62
     7
 10
73.097122
 20
180.14333
 11
73.097122
 21
124.1433
  0
LINE
  8
0
  6
CENTER
 62
     7
 10
68.097122
 20
152.14333
 11
170.40996
 21
152.14333
  0
LINE
  8
0
  6
CONTINUOUS
 62
     7
 10
73.097122
 20
180.14333
 11
128.09712
 21
180.14333
  0
LINE
  8
0
  6
CONTINUOUS
 62
     7
 10
87.847122
 20
182.14333
 11
113.34712
 21
182.14333
  0
LINE
  8
0
  6
CONTINUOUS
 62
     7
 10
128.09712
 20
180.14333
 11
128.09712
 21
124.1433
  0
LINE
  8
0
  6
CONTINUOUS
 62
     7
 10
128.59712
 20
180.14333
 11
128.59712
 21
124.1433
  0
LINE
  8
0
  6
CONTINUOUS
 62
     7
 10
128.59712
 20
180.14333
 11
131.59712
 21
180.14333
  0
LINE
  8
0
  6
CONTINUOUS
 62
     7
 10
131.59712
 20
180.14333
 11
131.59712
 21
124.1433
  0
LINE
  8
0
  6
CONTINUOUS
 62
     7
 10
132.09712
 20
180.14333
 11
132.09712
 21
124.14332
  0
LINE
  8
0
  6
CONTINUOUS
 62
     7
 10
132.09712
 20
180.14333
 11
166.09712
 21
180.14333
  0
LINE
  8
0
  6
CONTINUOUS
 62
     7
 10
166.09712
 20
180.14333
 11
166.09712
 21
124.14332
  0
LINE
  8
0
  6
CONTINUOUS
 62
     7
 10
132.09712
 20
124.14332
 11
166.09712
 21
124.14332
  0
LINE
  8
0
  6
CONTINUOUS
 62
     7
 10
128.59712
 20
124.1433
 11
131.59712
 21
124.1433
  0
LINE
  8
0
  6
CONTINUOUS
 62
     7
 10
73.097122
 20
124.1433
 11
128.09712
 21
124.1433
  0
LINE
  8
0
  6
CONTINUOUS
 62
     7
 10
87.847122
 20
122.14332
 11
113.34712
 21
122.14332
  0
LINE
  8
0
  6
CONTINUOUS
 62
     7
 10
74.483109
 20
91.0103
 11
74.483109
 21
22.01033
  0
LINE
  8
0
  6
CONTINUOUS
 62
     7
 10
138.48311
 20
91.0103
 11
138.48311
 21
22.01033
  0
LINE
  8
0
  6
CONTINUOUS
 62
     7
 10
138.48311
 20
22.01033
 11
175.48311
 21
22.01033
  0
LINE
  8
0
  6
CONTINUOUS
 62
     7
 10
134.98311
 20
22.01033
 11
137.98311
 21
22.01033
  0
LINE
  8
0
  6
CONTINUOUS
 62
     7
 10
175.48311
 20
91.0103
 11
175.48311
 21
22.01033
  0
LINE
  8
0
  6
CENTER
 62
     7
 10
69.483109
 20
56.51033
 11
180.48311
 21
56.51033
  0
LINE
  8
0
  6
CONTINUOUS
 62
     7
 10
138.48311
 20
91.0103
 11
175.48311
 21
91.0103
  0
LINE
  8
0
  6
CONTINUOUS
 62
     7
 10
91.733109
 20
93.010307
 11
117.23311
 21
93.010307
  0
LINE
  8
0
  6
CONTINUOUS
 62
     7
 10
74.483109
 20
91.0103
 11
134.48311
 21
91.0103
  0
LINE
  8
0
  6
CONTINUOUS
 62
     7
 10
134.48311
 20
91.0103
 11
134.48311
 21
22.01033
  0
LINE
  8
0
  6
CONTINUOUS
 62
     7
 10
134.98311
 20
91.0103
 11
134.98311
 21
22.01033
  0
LINE
  8
0
  6
CONTINUOUS
 62
     7
 10
134.98311
 20
91.0103
 11
137.98311
 21
91.0103
  0
LINE
  8
0
  6
CONTINUOUS
 62
     7
 10
137.98311
 20
91.0103
 11
137.98311
 21
22.01033
  0
LINE
  8
0
  6
CONTINUOUS
 62
     7
 10
74.483109
 20
22.01033
 11
134.48311
 21
22.01033
  0
LINE
  8
0
  6
CONTINUOUS
 62
     7
 10
91.733109
 20
20.01033
 11
117.23311
 21
20.01033
  0
LINE
  8
0
  6
CONTINUOUS
 62
     7
 10
-96.720825
 20
234.36728
 11
-76.220818
 21
234.36728
  0
LINE
  8
0
  6
CONTINUOUS
 62
     7
 10
-96.720825
 20
206.36728
 11
-76.220818
 21
206.36728
  0
LINE
  8
0
  6
CONTINUOUS
 62
     7
 10
-96.720825
 20
220.36728
 11
-76.220818
 21
220.36728
  0
LINE
  8
0
  6
CONTINUOUS
 62
     7
 10
-94.138809
 20
164.45137
 11
-72.138809
 21
164.45137
  0
LINE
  8
0
  6
CONTINUOUS
 62
     7
 10
-64.651649
 20
93.931931
 11
-90.651649
 21
93.931931
  0
LINE
  8
0
  6
CONTINUOUS
 62
     7
 10
126.40413
 20
267.23236
 11
156.40413
 21
267.23236
  0
LINE
  8
0
  6
CONTINUOUS
 62
     7
 10
126.40413
 20
217.23238
 11
156.40413
 21
217.23238
  0
LINE
  8
0
  6
CONTINUOUS
 62
     7
 10
126.40413
 20
242.23238
 11
156.40413
 21
242.23238
  0
LINE
  8
0
  6
CONTINUOUS
 62
     7
 10
132.09712
 20
152.14333
 11
166.09712
 21
152.14333
  0
LINE
  8
0
  6
CONTINUOUS
 62
     7
 10
138.48311
 20
56.510315
 11
175.48311
 21
56.510315
  0
LINE
  8
0
  6
CONTINUOUS
 62
     7
 10
-117.27083
 20
224.86728
 11
-117.27083
 21
223.63467
  0
LINE
  8
0
  6
CONTINUOUS
 62
     7
 10
-118.17082
 20
224.86728
 11
-118.17082
 21
223.63467
  0
LINE
  8
0
  6
CONTINUOUS
 62
     7
 10
-118.17082
 20
217.09988
 11
-118.17082
 21
215.86728
  0
LINE
  8
0
  6
CONTINUOUS
 62
     7
 10
-117.27083
 20
217.09988
 11
-117.27083
 21
215.86728
  0
LINE
  8
0
  6
CONTINUOUS
 62
     7
 10
-118.17082
 20
222.73141
 11
-118.17082
 21
220.36728
  0
LINE
  8
0
  6
CONTINUOUS
 62
     7
 10
-117.27083
 20
222.73141
 11
-117.27083
 21
220.36728
  0
LINE
  8
0
  6
CONTINUOUS
 62
     7
 10
-116.68881
 20
168.95137
 11
-116.68881
 21
167.71877
  0
LINE
  8
0
  6
CONTINUOUS
 62
     7
 10
-117.58881
 20
168.95137
 11
-117.58881
 21
167.71877
  0
LINE
  8
0
  6
CONTINUOUS
 62
     7
 10
-117.58881
 20
161.18398
 11
-117.58881
 21
159.95137
  0
LINE
  8
0
  6
CONTINUOUS
 62
     7
 10
-116.68881
 20
161.18398
 11
-116.68881
 21
159.95137
  0
LINE
  8
0
  6
CONTINUOUS
 62
     7
 10
-117.58881
 20
166.81551
 11
-117.58881
 21
164.45137
  0
LINE
  8
0
  6
CONTINUOUS
 62
     7
 10
-116.68881
 20
166.81551
 11
-116.68881
 21
164.45137
  0
LINE
  8
0
  6
CONTINUOUS
 62
     7
 10
-116.55165
 20
99.931931
 11
-116.55165
 21
98.288467
  0
LINE
  8
0
  6
CONTINUOUS
 62
     7
 10
-117.75166
 20
99.931931
 11
-117.75166
 21
98.288467
  0
LINE
  8
0
  6
CONTINUOUS
 62
     7
 10
-117.75166
 20
89.575394
 11
-117.75166
 21
87.931931
  0
LINE
  8
0
  6
CONTINUOUS
 62
     7
 10
-116.55165
 20
89.575394
 11
-116.55165
 21
87.931931
  0
LINE
  8
0
  6
CONTINUOUS
 62
     7
 10
-117.75166
 20
97.084106
 11
-117.75166
 21
93.931931
  0
LINE
  8
0
  6
CONTINUOUS
 62
     7
 10
-116.55165
 20
97.084106
 11
-116.55165
 21
93.931931
  0
LINE
  8
0
  6
CONTINUOUS
 62
     7
 10
-111.72083
 20
235.36728
 11
-123.72083
 21
235.36728
  0
LINE
  8
0
  6
CONTINUOUS
 62
     7
 10
-111.72083
 20
205.36728
 11
-123.72083
 21
205.36728
  0
LINE
  8
0
  6
CONTINUOUS
 62
     7
 10
-108.65166
 20
115.93193
 11
-125.65166
 21
115.93193
  0
LINE
  8
0
  6
CONTINUOUS
 62
     7
 10
-108.65166
 20
71.931931
 11
-125.65166
 21
71.931931
  0
LINE
  8
0
  6
CONTINUOUS
 62
     7
 10
98.00412
 20
248.23238
 11
98.00412
 21
246.58891
  0
LINE
  8
0
  6
CONTINUOUS
 62
     7
 10
96.804123
 20
248.23238
 11
96.804123
 21
246.58891
  0
LINE
  8
0
  6
CONTINUOUS
 62
     7
 10
96.804123
 20
237.87584
 11
96.804123
 21
236.23238
  0
LINE
  8
0
  6
CONTINUOUS
 62
     7
 10
98.00412
 20
237.87584
 11
98.00412
 21
236.23238
  0
LINE
  8
0
  6
CONTINUOUS
 62
     7
 10
96.804123
 20
245.38455
 11
96.804123
 21
242.23238
  0
LINE
  8
0
  6
CONTINUOUS
 62
     7
 10
98.00412
 20
245.38455
 11
98.00412
 21
242.23238
  0
LINE
  8
0
  6
CONTINUOUS
 62
     7
 10
101.19713
 20
158.14333
 11
101.19713
 21
156.49986
  0
LINE
  8
0
  6
CONTINUOUS
 62
     7
 10
99.997116
 20
158.14333
 11
99.997116
 21
156.49986
  0
LINE
  8
0
  6
CONTINUOUS
 62
     7
 10
99.997116
 20
147.78679
 11
99.997116
 21
146.14333
  0
LINE
  8
0
  6
CONTINUOUS
 62
     7
 10
101.19713
 20
147.78679
 11
101.19713
 21
146.14333
  0
LINE
  8
0
  6
CONTINUOUS
 62
     7
 10
99.997116
 20
155.2955
 11
99.997116
 21
152.14333
  0
LINE
  8
0
  6
CONTINUOUS
 62
     7
 10
101.19713
 20
155.2955
 11
101.19713
 21
152.14333
  0
LINE
  8
0
  6
CONTINUOUS
 62
     7
 10
105.23311
 20
64.01033
 11
105.23311
 21
61.955994
  0
LINE
  8
0
  6
CONTINUOUS
 62
     7
 10
103.73311
 20
64.01033
 11
103.73311
 21
61.955994
  0
LINE
  8
0
  6
CONTINUOUS
 62
     7
 10
103.73311
 20
51.064651
 11
103.73311
 21
49.01033
  0
LINE
  8
0
  6
CONTINUOUS
 62
     7
 10
105.23311
 20
51.064651
 11
105.23311
 21
49.01033
  0
LINE
  8
0
  6
CONTINUOUS
 62
     7
 10
103.73311
 20
60.450546
 11
103.73311
 21
56.51033
  0
LINE
  8
0
  6
CONTINUOUS
 62
     7
 10
105.23311
 20
60.450546
 11
105.23311
 21
56.51033
  0
ARC
  8
0
  6
CONTINUOUS
 62
     7
 10
-126.13881
 20
147.45137
 40
0.5
 50
0
 51
90.000003
  0
ARC
  8
0
  6
CONTINUOUS
 62
     7
 10
-125.13881
 20
146.95137
 40
0.5
 50
179.99999
 51
270
  0
ARC
  8
0
  6
CONTINUOUS
 62
     7
 10
-109.13881
 20
146.95137
 40
0.5
 50
270
 51
0
  0
ARC
  8
0
  6
CONTINUOUS
 62
     7
 10
-108.13881
 20
147.45137
 40
0.5
 50
90.000003
 51
180.00001
  0
ARC
  8
0
  6
CONTINUOUS
 62
     7
 10
-126.13881
 20
181.45135
 40
0.5
 50
270
 51
0
  0
ARC
  8
0
  6
CONTINUOUS
 62
     7
 10
-125.13881
 20
181.95135
 40
0.5
 50
90.000003
 51
180.00001
  0
ARC
  8
0
  6
CONTINUOUS
 62
     7
 10
-109.13881
 20
181.95135
 40
0.5
 50
0
 51
90.000003
  0
ARC
  8
0
  6
CONTINUOUS
 62
     7
 10
-108.13881
 20
181.45135
 40
0.5
 50
179.99999
 51
270
  0
ARC
  8
0
  6
CONTINUOUS
 62
     7
 10
84.904114
 20
267.73239
 40
0.5
 50
270
 51
0
  0
ARC
  8
0
  6
CONTINUOUS
 62
     7
 10
109.90413
 20
267.73239
 40
0.5
 50
179.99999
 51
270
  0
ARC
  8
0
  6
CONTINUOUS
 62
     7
 10
109.90413
 20
216.73238
 40
0.5
 50
90.000003
 51
180.00001
  0
ARC
  8
0
  6
CONTINUOUS
 62
     7
 10
84.904114
 20
216.73238
 40
0.5
 50
0
 51
90.000003
  0
ARC
  8
0
  6
CONTINUOUS
 62
     7
 10
85.847122
 20
181.14333
 40
1
 50
270
 51
0
  0
ARC
  8
0
  6
CONTINUOUS
 62
     7
 10
87.847122
 20
181.14333
 40
1
 50
90.000003
 51
180.00001
  0
ARC
  8
0
  6
CONTINUOUS
 62
     7
 10
113.34712
 20
181.14333
 40
1
 50
0
 51
90.000003
  0
ARC
  8
0
  6
CONTINUOUS
 62
     7
 10
115.34712
 20
181.14333
 40
1
 50
179.99999
 51
270
  0
ARC
  8
0
  6
CONTINUOUS
 62
     7
 10
115.34712
 20
123.14332
 40
1
 50
90.000003
 51
180.00001
  0
ARC
  8
0
  6
CONTINUOUS
 62
     7
 10
113.34712
 20
123.14332
 40
1
 50
270
 51
0
  0
ARC
  8
0
  6
CONTINUOUS
 62
     7
 10
87.847122
 20
123.14332
 40
1
 50
179.99999
 51
270
  0
ARC
  8
0
  6
CONTINUOUS
 62
     7
 10
85.847122
 20
123.14332
 40
1
 50
0
 51
90.000003
  0
ARC
  8
0
  6
CONTINUOUS
 62
     7
 10
89.733109
 20
92.010307
 40
1
 50
270
 51
0
  0
ARC
  8
0
  6
CONTINUOUS
 62
     7
 10
91.733109
 20
92.010307
 40
1
 50
90.000003
 51
180.00001
  0
ARC
  8
0
  6
CONTINUOUS
 62
     7
 10
119.23311
 20
92.010307
 40
1
 50
179.99999
 51
270
  0
ARC
  8
0
  6
CONTINUOUS
 62
     7
 10
117.23311
 20
92.010307
 40
1
 50
0
 51
90.000003
  0
ARC
  8
0
  6
CONTINUOUS
 62
     7
 10
119.23311
 20
21.01033
 40
1
 50
90.000003
 51
180.00001
  0
ARC
  8
0
  6
CONTINUOUS
 62
     7
 10
117.23311
 20
21.01033
 40
1
 50
270
 51
0
  0
ARC
  8
0
  6
CONTINUOUS
 62
     7
 10
91.733109
 20
21.01033
 40
1
 50
179.99999
 51
270
  0
ARC
  8
0
  6
CONTINUOUS
 62
     7
 10
89.733109
 20
21.01033
 40
1
 50
0
 51
90.000003
  0
ARC
  8
0
  6
CONTINUOUS
 62
     7
 10
-117.15166
 20
94.381927
 40
0.75
 50
216.8699
 51
323.1301
  0
ARC
  8
0
  6
CONTINUOUS
 62
     7
 10
-117.15166
 20
97.234238
 40
7.6823077
 50
274.47945
 51
306.00832
  0
ARC
  8
0
  6
CONTINUOUS
 62
     7
 10
-117.15166
 20
90.629623
 40
7.6823077
 50
94.479452
 51
126.00833
  0
ARC
  8
0
  6
CONTINUOUS
 62
     7
 10
-117.15166
 20
90.629623
 40
6.4823079
 50
95.310878
 51
126.00833
  0
ARC
  8
0
  6
CONTINUOUS
 62
     7
 10
-117.15166
 20
88.381927
 40
0.75
 50
216.8699
 51
323.1301
  0
ARC
  8
0
  6
CONTINUOUS
 62
     7
 10
-117.15166
 20
99.481934
 40
0.75
 50
36.869897
 51
143.1301
  0
ARC
  8
0
  6
CONTINUOUS
 62
     7
 10
-117.15166
 20
97.234238
 40
7.6823077
 50
233.99167
 51
265.52055
  0
ARC
  8
0
  6
CONTINUOUS
 62
     7
 10
-117.15166
 20
97.234238
 40
6.4823079
 50
233.99167
 51
306.00832
  0
ARC
  8
0
  6
CONTINUOUS
 62
     7
 10
-115.92082
 20
220.36728
 40
1.8
 50
306.00832
 51
53.991676
  0
ARC
  8
0
  6
CONTINUOUS
 62
     7
 10
-115.92082
 20
220.36728
 40
2.7
 50
306.00832
 51
53.991676
  0
ARC
  8
0
  6
CONTINUOUS
 62
     7
 10
-119.52083
 20
220.36728
 40
1.8
 50
126.00833
 51
233.99168
  0
ARC
  8
0
  6
CONTINUOUS
 62
     7
 10
-119.52083
 20
220.36728
 40
2.7
 50
126.00833
 51
233.99168
  0
ARC
  8
0
  6
CONTINUOUS
 62
     7
 10
-117.72083
 20
217.89055
 40
5.7617307
 50
53.991676
 51
85.520553
  0
ARC
  8
0
  6
CONTINUOUS
 62
     7
 10
-117.72083
 20
217.89055
 40
4.8617306
 50
53.991676
 51
84.689121
  0
ARC
  8
0
  6
CONTINUOUS
 62
     7
 10
-117.72083
 20
222.84401
 40
4.8617306
 50
233.99167
 51
306.00832
  0
ARC
  8
0
  6
CONTINUOUS
 62
     7
 10
-117.72083
 20
222.84401
 40
5.7617307
 50
233.99167
 51
265.52055
  0
ARC
  8
0
  6
CONTINUOUS
 62
     7
 10
-117.72083
 20
224.52979
 40
0.5625
 50
36.869897
 51
143.1301
  0
ARC
  8
0
  6
CONTINUOUS
 62
     7
 10
-117.72083
 20
220.70477
 40
0.5625
 50
216.8699
 51
323.1301
  0
ARC
  8
0
  6
CONTINUOUS
 62
     7
 10
-117.72083
 20
216.20477
 40
0.5625
 50
216.8699
 51
323.1301
  0
ARC
  8
0
  6
CONTINUOUS
 62
     7
 10
-117.72083
 20
217.89055
 40
5.7617307
 50
94.479452
 51
126.00833
  0
ARC
  8
0
  6
CONTINUOUS
 62
     7
 10
-117.72083
 20
217.89055
 40
4.8617306
 50
95.310878
 51
126.00833
  0
ARC
  8
0
  6
CONTINUOUS
 62
     7
 10
-117.72083
 20
222.84401
 40
5.7617307
 50
274.47945
 51
306.00832
  0
ARC
  8
0
  6
CONTINUOUS
 62
     7
 10
-115.33881
 20
164.45137
 40
1.8
 50
306.00832
 51
53.991676
  0
ARC
  8
0
  6
CONTINUOUS
 62
     7
 10
-115.33881
 20
164.45137
 40
2.7
 50
306.00832
 51
53.991676
  0
ARC
  8
0
  6
CONTINUOUS
 62
     7
 10
-118.93881
 20
164.45137
 40
1.8
 50
126.00833
 51
233.99168
  0
ARC
  8
0
  6
CONTINUOUS
 62
     7
 10
-118.93881
 20
164.45137
 40
2.7
 50
126.00833
 51
233.99168
  0
ARC
  8
0
  6
CONTINUOUS
 62
     7
 10
-117.13881
 20
161.97464
 40
5.7617307
 50
53.991676
 51
85.520553
  0
ARC
  8
0
  6
CONTINUOUS
 62
     7
 10
-117.13881
 20
161.97464
 40
4.8617306
 50
53.991676
 51
84.689121
  0
ARC
  8
0
  6
CONTINUOUS
 62
     7
 10
-117.13881
 20
166.9281
 40
4.8617306
 50
233.99167
 51
306.00832
  0
ARC
  8
0
  6
CONTINUOUS
 62
     7
 10
-117.13881
 20
166.9281
 40
5.7617307
 50
233.99167
 51
265.52055
  0
ARC
  8
0
  6
CONTINUOUS
 62
     7
 10
-117.13881
 20
168.61388
 40
0.5625
 50
36.869897
 51
143.1301
  0
ARC
  8
0
  6
CONTINUOUS
 62
     7
 10
-117.13881
 20
164.78886
 40
0.5625
 50
216.8699
 51
323.1301
  0
ARC
  8
0
  6
CONTINUOUS
 62
     7
 10
-117.13881
 20
160.28886
 40
0.5625
 50
216.8699
 51
323.1301
  0
ARC
  8
0
  6
CONTINUOUS
 62
     7
 10
-117.13881
 20
161.97464
 40
5.7617307
 50
94.479452
 51
126.00833
  0
ARC
  8
0
  6
CONTINUOUS
 62
     7
 10
-117.13881
 20
161.97464
 40
4.8617306
 50
95.310878
 51
126.00833
  0
ARC
  8
0
  6
CONTINUOUS
 62
     7
 10
-117.13881
 20
166.9281
 40
5.7617307
 50
274.47945
 51
306.00832
  0
ARC
  8
0
  6
CONTINUOUS
 62
     7
 10
-114.75166
 20
93.931931
 40
2.4000001
 50
306.00832
 51
53.991676
  0
ARC
  8
0
  6
CONTINUOUS
 62
     7
 10
-114.75166
 20
93.931931
 40
3.5999999
 50
306.00832
 51
53.991676
  0
ARC
  8
0
  6
CONTINUOUS
 62
     7
 10
-119.55165
 20
93.931931
 40
2.4000001
 50
126.00833
 51
233.99168
  0
ARC
  8
0
  6
CONTINUOUS
 62
     7
 10
-119.55165
 20
93.931931
 40
3.5999999
 50
126.00833
 51
233.99168
  0
ARC
  8
0
  6
CONTINUOUS
 62
     7
 10
-117.15166
 20
90.629623
 40
7.6823077
 50
53.991676
 51
85.520553
  0
ARC
  8
0
  6
CONTINUOUS
 62
     7
 10
-117.15166
 20
90.629623
 40
6.4823079
 50
53.991676
 51
84.689121
  0
ARC
  8
0
  6
CONTINUOUS
 62
     7
 10
-126.31891
 20
235.36728
 40
1.5
 50
270
 51
330
  0
ARC
  8
0
  6
CONTINUOUS
 62
     7
 10
-123.72083
 20
233.86728
 40
1.5
 50
90.000003
 51
150
  0
ARC
  8
0
  6
CONTINUOUS
 62
     7
 10
-111.72083
 20
233.86728
 40
1.5
 50
30.000001
 51
90.000003
  0
ARC
  8
0
  6
CONTINUOUS
 62
     7
 10
-109.12276
 20
235.36728
 40
1.5
 50
210
 51
270
  0
ARC
  8
0
  6
CONTINUOUS
 62
     7
 10
-126.31891
 20
205.36728
 40
1.5
 50
30.000001
 51
90.000003
  0
ARC
  8
0
  6
CONTINUOUS
 62
     7
 10
-123.72083
 20
206.86728
 40
1.5
 50
210
 51
270
  0
ARC
  8
0
  6
CONTINUOUS
 62
     7
 10
-111.72083
 20
206.86728
 40
1.5
 50
270
 51
330
  0
ARC
  8
0
  6
CONTINUOUS
 62
     7
 10
-109.12276
 20
205.36728
 40
1.5
 50
90.000003
 51
150
  0
ARC
  8
0
  6
CONTINUOUS
 62
     7
 10
-128.24973
 20
115.93193
 40
1.5
 50
270
 51
330
  0
ARC
  8
0
  6
CONTINUOUS
 62
     7
 10
-125.65166
 20
114.43193
 40
1.5
 50
90.000003
 51
150
  0
ARC
  8
0
  6
CONTINUOUS
 62
     7
 10
-108.65166
 20
114.43193
 40
1.5
 50
30.000001
 51
90.000003
  0
ARC
  8
0
  6
CONTINUOUS
 62
     7
 10
-106.05357
 20
115.93193
 40
1.5
 50
210
 51
270
  0
ARC
  8
0
  6
CONTINUOUS
 62
     7
 10
-128.24973
 20
71.931931
 40
1.5
 50
30.000001
 51
90.000003
  0
ARC
  8
0
  6
CONTINUOUS
 62
     7
 10
-125.65166
 20
73.431931
 40
1.5
 50
210
 51
270
  0
ARC
  8
0
  6
CONTINUOUS
 62
     7
 10
-108.65166
 20
73.431931
 40
1.5
 50
270
 51
330
  0
ARC
  8
0
  6
CONTINUOUS
 62
     7
 10
-106.05357
 20
71.931931
 40
1.5
 50
90.000003
 51
150
  0
ARC
  8
0
  6
CONTINUOUS
 62
     7
 10
104.48311
 20
60.638199
 40
8.1028843
 50
233.99167
 51
306.00832
  0
ARC
  8
0
  6
CONTINUOUS
 62
     7
 10
104.48311
 20
52.382431
 40
8.1028843
 50
53.991676
 51
84.689121
  0
ARC
  8
0
  6
CONTINUOUS
 62
     7
 10
104.48311
 20
52.382431
 40
9.6028843
 50
53.991676
 51
85.520553
  0
ARC
  8
0
  6
CONTINUOUS
 62
     7
 10
104.48311
 20
63.44783
 40
0.9375
 50
36.869897
 51
143.1301
  0
ARC
  8
0
  6
CONTINUOUS
 62
     7
 10
104.48311
 20
60.638199
 40
9.6028843
 50
233.99167
 51
265.52055
  0
ARC
  8
0
  6
CONTINUOUS
 62
     7
 10
104.48311
 20
60.638199
 40
9.6028843
 50
274.47945
 51
306.00832
  0
ARC
  8
0
  6
CONTINUOUS
 62
     7
 10
101.48311
 20
56.51033
 40
4.5
 50
126.00833
 51
233.99168
  0
ARC
  8
0
  6
CONTINUOUS
 62
     7
 10
104.48311
 20
49.57283
 40
0.9375
 50
216.8699
 51
323.1301
  0
ARC
  8
0
  6
CONTINUOUS
 62
     7
 10
104.48311
 20
57.07283
 40
0.9375
 50
216.8699
 51
323.1301
  0
ARC
  8
0
  6
CONTINUOUS
 62
     7
 10
104.48311
 20
52.382431
 40
9.6028843
 50
94.479452
 51
126.00833
  0
ARC
  8
0
  6
CONTINUOUS
 62
     7
 10
104.48311
 20
52.382431
 40
8.1028843
 50
95.310878
 51
126.00833
  0
ARC
  8
0
  6
CONTINUOUS
 62
     7
 10
101.48311
 20
56.51033
 40
3
 50
126.00833
 51
233.99168
  0
ARC
  8
0
  6
CONTINUOUS
 62
     7
 10
99.804123
 20
242.23238
 40
2.4000001
 50
306.00832
 51
53.991676
  0
ARC
  8
0
  6
CONTINUOUS
 62
     7
 10
99.804123
 20
242.23238
 40
3.5999999
 50
306.00832
 51
53.991676
  0
ARC
  8
0
  6
CONTINUOUS
 62
     7
 10
95.00412
 20
242.23238
 40
2.4000001
 50
126.00833
 51
233.99168
  0
ARC
  8
0
  6
CONTINUOUS
 62
     7
 10
95.00412
 20
242.23238
 40
3.5999999
 50
126.00833
 51
233.99168
  0
ARC
  8
0
  6
CONTINUOUS
 62
     7
 10
97.404129
 20
238.93007
 40
7.6823077
 50
53.991676
 51
85.520553
  0
ARC
  8
0
  6
CONTINUOUS
 62
     7
 10
97.404129
 20
238.93007
 40
6.4823079
 50
53.991676
 51
84.689121
  0
ARC
  8
0
  6
CONTINUOUS
 62
     7
 10
97.404129
 20
245.53468
 40
6.4823079
 50
233.99167
 51
306.00832
  0
ARC
  8
0
  6
CONTINUOUS
 62
     7
 10
97.404129
 20
245.53468
 40
7.6823077
 50
233.99167
 51
265.52055
  0
ARC
  8
0
  6
CONTINUOUS
 62
     7
 10
97.404129
 20
247.78238
 40
0.75
 50
36.869897
 51
143.1301
  0
ARC
  8
0
  6
CONTINUOUS
 62
     7
 10
97.404129
 20
242.68237
 40
0.75
 50
216.8699
 51
323.1301
  0
ARC
  8
0
  6
CONTINUOUS
 62
     7
 10
97.404129
 20
236.68237
 40
0.75
 50
216.8699
 51
323.1301
  0
ARC
  8
0
  6
CONTINUOUS
 62
     7
 10
97.404129
 20
238.93007
 40
6.4823079
 50
95.310878
 51
126.00833
  0
ARC
  8
0
  6
CONTINUOUS
 62
     7
 10
97.404129
 20
238.93007
 40
7.6823077
 50
94.479452
 51
126.00833
  0
ARC
  8
0
  6
CONTINUOUS
 62
     7
 10
97.404129
 20
245.53468
 40
7.6823077
 50
274.47945
 51
306.00832
  0
ARC
  8
0
  6
CONTINUOUS
 62
     7
 10
102.99712
 20
152.14333
 40
2.4000001
 50
306.00832
 51
53.991676
  0
ARC
  8
0
  6
CONTINUOUS
 62
     7
 10
102.99712
 20
152.14333
 40
3.5999999
 50
306.00832
 51
53.991676
  0
ARC
  8
0
  6
CONTINUOUS
 62
     7
 10
98.197128
 20
152.14333
 40
2.4000001
 50
126.00833
 51
233.99168
  0
ARC
  8
0
  6
CONTINUOUS
 62
     7
 10
98.197128
 20
152.14333
 40
3.5999999
 50
126.00833
 51
233.99168
  0
ARC
  8
0
  6
CONTINUOUS
 62
     7
 10
100.59712
 20
148.84102
 40
7.6823077
 50
53.991676
 51
85.520553
  0
ARC
  8
0
  6
CONTINUOUS
 62
     7
 10
100.59712
 20
148.84102
 40
6.4823079
 50
53.991676
 51
84.689121
  0
ARC
  8
0
  6
CONTINUOUS
 62
     7
 10
100.59712
 20
155.44563
 40
6.4823079
 50
233.99167
 51
306.00832
  0
ARC
  8
0
  6
CONTINUOUS
 62
     7
 10
100.59712
 20
155.44563
 40
7.6823077
 50
233.99167
 51
265.52055
  0
ARC
  8
0
  6
CONTINUOUS
 62
     7
 10
100.59712
 20
157.69333
 40
0.75
 50
36.869897
 51
143.1301
  0
ARC
  8
0
  6
CONTINUOUS
 62
     7
 10
100.59712
 20
152.59332
 40
0.75
 50
216.8699
 51
323.1301
  0
ARC
  8
0
  6
CONTINUOUS
 62
     7
 10
100.59712
 20
146.59332
 40
0.75
 50
216.8699
 51
323.1301
  0
ARC
  8
0
  6
CONTINUOUS
 62
     7
 10
100.59712
 20
148.84102
 40
6.4823079
 50
95.310878
 51
126.00833
  0
ARC
  8
0
  6
CONTINUOUS
 62
     7
 10
100.59712
 20
148.84102
 40
7.6823077
 50
94.479452
 51
126.00833
  0
ARC
  8
0
  6
CONTINUOUS
 62
     7
 10
100.59712
 20
155.44563
 40
7.6823077
 50
274.47945
 51
306.00832
  0
ARC
  8
0
  6
CONTINUOUS
 62
     7
 10
107.48311
 20
56.51033
 40
3
 50
306.00832
 51
53.991676
  0
ARC
  8
0
  6
CONTINUOUS
 62
     7
 10
107.48311
 20
56.51033
 40
4.5
 50
306.00832
 51
53.991676
  0
TEXT
  8
0
  6
CONTINUOUS
 62
     7
 10
-186.56013
 20
276.28214
 40
5
 41
0.84210156
  1
ＲＣＦ－Ｋ　ＺＱＳ（メスアダプター　ソケット）
  0
TEXT
  8
0
  6
CONTINUOUS
 62
     7
 10
-113.34655
 20
119.60709
 40
3.2
 41
1.0714291
  1
1
  0
TEXT
  8
0
  6
CONTINUOUS
 62
     7
 10
-116.00307
 20
241.23672
 40
3.2
 41
1.0178573
  1
1/2
  0
TEXT
  8
0
  6
CONTINUOUS
 62
     7
 10
-118.33167
 20
187.70136
 40
3.2
 41
1.0178573
  1
3/4
  0
TEXT
  8
0
  6
CONTINUOUS
 62
     7
 10
105.5381
 20
274.94703
 40
3.2
 41
1.0129871
  1
11/4
  0
TEXT
  8
0
  6
CONTINUOUS
 62
     7
 10
108.8441
 20
186.69446
 40
3.2
 41
1.0129871
  1
11/2
  0
TEXT
  8
0
  6
CONTINUOUS
 62
     7
 10
128.46965
 20
100.80749
 40
3.2
 41
1.0714291
  1
2
  0
POINT
  8
1
  6
CONTINUOUS
 62
     7
 10
-210
 20
0
  0
POINT
  8
1
  6
CONTINUOUS
 62
     7
 10
0
 20
0
  0
POINT
  8
1
  6
CONTINUOUS
 62
     7
 10
0
 20
0
  0
POINT
  8
1
  6
CONTINUOUS
 62
     7
 10
20
 20
297
  0
POINT
  8
1
  6
CONTINUOUS
 62
     7
 10
-210
 20
0
  0
POINT
  8
1
  6
CONTINUOUS
 62
     7
 10
0
 20
0
  0
POINT
  8
1
  6
CONTINUOUS
 62
     7
 10
0
 20
297
  0
POINT
  8
1
  6
CONTINUOUS
 62
     7
 10
20
 20
297
  0
POINT
  8
1
  6
CONTINUOUS
 62
     7
 10
-210
 20
297
  0
LINE
  8
1
  6
CONTINUOUS
 62
     7
 10
20
 20
0
 11
230
 21
0
  0
LINE
  8
1
  6
CONTINUOUS
 62
     7
 10
20
 20
297
 11
230
 21
297
  0
LINE
  8
1
  6
CONTINUOUS
 62
     7
 10
230
 20
297
 11
230
 21
0
  0
LINE
  8
1
  6
CONTINUOUS
 62
     7
 10
20
 20
297
 11
20
 21
0
  0
LINE
  8
1
  6
CONTINUOUS
 62
     7
 10
-210
 20
0
 11
0
 21
0
  0
LINE
  8
1
  6
CONTINUOUS
 62
     7
 10
-210
 20
297
 11
-210
 21
0
  0
LINE
  8
1
  6
CONTINUOUS
 62
     7
 10
0
 20
297
 11
0
 21
0
  0
LINE
  8
1
  6
CONTINUOUS
 62
     7
 10
-210
 20
297
 11
0
 21
297
  0
ENDSEC
  0
EOF
