  0
SECTION
  2
HEADER
  9
$EXTMAX
 10
0
 20
297
  9
$EXTMIN
 10
-210
 20
0
  0
ENDSEC
  0
SECTION
  2
TABLES
  0
TABLE
  2
LTYPE
 70
    22
  0
LTYPE
  2
CONTINUOUS
 70
    64
  3
Solid line
 72
    65
 73
     0
 40
0.000000
  0
LTYPE
  2
DASHED
 70
    64
  3
__ __ __ __ __ __ __ __ __ __ __ __ __ __ __
 72
    65
 73
     2
 40
3.500000
 49
2.000000
 49
-1.500000
  0
LTYPE
  2
CENTER
 70
    64
  3
____ _ ____ _ ____ _ ____ _ ____ _ ____ _ ____
 72
    65
 73
     4
 40
17.500000
 49
13.000000
 49
-1.500000
 49
1.500000
 49
-1.500000
  0
LTYPE
  2
PHANTOM
 70
    64
  3
_____ _ _ _____ _ _ _____ _ _ _____ _ _ ____  
 72
    65
 73
     6
 40
15.500000
 49
8.000000
 49
-1.500000
 49
1.500000
 49
-1.500000
 49
1.500000
 49
-1.500000
  0
LTYPE
  2
DOT
 70
    64
  3
. . . . . . . . . . . . . . . . . . . . . . . .
 72
    65
 73
     2
 40
0.25
 49
0.0
 49
-0.25
  0
ENDTAB
  0
TABLE
  2
LAYER
 70
     2
  0
LAYER
  2
0
 70
     0
 62
     7
  6
CONTINUOUS
  0
LAYER
  2
1
 70
     0
 62
     7
  6
CONTINUOUS
  0
ENDTAB
  0
TABLE
  2
STYLE
 70
     1
  0
STYLE
  2
STANDARD
 70
     0
 40
0.000000
 41
1.000000
 50
0.000000
 71
     0
 42
0.200000
  3
txt
  4
BIGFONT
  0
ENDTAB
  0
TABLE
  2
VIEW
 70
     0
  0
ENDTAB
  0
ENDSEC
  0
SECTION
  2
BLOCKS
  0
ENDSEC
  0
SECTION
  2
ENTITIES
  0
POINT
  8
0
  6
CONTINUOUS
 62
     7
 10
-123.00711
 20
232.61673
  0
POINT
  8
0
  6
CONTINUOUS
 62
     7
 10
-123.00711
 20
158.0668
  0
POINT
  8
0
  6
CONTINUOUS
 62
     7
 10
-129.09282
 20
76.416885
  0
POINT
  8
0
  6
CONTINUOUS
 62
     7
 10
-73.207115
 20
218.61673
  0
POINT
  8
0
  6
CONTINUOUS
 62
     7
 10
-123.00711
 20
232.61673
  0
POINT
  8
0
  6
CONTINUOUS
 62
     7
 10
-123.00711
 20
158.0668
  0
POINT
  8
0
  6
CONTINUOUS
 62
     7
 10
-129.09282
 20
76.416885
  0
LINE
  8
0
  6
CONTINUOUS
 62
     7
 10
-136.50711
 20
205.61673
 11
-109.50711
 21
205.61673
  0
LINE
  8
0
  6
CONTINUOUS
 62
     7
 10
-136.50711
 20
219.11673
 11
-136.50711
 21
205.61673
  0
LINE
  8
0
  6
CENTER
 62
     7
 10
-123.00711
 20
248.9538
 11
-123.00711
 21
200.61673
  0
LINE
  8
0
  6
CENTER
 62
     7
 10
-141.50711
 20
232.61673
 11
-68.718742
 21
232.61673
  0
LINE
  8
0
  6
CONTINUOUS
 62
     7
 10
-109.50711
 20
246.11673
 11
-96.007111
 21
246.11673
  0
LINE
  8
0
  6
CONTINUOUS
 62
     7
 10
-95.507111
 20
246.11673
 11
-93.007111
 21
246.11673
  0
LINE
  8
0
  6
CONTINUOUS
 62
     7
 10
-93.007111
 20
246.11673
 11
-93.007111
 21
219.11673
  0
LINE
  8
0
  6
CONTINUOUS
 62
     7
 10
-95.507111
 20
246.11673
 11
-95.507111
 21
219.11673
  0
LINE
  8
0
  6
CONTINUOUS
 62
     7
 10
-95.507111
 20
219.11673
 11
-93.007111
 21
219.11673
  0
LINE
  8
0
  6
CONTINUOUS
 62
     7
 10
-106.50711
 20
219.11673
 11
-96.007111
 21
219.11673
  0
LINE
  8
0
  6
CONTINUOUS
 62
     7
 10
-96.007111
 20
246.11673
 11
-96.007111
 21
219.11673
  0
LINE
  8
0
  6
CONTINUOUS
 62
     7
 10
-109.50711
 20
216.11673
 11
-109.50711
 21
205.61673
  0
LINE
  8
0
  6
CONTINUOUS
 62
     7
 10
-92.507111
 20
246.61673
 11
-92.507111
 21
218.61673
  0
LINE
  8
0
  6
CENTER
 62
     7
 10
-144.33211
 20
158.0668
 11
-60.488689
 21
158.0668
  0
LINE
  8
0
  6
CENTER
 62
     7
 10
-123.00711
 20
179.5668
 11
-123.00711
 21
121.0668
  0
LINE
  8
0
  6
CONTINUOUS
 62
     7
 10
-139.33211
 20
141.5668
 11
-139.33211
 21
126.0668
  0
LINE
  8
0
  6
CONTINUOUS
 62
     7
 10
-139.33211
 20
126.0668
 11
-106.33211
 21
126.0668
  0
LINE
  8
0
  6
CONTINUOUS
 62
     7
 10
-106.33211
 20
137.5668
 11
-106.33211
 21
126.0668
  0
LINE
  8
0
  6
CONTINUOUS
 62
     7
 10
-102.33211
 20
141.5668
 11
-90.832108
 21
141.5668
  0
LINE
  8
0
  6
CONTINUOUS
 62
     7
 10
-90.832108
 20
141.5668
 11
-90.832108
 21
174.5668
  0
LINE
  8
0
  6
CONTINUOUS
 62
     7
 10
-90.332108
 20
141.5668
 11
-87.507111
 21
141.5668
  0
LINE
  8
0
  6
CONTINUOUS
 62
     7
 10
-90.332108
 20
141.5668
 11
-90.332108
 21
174.5668
  0
LINE
  8
0
  6
CONTINUOUS
 62
     7
 10
-87.507111
 20
174.5668
 11
-87.507111
 21
141.5668
  0
LINE
  8
0
  6
CONTINUOUS
 62
     7
 10
-87.007111
 20
174.3168
 11
-87.007111
 21
141.8168
  0
LINE
  8
0
  6
CONTINUOUS
 62
     7
 10
-87.007111
 20
141.8168
 11
-65.007111
 21
141.8168
  0
LINE
  8
0
  6
CONTINUOUS
 62
     7
 10
-65.007111
 20
174.3168
 11
-65.007111
 21
141.8168
  0
LINE
  8
0
  6
CONTINUOUS
 62
     7
 10
-87.007111
 20
174.3168
 11
-65.007111
 21
174.3168
  0
LINE
  8
0
  6
CONTINUOUS
 62
     7
 10
-90.332108
 20
174.5668
 11
-87.507111
 21
174.5668
  0
LINE
  8
0
  6
CONTINUOUS
 62
     7
 10
-106.33211
 20
174.5668
 11
-90.832108
 21
174.5668
  0
LINE
  8
0
  6
CONTINUOUS
 62
     7
 10
-149.59282
 20
55.916885
 11
-149.59282
 21
34.416885
  0
LINE
  8
0
  6
CONTINUOUS
 62
     7
 10
-108.59282
 20
34.416885
 11
-149.59282
 21
34.416885
  0
LINE
  8
0
  6
CONTINUOUS
 62
     7
 10
-108.59282
 20
50.916885
 11
-108.59282
 21
34.416885
  0
LINE
  8
0
  6
CONTINUOUS
 62
     7
 10
-103.59282
 20
55.916885
 11
-87.092812
 21
55.916885
  0
LINE
  8
0
  6
CONTINUOUS
 62
     7
 10
-108.59281
 20
96.916878
 11
-87.092812
 21
96.916878
  0
LINE
  8
0
  6
CENTER
 62
     7
 10
-50.766972
 20
76.416885
 11
-152.20078
 21
76.416885
  0
LINE
  8
0
  6
CENTER
 62
     7
 10
-129.09282
 20
97.285065
 11
-129.09282
 21
31.416885
  0
LINE
  8
0
  6
CONTINUOUS
 62
     7
 10
-87.092812
 20
55.916885
 11
-87.092812
 21
96.916878
  0
LINE
  8
0
  6
CONTINUOUS
 62
     7
 10
-86.592812
 20
55.916885
 11
-86.592812
 21
96.916878
  0
LINE
  8
0
  6
CONTINUOUS
 62
     7
 10
-86.592812
 20
96.916878
 11
-83.467323
 21
96.916878
  0
LINE
  8
0
  6
CONTINUOUS
 62
     7
 10
-83.467323
 20
96.916878
 11
-83.467323
 21
55.916885
  0
LINE
  8
0
  6
CONTINUOUS
 62
     7
 10
-56.967323
 20
96.166878
 11
-82.967323
 21
96.166878
  0
LINE
  8
0
  6
CONTINUOUS
 62
     7
 10
-82.967323
 20
96.166878
 11
-82.967323
 21
56.666885
  0
LINE
  8
0
  6
CONTINUOUS
 62
     7
 10
-56.967323
 20
96.166878
 11
-56.967323
 21
56.666885
  0
LINE
  8
0
  6
CONTINUOUS
 62
     7
 10
-56.967323
 20
56.666885
 11
-82.967323
 21
56.666885
  0
LINE
  8
0
  6
CONTINUOUS
 62
     7
 10
-86.592812
 20
55.916885
 11
-83.467323
 21
55.916885
  0
LINE
  8
0
  6
CONTINUOUS
 62
     7
 10
-73.007111
 20
246.61673
 11
-73.007111
 21
218.61673
  0
LINE
  8
0
  6
CONTINUOUS
 62
     7
 10
-92.507111
 20
246.61673
 11
-73.007111
 21
246.61673
  0
LINE
  8
0
  6
CONTINUOUS
 62
     7
 10
-92.507111
 20
218.61673
 11
-73.007111
 21
218.61673
  0
LINE
  8
0
  6
CONTINUOUS
 62
     7
 10
-92.507111
 20
232.61673
 11
-73.007111
 21
232.61673
  0
LINE
  8
0
  6
CONTINUOUS
 62
     7
 10
-87.007111
 20
158.0668
 11
-65.007111
 21
158.0668
  0
LINE
  8
0
  6
CONTINUOUS
 62
     7
 10
-56.967323
 20
76.416885
 11
-82.967323
 21
76.416885
  0
LINE
  8
0
  6
CONTINUOUS
 62
     7
 10
-120.40653
 20
230.65254
 11
-118.73486
 21
228.98087
  0
LINE
  8
0
  6
CONTINUOUS
 62
     7
 10
-121.91684
 20
232.16285
 11
-121.04525
 21
231.29127
  0
LINE
  8
0
  6
CONTINUOUS
 62
     7
 10
-122.55323
 20
231.52645
 11
-121.68165
 21
230.65487
  0
LINE
  8
0
  6
CONTINUOUS
 62
     7
 10
-117.06083
 20
226.03405
 11
-116.18927
 21
225.16249
  0
LINE
  8
0
  6
CONTINUOUS
 62
     7
 10
-116.42444
 20
226.67045
 11
-115.55287
 21
225.79889
  0
LINE
  8
0
  6
CONTINUOUS
 62
     7
 10
-121.04293
 20
230.01615
 11
-119.37125
 21
228.34447
  0
LINE
  8
0
  6
CONTINUOUS
 62
     7
 10
-121.03816
 20
156.73426
 11
-120.16658
 21
155.86268
  0
LINE
  8
0
  6
CONTINUOUS
 62
     7
 10
-121.67455
 20
156.09787
 11
-120.80297
 21
155.22629
  0
LINE
  8
0
  6
CONTINUOUS
 62
     7
 10
-116.18215
 20
150.60547
 11
-115.31059
 21
149.73391
  0
LINE
  8
0
  6
CONTINUOUS
 62
     7
 10
-115.54576
 20
151.24187
 11
-114.6742
 21
150.3703
  0
LINE
  8
0
  6
CONTINUOUS
 62
     7
 10
-120.16425
 20
154.58756
 11
-118.49257
 21
152.91589
  0
LINE
  8
0
  6
CONTINUOUS
 62
     7
 10
-119.52785
 20
155.22395
 11
-117.85618
 21
153.55228
  0
LINE
  8
0
  6
CONTINUOUS
 62
     7
 10
-126.90688
 20
75.079468
 11
-125.74478
 21
73.917358
  0
LINE
  8
0
  6
CONTINUOUS
 62
     7
 10
-127.75541
 20
74.230942
 11
-126.5933
 21
73.068832
  0
LINE
  8
0
  6
CONTINUOUS
 62
     7
 10
-120.43223
 20
66.907761
 11
-119.27012
 21
65.745651
  0
LINE
  8
0
  6
CONTINUOUS
 62
     7
 10
-119.5837
 20
67.756287
 11
-118.4216
 21
66.594177
  0
LINE
  8
0
  6
CONTINUOUS
 62
     7
 10
-125.74169
 20
72.217224
 11
-123.51277
 21
69.988297
  0
LINE
  8
0
  6
CONTINUOUS
 62
     7
 10
-124.89316
 20
73.06575
 11
-122.66424
 21
70.836823
  0
ARC
  8
0
  6
CONTINUOUS
 62
     7
 10
-109.50711
 20
219.11673
 40
27
 50
90.000003
 51
180.00001
  0
ARC
  8
0
  6
CONTINUOUS
 62
     7
 10
-106.50711
 20
216.11673
 40
3
 50
90.000003
 51
180.00001
  0
ARC
  8
0
  6
CONTINUOUS
 62
     7
 10
-102.33211
 20
137.5668
 40
4
 50
90.000003
 51
180.00001
  0
ARC
  8
0
  6
CONTINUOUS
 62
     7
 10
-106.33211
 20
141.5668
 40
33
 50
90.000003
 51
180.00001
  0
ARC
  8
0
  6
CONTINUOUS
 62
     7
 10
-108.59281
 20
55.916885
 40
41
 50
90.000003
 51
180.00001
  0
ARC
  8
0
  6
CONTINUOUS
 62
     7
 10
-103.59282
 20
50.916885
 40
5
 50
90.000003
 51
180.00001
  0
ARC
  8
0
  6
CONTINUOUS
 62
     7
 10
-117.30173
 20
226.91136
 40
4.8617306
 50
140.31088
 51
171.00833
  0
ARC
  8
0
  6
CONTINUOUS
 62
     7
 10
-120.80435
 20
230.41399
 40
5.7617307
 50
319.47945
 51
351.00832
  0
ARC
  8
0
  6
CONTINUOUS
 62
     7
 10
-117.78024
 20
229.93547
 40
1.8
 50
351.00832
 51
98.991673
  0
ARC
  8
0
  6
CONTINUOUS
 62
     7
 10
-117.78024
 20
229.93547
 40
2.7
 50
351.00832
 51
98.991673
  0
ARC
  8
0
  6
CONTINUOUS
 62
     7
 10
-120.32584
 20
227.38988
 40
1.8
 50
171.00833
 51
278.99167
  0
ARC
  8
0
  6
CONTINUOUS
 62
     7
 10
-120.32584
 20
227.38988
 40
2.7
 50
171.00833
 51
278.99167
  0
ARC
  8
0
  6
CONTINUOUS
 62
     7
 10
-117.30173
 20
226.91136
 40
5.7617307
 50
98.991673
 51
130.52056
  0
ARC
  8
0
  6
CONTINUOUS
 62
     7
 10
-117.30173
 20
226.91136
 40
4.8617306
 50
98.991673
 51
129.68912
  0
ARC
  8
0
  6
CONTINUOUS
 62
     7
 10
-120.80435
 20
230.41399
 40
4.8617306
 50
278.99167
 51
351.00832
  0
ARC
  8
0
  6
CONTINUOUS
 62
     7
 10
-120.80435
 20
230.41399
 40
5.7617307
 50
278.99167
 51
310.52055
  0
ARC
  8
0
  6
CONTINUOUS
 62
     7
 10
-121.99637
 20
231.606
 40
0.5625
 50
81.869899
 51
188.1301
  0
ARC
  8
0
  6
CONTINUOUS
 62
     7
 10
-119.29169
 20
228.90132
 40
0.5625
 50
261.8699
 51
8.1301031
  0
ARC
  8
0
  6
CONTINUOUS
 62
     7
 10
-116.10971
 20
225.71935
 40
0.5625
 50
261.8699
 51
8.1301031
  0
ARC
  8
0
  6
CONTINUOUS
 62
     7
 10
-117.30173
 20
226.91136
 40
5.7617307
 50
139.47946
 51
171.00833
  0
ARC
  8
0
  6
CONTINUOUS
 62
     7
 10
-120.75342
 20
68.077469
 40
7.6823077
 50
139.47946
 51
171.00833
  0
ARC
  8
0
  6
CONTINUOUS
 62
     7
 10
-125.42358
 20
72.747635
 40
7.6823077
 50
319.47945
 51
351.00832
  0
ARC
  8
0
  6
CONTINUOUS
 62
     7
 10
-116.90157
 20
154.50687
 40
1.8
 50
351.00832
 51
98.991673
  0
ARC
  8
0
  6
CONTINUOUS
 62
     7
 10
-116.90157
 20
154.50687
 40
2.7
 50
351.00832
 51
98.991673
  0
ARC
  8
0
  6
CONTINUOUS
 62
     7
 10
-119.44714
 20
151.96127
 40
1.8
 50
171.00833
 51
278.99167
  0
ARC
  8
0
  6
CONTINUOUS
 62
     7
 10
-119.44714
 20
151.96127
 40
2.7
 50
171.00833
 51
278.99167
  0
ARC
  8
0
  6
CONTINUOUS
 62
     7
 10
-116.42305
 20
151.48276
 40
5.7617307
 50
98.991673
 51
130.52056
  0
ARC
  8
0
  6
CONTINUOUS
 62
     7
 10
-116.42305
 20
151.48276
 40
4.8617306
 50
98.991673
 51
129.68912
  0
ARC
  8
0
  6
CONTINUOUS
 62
     7
 10
-119.92567
 20
154.98538
 40
4.8617306
 50
278.99167
 51
351.00832
  0
ARC
  8
0
  6
CONTINUOUS
 62
     7
 10
-119.92567
 20
154.98538
 40
5.7617307
 50
278.99167
 51
310.52055
  0
ARC
  8
0
  6
CONTINUOUS
 62
     7
 10
-121.11769
 20
156.1774
 40
0.5625
 50
81.869899
 51
188.1301
  0
ARC
  8
0
  6
CONTINUOUS
 62
     7
 10
-118.41301
 20
153.47272
 40
0.5625
 50
261.8699
 51
8.1301031
  0
ARC
  8
0
  6
CONTINUOUS
 62
     7
 10
-115.23103
 20
150.29074
 40
0.5625
 50
261.8699
 51
8.1301031
  0
ARC
  8
0
  6
CONTINUOUS
 62
     7
 10
-116.42305
 20
151.48276
 40
5.7617307
 50
139.47946
 51
171.00833
  0
ARC
  8
0
  6
CONTINUOUS
 62
     7
 10
-116.42305
 20
151.48276
 40
4.8617306
 50
140.31088
 51
171.00833
  0
ARC
  8
0
  6
CONTINUOUS
 62
     7
 10
-119.92567
 20
154.98538
 40
5.7617307
 50
319.47945
 51
351.00832
  0
ARC
  8
0
  6
CONTINUOUS
 62
     7
 10
-119.16406
 20
66.488113
 40
0.75
 50
261.8699
 51
8.1301031
  0
ARC
  8
0
  6
CONTINUOUS
 62
     7
 10
-120.75342
 20
68.077469
 40
6.4823079
 50
140.31088
 51
171.00833
  0
ARC
  8
0
  6
CONTINUOUS
 62
     7
 10
-123.40669
 20
70.730759
 40
0.75
 50
261.8699
 51
8.1301031
  0
ARC
  8
0
  6
CONTINUOUS
 62
     7
 10
-121.39145
 20
72.109604
 40
2.4000001
 50
351.00832
 51
98.991673
  0
ARC
  8
0
  6
CONTINUOUS
 62
     7
 10
-121.39145
 20
72.109604
 40
3.5999999
 50
351.00832
 51
98.991673
  0
ARC
  8
0
  6
CONTINUOUS
 62
     7
 10
-124.78555
 20
68.7155
 40
2.4000001
 50
171.00833
 51
278.99167
  0
ARC
  8
0
  6
CONTINUOUS
 62
     7
 10
-124.78555
 20
68.7155
 40
3.5999999
 50
171.00833
 51
278.99167
  0
ARC
  8
0
  6
CONTINUOUS
 62
     7
 10
-120.75342
 20
68.077469
 40
7.6823077
 50
98.991673
 51
130.52056
  0
ARC
  8
0
  6
CONTINUOUS
 62
     7
 10
-120.75342
 20
68.077469
 40
6.4823079
 50
98.991673
 51
129.68912
  0
ARC
  8
0
  6
CONTINUOUS
 62
     7
 10
-125.42358
 20
72.747635
 40
6.4823079
 50
278.99167
 51
351.00832
  0
ARC
  8
0
  6
CONTINUOUS
 62
     7
 10
-125.42358
 20
72.747635
 40
7.6823077
 50
278.99167
 51
310.52055
  0
ARC
  8
0
  6
CONTINUOUS
 62
     7
 10
-127.01294
 20
74.33699
 40
0.75
 50
81.869899
 51
188.1301
  0
TEXT
  8
0
  6
CONTINUOUS
 62
     7
 10
-186.56013
 20
276.28214
 40
5
 41
0.84218304
  1
ＲＣＦ－Ｋ　ＺＱＬ（メスアダプター　エルボ）
  0
TEXT
  8
0
  6
CONTINUOUS
 62
     7
 10
-135.08365
 20
259.62308
 40
3.2
 41
1.0178573
  1
1/2
  0
TEXT
  8
0
  6
CONTINUOUS
 62
     7
 10
-127.41417
 20
183.23725
 40
3.2
 41
1.0178573
  1
3/4
  0
TEXT
  8
0
  6
CONTINUOUS
 62
     7
 10
-139.51476
 20
100.39905
 40
3.2
 41
1.0714291
  1
1
  0
POINT
  8
1
  6
CONTINUOUS
 62
     7
 10
-210
 20
0
  0
POINT
  8
1
  6
CONTINUOUS
 62
     7
 10
0
 20
0
  0
POINT
  8
1
  6
CONTINUOUS
 62
     7
 10
0
 20
0
  0
POINT
  8
1
  6
CONTINUOUS
 62
     7
 10
-210
 20
297
  0
POINT
  8
1
  6
CONTINUOUS
 62
     7
 10
-210
 20
0
  0
POINT
  8
1
  6
CONTINUOUS
 62
     7
 10
0
 20
0
  0
POINT
  8
1
  6
CONTINUOUS
 62
     7
 10
0
 20
297
  0
LINE
  8
1
  6
CONTINUOUS
 62
     7
 10
-210
 20
0
 11
0
 21
0
  0
LINE
  8
1
  6
CONTINUOUS
 62
     7
 10
-210
 20
297
 11
0
 21
297
  0
LINE
  8
1
  6
CONTINUOUS
 62
     7
 10
0
 20
297
 11
0
 21
0
  0
LINE
  8
1
  6
CONTINUOUS
 62
     7
 10
-210
 20
297
 11
-210
 21
0
  0
ENDSEC
  0
EOF
