  0
SECTION
  2
HEADER
  9
$EXTMAX
 10
1259
 20
-913.5
  9
$EXTMIN
 10
417
 20
-1507.5
  0
ENDSEC
  0
SECTION
  2
TABLES
  0
TABLE
  2
LTYPE
 70
    22
  0
LTYPE
  2
CONTINUOUS
 70
    64
  3
Solid line
 72
    65
 73
     0
 40
0.000000
  0
LTYPE
  2
DASHED
 70
    64
  3
__ __ __ __ __ __ __ __ __ __ __ __ __ __ __
 72
    65
 73
     2
 40
3.500000
 49
2.000000
 49
-1.500000
  0
LTYPE
  2
CENTER
 70
    64
  3
____ _ ____ _ ____ _ ____ _ ____ _ ____ _ ____
 72
    65
 73
     4
 40
17.500000
 49
13.000000
 49
-1.500000
 49
1.500000
 49
-1.500000
  0
LTYPE
  2
PHANTOM
 70
    64
  3
_____ _ _ _____ _ _ _____ _ _ _____ _ _ ____  
 72
    65
 73
     6
 40
15.500000
 49
8.000000
 49
-1.500000
 49
1.500000
 49
-1.500000
 49
1.500000
 49
-1.500000
  0
LTYPE
  2
DOT
 70
    64
  3
. . . . . . . . . . . . . . . . . . . . . . . .
 72
    65
 73
     2
 40
0.25
 49
0.0
 49
-0.25
  0
ENDTAB
  0
TABLE
  2
LAYER
 70
     2
  0
LAYER
  2
0
 70
     0
 62
     7
  6
CONTINUOUS
  0
LAYER
  2
1
 70
     0
 62
     7
  6
CONTINUOUS
  0
ENDTAB
  0
TABLE
  2
STYLE
 70
     1
  0
STYLE
  2
STANDARD
 70
     0
 40
0.000000
 41
1.000000
 50
0.000000
 71
     0
 42
0.200000
  3
txt
  4
BIGFONT
  0
ENDTAB
  0
TABLE
  2
VIEW
 70
     0
  0
ENDTAB
  0
ENDSEC
  0
SECTION
  2
BLOCKS
  0
ENDSEC
  0
SECTION
  2
ENTITIES
  0
POINT
  8
0
  6
CONTINUOUS
 62
     7
 10
-233.23524
 20
191.55121
  0
POINT
  8
0
  6
CONTINUOUS
 62
     7
 10
-136.586
 20
191.55121
  0
POINT
  8
0
  6
CONTINUOUS
 62
     7
 10
-32.453663
 20
192.53064
  0
POINT
  8
0
  6
CONTINUOUS
 62
     7
 10
-121.69713
 20
31.905371
  0
POINT
  8
0
  6
CONTINUOUS
 62
     7
 10
-23.301424
 20
31.905371
  0
POINT
  8
0
  6
CONTINUOUS
 62
     7
 10
79.200485
 20
31.905371
  0
POINT
  8
0
  6
CONTINUOUS
 62
     7
 10
-31.804569
 20
-153.56372
  0
POINT
  8
0
  6
CONTINUOUS
 62
     7
 10
87.684959
 20
-155.16431
  0
POINT
  8
0
  6
CONTINUOUS
 62
     7
 10
215.34019
 20
-155.16431
  0
POINT
  8
0
  6
CONTINUOUS
 62
     7
 10
-233.23524
 20
191.55121
  0
POINT
  8
0
  6
CONTINUOUS
 62
     7
 10
-136.586
 20
191.55121
  0
POINT
  8
0
  6
CONTINUOUS
 62
     7
 10
-121.69713
 20
31.905371
  0
POINT
  8
0
  6
CONTINUOUS
 62
     7
 10
-23.301424
 20
31.905371
  0
POINT
  8
0
  6
CONTINUOUS
 62
     7
 10
79.200485
 20
31.905371
  0
POINT
  8
0
  6
CONTINUOUS
 62
     7
 10
87.684959
 20
-155.16431
  0
POINT
  8
0
  6
CONTINUOUS
 62
     7
 10
-136.586
 20
191.55121
  0
POINT
  8
0
  6
CONTINUOUS
 62
     7
 10
-31.804569
 20
-153.56372
  0
POINT
  8
0
  6
CONTINUOUS
 62
     7
 10
-32.453663
 20
192.53064
  0
LINE
  8
0
  6
CONTINUOUS
 62
     7
 10
-215.73524
 20
205.05121
 11
-215.73524
 21
191.55121
  0
LINE
  8
0
  6
CONTINUOUS
 62
     7
 10
-215.73524
 20
205.05121
 11
-250.73524
 21
205.05121
  0
LINE
  8
0
  6
CONTINUOUS
 62
     7
 10
-250.73524
 20
205.05121
 11
-250.73524
 21
191.55121
  0
LINE
  8
0
  6
CENTER
 62
     7
 10
-253.12006
 20
191.55121
 11
-213.38907
 21
191.55121
  0
LINE
  8
0
  6
CONTINUOUS
 62
     7
 10
-215.73524
 20
178.05121
 11
-215.73524
 21
191.55121
  0
LINE
  8
0
  6
CONTINUOUS
 62
     7
 10
-215.73524
 20
178.05121
 11
-250.73524
 21
178.05121
  0
LINE
  8
0
  6
CONTINUOUS
 62
     7
 10
-250.73524
 20
178.05121
 11
-250.73524
 21
191.55121
  0
LINE
  8
0
  6
CENTER
 62
     7
 10
-253.12006
 20
191.55121
 11
-213.38907
 21
191.55121
  0
LINE
  8
0
  6
CONTINUOUS
 62
     7
 10
-227.23524
 20
176.55121
 11
-239.23524
 21
176.55121
  0
LINE
  8
0
  6
CONTINUOUS
 62
     7
 10
-227.23524
 20
206.55121
 11
-239.23524
 21
206.55121
  0
LINE
  8
0
  6
CONTINUOUS
 62
     7
 10
-116.58601
 20
208.05121
 11
-116.58601
 21
191.55121
  0
LINE
  8
0
  6
CONTINUOUS
 62
     7
 10
-116.58601
 20
208.05121
 11
-156.586
 21
208.05121
  0
LINE
  8
0
  6
CONTINUOUS
 62
     7
 10
-156.586
 20
208.05121
 11
-156.586
 21
191.55121
  0
LINE
  8
0
  6
CENTER
 62
     7
 10
-161.42039
 20
191.55121
 11
-113.05163
 21
191.55121
  0
LINE
  8
0
  6
CONTINUOUS
 62
     7
 10
-116.58601
 20
175.05121
 11
-116.58601
 21
191.55121
  0
LINE
  8
0
  6
CONTINUOUS
 62
     7
 10
-116.58601
 20
175.05121
 11
-156.586
 21
175.05121
  0
LINE
  8
0
  6
CONTINUOUS
 62
     7
 10
-156.586
 20
175.05121
 11
-156.586
 21
191.55121
  0
LINE
  8
0
  6
CENTER
 62
     7
 10
-161.42039
 20
191.55121
 11
-113.05163
 21
191.55121
  0
LINE
  8
0
  6
CONTINUOUS
 62
     7
 10
-129.336
 20
173.55121
 11
-143.836
 21
173.55121
  0
LINE
  8
0
  6
CONTINUOUS
 62
     7
 10
-129.336
 20
209.55121
 11
-143.836
 21
209.55121
  0
LINE
  8
0
  6
CONTINUOUS
 62
     7
 10
-9.9536629
 20
213.03064
 11
-9.9536629
 21
192.53064
  0
LINE
  8
0
  6
CONTINUOUS
 62
     7
 10
-9.9536629
 20
213.03064
 11
-54.953663
 21
213.03064
  0
LINE
  8
0
  6
CONTINUOUS
 62
     7
 10
-54.953663
 20
213.03064
 11
-54.953663
 21
192.53064
  0
LINE
  8
0
  6
CENTER
 62
     7
 10
-60.178669
 20
192.53064
 11
-4.5286603
 21
192.53064
  0
LINE
  8
0
  6
CONTINUOUS
 62
     7
 10
-9.9536629
 20
172.03064
 11
-9.9536629
 21
192.53064
  0
LINE
  8
0
  6
CONTINUOUS
 62
     7
 10
-9.9536629
 20
172.03064
 11
-54.953663
 21
172.03064
  0
LINE
  8
0
  6
CONTINUOUS
 62
     7
 10
-54.953663
 20
172.03064
 11
-54.953663
 21
192.53064
  0
LINE
  8
0
  6
CENTER
 62
     7
 10
-60.178669
 20
192.53064
 11
-4.5286603
 21
192.53064
  0
LINE
  8
0
  6
CONTINUOUS
 62
     7
 10
-23.953663
 20
170.53064
 11
-40.953663
 21
170.53064
  0
LINE
  8
0
  6
CONTINUOUS
 62
     7
 10
-23.953663
 20
214.53064
 11
-40.953663
 21
214.53064
  0
LINE
  8
0
  6
CONTINUOUS
 62
     7
 10
-96.697128
 20
56.905369
 11
-96.697128
 21
31.905371
  0
LINE
  8
0
  6
CONTINUOUS
 62
     7
 10
-96.697128
 20
56.905369
 11
-146.69711
 21
56.905369
  0
LINE
  8
0
  6
CONTINUOUS
 62
     7
 10
-146.69711
 20
56.905369
 11
-146.69711
 21
31.905371
  0
LINE
  8
0
  6
CENTER
 62
     7
 10
-152.87212
 20
31.905371
 11
-92.322128
 21
31.905371
  0
LINE
  8
0
  6
CONTINUOUS
 62
     7
 10
-96.697128
 20
6.9053702
 11
-96.697128
 21
31.905371
  0
LINE
  8
0
  6
CONTINUOUS
 62
     7
 10
-96.697128
 20
6.9053702
 11
-146.69711
 21
6.9053702
  0
LINE
  8
0
  6
CONTINUOUS
 62
     7
 10
-146.69711
 20
6.9053702
 11
-146.69711
 21
31.905371
  0
LINE
  8
0
  6
CENTER
 62
     7
 10
-152.87212
 20
31.905371
 11
-92.322128
 21
31.905371
  0
LINE
  8
0
  6
CONTINUOUS
 62
     7
 10
-111.94713
 20
5.4053702
 11
-131.44713
 21
5.4053702
  0
LINE
  8
0
  6
CONTINUOUS
 62
     7
 10
-111.94713
 20
58.405369
 11
-131.44713
 21
58.405369
  0
LINE
  8
0
  6
CONTINUOUS
 62
     7
 10
4.1985745
 20
59.905369
 11
4.1985745
 21
31.905371
  0
LINE
  8
0
  6
CONTINUOUS
 62
     7
 10
4.1985745
 20
59.905369
 11
-50.801426
 21
59.905369
  0
LINE
  8
0
  6
CONTINUOUS
 62
     7
 10
-50.801426
 20
59.905369
 11
-50.801426
 21
31.905371
  0
LINE
  8
0
  6
CENTER
 62
     7
 10
-57.926426
 20
31.905371
 11
10.323574
 21
31.905371
  0
LINE
  8
0
  6
CONTINUOUS
 62
     7
 10
4.1985745
 20
3.9053702
 11
4.1985745
 21
31.905371
  0
LINE
  8
0
  6
CONTINUOUS
 62
     7
 10
4.1985745
 20
3.9053702
 11
-50.801426
 21
3.9053702
  0
LINE
  8
0
  6
CONTINUOUS
 62
     7
 10
-50.801426
 20
3.9053702
 11
-50.801426
 21
31.905371
  0
LINE
  8
0
  6
CENTER
 62
     7
 10
-57.926426
 20
31.905371
 11
10.323574
 21
31.905371
  0
LINE
  8
0
  6
CONTINUOUS
 62
     7
 10
-12.801426
 20
61.905369
 11
-33.801426
 21
61.905369
  0
LINE
  8
0
  6
CONTINUOUS
 62
     7
 10
-12.801426
 20
1.9053701
 11
-33.801426
 21
1.9053701
  0
LINE
  8
0
  6
CONTINUOUS
 62
     7
 10
109.20049
 20
66.405373
 11
109.20049
 21
31.905371
  0
LINE
  8
0
  6
CONTINUOUS
 62
     7
 10
109.20049
 20
66.405373
 11
49.200481
 21
66.405373
  0
LINE
  8
0
  6
CONTINUOUS
 62
     7
 10
49.200497
 20
66.405373
 11
49.200497
 21
31.905371
  0
LINE
  8
0
  6
CENTER
 62
     7
 10
43.92548
 20
31.905371
 11
113.92548
 21
31.905371
  0
LINE
  8
0
  6
CONTINUOUS
 62
     7
 10
109.20049
 20
-2.5946298
 11
109.20049
 21
31.905371
  0
LINE
  8
0
  6
CONTINUOUS
 62
     7
 10
109.20049
 20
-2.5946298
 11
49.200481
 21
-2.5946298
  0
LINE
  8
0
  6
CONTINUOUS
 62
     7
 10
49.200497
 20
-2.5946298
 11
49.200497
 21
31.905371
  0
LINE
  8
0
  6
CENTER
 62
     7
 10
43.92548
 20
31.905371
 11
113.92548
 21
31.905371
  0
LINE
  8
0
  6
CONTINUOUS
 62
     7
 10
90.950485
 20
-4.5946298
 11
67.450485
 21
-4.5946298
  0
LINE
  8
0
  6
CONTINUOUS
 62
     7
 10
90.950485
 20
68.405373
 11
67.450485
 21
68.405373
  0
LINE
  8
0
  6
CONTINUOUS
 62
     7
 10
3.1954315
 20
-108.06373
 11
3.1954315
 21
-153.56372
  0
LINE
  8
0
  6
CONTINUOUS
 62
     7
 10
-54.804569
 20
-108.06373
 11
3.1954315
 21
-108.06373
  0
LINE
  8
0
  6
CONTINUOUS
 62
     7
 10
-13.677966
 20
-110.56373
 11
-49.931171
 21
-110.56373
  0
LINE
  8
0
  6
CONTINUOUS
 62
     7
 10
-54.804569
 20
-108.06373
 11
-66.804565
 21
-108.06373
  0
LINE
  8
0
  6
CONTINUOUS
 62
     7
 10
-66.804565
 20
-153.56372
 11
-66.804565
 21
-108.06373
  0
LINE
  8
0
  6
CONTINUOUS
 62
     7
 10
-54.804569
 20
-199.06372
 11
-54.804569
 21
-108.06373
  0
LINE
  8
0
  6
CONTINUOUS
 62
     7
 10
-8.8045683
 20
-108.06373
 11
-8.8045683
 21
-199.06372
  0
LINE
  8
0
  6
CENTER
 62
     7
 10
-72.929565
 20
-153.56372
 11
7.9204226
 21
-153.56372
  0
LINE
  8
0
  6
CONTINUOUS
 62
     7
 10
3.1954315
 20
-199.06372
 11
3.1954315
 21
-153.56372
  0
LINE
  8
0
  6
CONTINUOUS
 62
     7
 10
-54.804569
 20
-199.06372
 11
3.1954315
 21
-199.06372
  0
LINE
  8
0
  6
CONTINUOUS
 62
     7
 10
-13.677966
 20
-196.56372
 11
-49.931171
 21
-196.56372
  0
LINE
  8
0
  6
CONTINUOUS
 62
     7
 10
-54.804569
 20
-199.06372
 11
-66.804565
 21
-199.06372
  0
LINE
  8
0
  6
CONTINUOUS
 62
     7
 10
-66.804565
 20
-153.56372
 11
-66.804565
 21
-199.06372
  0
LINE
  8
0
  6
CENTER
 62
     7
 10
-72.929565
 20
-153.56372
 11
7.9204226
 21
-153.56372
  0
LINE
  8
0
  6
CONTINUOUS
 62
     7
 10
125.18496
 20
-102.6643
 11
125.18496
 21
-155.16431
  0
LINE
  8
0
  6
CONTINUOUS
 62
     7
 10
63.184959
 20
-102.6643
 11
125.18496
 21
-102.6643
  0
LINE
  8
0
  6
CONTINUOUS
 62
     7
 10
70.326393
 20
-105.6643
 11
105.04354
 21
-105.6643
  0
LINE
  8
0
  6
CONTINUOUS
 62
     7
 10
63.184975
 20
-102.6643
 11
50.184975
 21
-102.6643
  0
LINE
  8
0
  6
CONTINUOUS
 62
     7
 10
50.184959
 20
-155.16431
 11
50.184959
 21
-102.6643
  0
LINE
  8
0
  6
CONTINUOUS
 62
     7
 10
63.184959
 20
-207.66431
 11
63.184959
 21
-102.6643
  0
LINE
  8
0
  6
CONTINUOUS
 62
     7
 10
112.18496
 20
-102.6643
 11
112.18496
 21
-207.66431
  0
LINE
  8
0
  6
CENTER
 62
     7
 10
43.809959
 20
-155.16431
 11
130.60997
 21
-155.16431
  0
LINE
  8
0
  6
CONTINUOUS
 62
     7
 10
125.18496
 20
-207.66431
 11
125.18496
 21
-155.16431
  0
LINE
  8
0
  6
CONTINUOUS
 62
     7
 10
63.184959
 20
-207.66431
 11
125.18496
 21
-207.66431
  0
LINE
  8
0
  6
CONTINUOUS
 62
     7
 10
70.326393
 20
-204.66431
 11
105.04354
 21
-204.66431
  0
LINE
  8
0
  6
CONTINUOUS
 62
     7
 10
63.184975
 20
-207.66431
 11
50.184975
 21
-207.66431
  0
LINE
  8
0
  6
CONTINUOUS
 62
     7
 10
50.184959
 20
-155.16431
 11
50.184959
 21
-207.66431
  0
LINE
  8
0
  6
CENTER
 62
     7
 10
43.809959
 20
-155.16431
 11
130.60997
 21
-155.16431
  0
LINE
  8
0
  6
CONTINUOUS
 62
     7
 10
257.84018
 20
-88.664307
 11
257.84018
 21
-155.16431
  0
LINE
  8
0
  6
CONTINUOUS
 62
     7
 10
257.84018
 20
-88.664307
 11
188.84019
 21
-88.664307
  0
LINE
  8
0
  6
CONTINUOUS
 62
     7
 10
234.69876
 20
-91.664307
 11
195.98164
 21
-91.664307
  0
LINE
  8
0
  6
CONTINUOUS
 62
     7
 10
188.84019
 20
-88.664307
 11
172.84021
 21
-88.664307
  0
LINE
  8
0
  6
CONTINUOUS
 62
     7
 10
172.84021
 20
-88.664307
 11
172.84021
 21
-155.16431
  0
LINE
  8
0
  6
CONTINUOUS
 62
     7
 10
188.84019
 20
-88.664307
 11
188.84019
 21
-149.16431
  0
LINE
  8
0
  6
CONTINUOUS
 62
     7
 10
190.84019
 20
-151.16431
 11
239.84019
 21
-151.16431
  0
LINE
  8
0
  6
CONTINUOUS
 62
     7
 10
241.84019
 20
-88.664307
 11
241.84019
 21
-149.16431
  0
LINE
  8
0
  6
CONTINUOUS
 62
     7
 10
257.84018
 20
-221.66431
 11
257.84018
 21
-155.16431
  0
LINE
  8
0
  6
CONTINUOUS
 62
     7
 10
257.84018
 20
-221.66431
 11
188.84019
 21
-221.66431
  0
LINE
  8
0
  6
CONTINUOUS
 62
     7
 10
234.69876
 20
-218.66431
 11
195.98164
 21
-218.66431
  0
LINE
  8
0
  6
CONTINUOUS
 62
     7
 10
188.84019
 20
-221.66431
 11
172.84021
 21
-221.66431
  0
LINE
  8
0
  6
CONTINUOUS
 62
     7
 10
172.84021
 20
-221.66431
 11
172.84021
 21
-155.16431
  0
LINE
  8
0
  6
CONTINUOUS
 62
     7
 10
188.84019
 20
-221.66431
 11
188.84019
 21
-161.16431
  0
LINE
  8
0
  6
CONTINUOUS
 62
     7
 10
190.84019
 20
-159.16431
 11
239.84019
 21
-159.16431
  0
LINE
  8
0
  6
CONTINUOUS
 62
     7
 10
241.84019
 20
-221.66431
 11
241.84019
 21
-161.16431
  0
LINE
  8
0
  6
CENTER
 62
     7
 10
165.2652
 20
-155.16431
 11
263.2652
 21
-155.16431
  0
LINE
  8
0
  6
CONTINUOUS
 62
     7
 10
-232.78525
 20
196.05121
 11
-232.78525
 21
194.8186
  0
LINE
  8
0
  6
CONTINUOUS
 62
     7
 10
-233.68524
 20
196.05121
 11
-233.68524
 21
194.8186
  0
LINE
  8
0
  6
CONTINUOUS
 62
     7
 10
-233.68524
 20
188.28381
 11
-233.68524
 21
187.05121
  0
LINE
  8
0
  6
CONTINUOUS
 62
     7
 10
-232.78525
 20
188.28381
 11
-232.78525
 21
187.05121
  0
LINE
  8
0
  6
CONTINUOUS
 62
     7
 10
-233.68524
 20
193.91534
 11
-233.68524
 21
191.55121
  0
LINE
  8
0
  6
CONTINUOUS
 62
     7
 10
-232.78525
 20
193.91534
 11
-232.78525
 21
191.55121
  0
LINE
  8
0
  6
CONTINUOUS
 62
     7
 10
-136.136
 20
196.05121
 11
-136.136
 21
194.8186
  0
LINE
  8
0
  6
CONTINUOUS
 62
     7
 10
-137.036
 20
196.05121
 11
-137.036
 21
194.8186
  0
LINE
  8
0
  6
CONTINUOUS
 62
     7
 10
-137.036
 20
188.28381
 11
-137.036
 21
187.05121
  0
LINE
  8
0
  6
CONTINUOUS
 62
     7
 10
-136.136
 20
188.28381
 11
-136.136
 21
187.05121
  0
LINE
  8
0
  6
CONTINUOUS
 62
     7
 10
-137.036
 20
193.91534
 11
-137.036
 21
191.55121
  0
LINE
  8
0
  6
CONTINUOUS
 62
     7
 10
-136.136
 20
193.91534
 11
-136.136
 21
191.55121
  0
LINE
  8
0
  6
CONTINUOUS
 62
     7
 10
-31.853657
 20
198.53064
 11
-31.853657
 21
196.88718
  0
LINE
  8
0
  6
CONTINUOUS
 62
     7
 10
-33.053669
 20
198.53064
 11
-33.053669
 21
196.88718
  0
LINE
  8
0
  6
CONTINUOUS
 62
     7
 10
-33.053669
 20
188.1741
 11
-33.053669
 21
186.53064
  0
LINE
  8
0
  6
CONTINUOUS
 62
     7
 10
-31.853657
 20
188.1741
 11
-31.853657
 21
186.53064
  0
LINE
  8
0
  6
CONTINUOUS
 62
     7
 10
-33.053669
 20
195.68282
 11
-33.053669
 21
192.53064
  0
LINE
  8
0
  6
CONTINUOUS
 62
     7
 10
-31.853657
 20
195.68282
 11
-31.853657
 21
192.53064
  0
LINE
  8
0
  6
CONTINUOUS
 62
     7
 10
-121.09713
 20
37.905369
 11
-121.09713
 21
36.261906
  0
LINE
  8
0
  6
CONTINUOUS
 62
     7
 10
-122.29713
 20
37.905369
 11
-122.29713
 21
36.261906
  0
LINE
  8
0
  6
CONTINUOUS
 62
     7
 10
-122.29713
 20
27.548834
 11
-122.29713
 21
25.905371
  0
LINE
  8
0
  6
CONTINUOUS
 62
     7
 10
-121.09713
 20
27.548834
 11
-121.09713
 21
25.905371
  0
LINE
  8
0
  6
CONTINUOUS
 62
     7
 10
-122.29713
 20
35.057545
 11
-122.29713
 21
31.905371
  0
LINE
  8
0
  6
CONTINUOUS
 62
     7
 10
-121.09713
 20
35.057545
 11
-121.09713
 21
31.905371
  0
LINE
  8
0
  6
CONTINUOUS
 62
     7
 10
-22.701424
 20
37.905369
 11
-22.701424
 21
36.261906
  0
LINE
  8
0
  6
CONTINUOUS
 62
     7
 10
-23.901424
 20
37.905369
 11
-23.901424
 21
36.261906
  0
LINE
  8
0
  6
CONTINUOUS
 62
     7
 10
-23.901424
 20
27.548834
 11
-23.901424
 21
25.905371
  0
LINE
  8
0
  6
CONTINUOUS
 62
     7
 10
-22.701424
 20
27.548834
 11
-22.701424
 21
25.905371
  0
LINE
  8
0
  6
CONTINUOUS
 62
     7
 10
-23.901424
 20
35.057545
 11
-23.901424
 21
31.905371
  0
LINE
  8
0
  6
CONTINUOUS
 62
     7
 10
-22.701424
 20
35.057545
 11
-22.701424
 21
31.905371
  0
LINE
  8
0
  6
CONTINUOUS
 62
     7
 10
79.950485
 20
39.405369
 11
79.950485
 21
37.35104
  0
LINE
  8
0
  6
CONTINUOUS
 62
     7
 10
78.450485
 20
39.405369
 11
78.450485
 21
37.35104
  0
LINE
  8
0
  6
CONTINUOUS
 62
     7
 10
78.450485
 20
26.4597
 11
78.450485
 21
24.405371
  0
LINE
  8
0
  6
CONTINUOUS
 62
     7
 10
79.950485
 20
26.4597
 11
79.950485
 21
24.405371
  0
LINE
  8
0
  6
CONTINUOUS
 62
     7
 10
78.450485
 20
35.845585
 11
78.450485
 21
31.905371
  0
LINE
  8
0
  6
CONTINUOUS
 62
     7
 10
79.950485
 20
35.845585
 11
79.950485
 21
31.905371
  0
LINE
  8
0
  6
CONTINUOUS
 62
     7
 10
-31.054569
 20
-146.06372
 11
-31.054569
 21
-148.11806
  0
LINE
  8
0
  6
CONTINUOUS
 62
     7
 10
-32.554569
 20
-146.06372
 11
-32.554569
 21
-148.11806
  0
LINE
  8
0
  6
CONTINUOUS
 62
     7
 10
-32.554569
 20
-159.0094
 11
-32.554569
 21
-161.06372
  0
LINE
  8
0
  6
CONTINUOUS
 62
     7
 10
-31.054569
 20
-159.0094
 11
-31.054569
 21
-161.06372
  0
LINE
  8
0
  6
CONTINUOUS
 62
     7
 10
-32.554569
 20
-149.6235
 11
-32.554569
 21
-153.56372
  0
LINE
  8
0
  6
CONTINUOUS
 62
     7
 10
-31.054569
 20
-149.6235
 11
-31.054569
 21
-153.56372
  0
LINE
  8
0
  6
CONTINUOUS
 62
     7
 10
88.584953
 20
-146.16431
 11
88.584953
 21
-148.6295
  0
LINE
  8
0
  6
CONTINUOUS
 62
     7
 10
86.784966
 20
-146.16431
 11
86.784966
 21
-148.6295
  0
LINE
  8
0
  6
CONTINUOUS
 62
     7
 10
86.784966
 20
-161.6991
 11
86.784966
 21
-164.16431
  0
LINE
  8
0
  6
CONTINUOUS
 62
     7
 10
88.584953
 20
-161.6991
 11
88.584953
 21
-164.16431
  0
LINE
  8
0
  6
CONTINUOUS
 62
     7
 10
86.784966
 20
-150.43605
 11
86.784966
 21
-155.16431
  0
LINE
  8
0
  6
CONTINUOUS
 62
     7
 10
88.584953
 20
-150.43605
 11
88.584953
 21
-155.16431
  0
LINE
  8
0
  6
CONTINUOUS
 62
     7
 10
216.56519
 20
-127.2643
 11
216.56519
 21
-129.72949
  0
LINE
  8
0
  6
CONTINUOUS
 62
     7
 10
214.76518
 20
-127.2643
 11
214.76518
 21
-129.72949
  0
LINE
  8
0
  6
CONTINUOUS
 62
     7
 10
214.76518
 20
-142.7991
 11
214.76518
 21
-145.2643
  0
LINE
  8
0
  6
CONTINUOUS
 62
     7
 10
216.56519
 20
-142.7991
 11
216.56519
 21
-145.2643
  0
LINE
  8
0
  6
CONTINUOUS
 62
     7
 10
214.76518
 20
-131.53604
 11
214.76518
 21
-136.2643
  0
LINE
  8
0
  6
CONTINUOUS
 62
     7
 10
216.56519
 20
-131.53604
 11
216.56519
 21
-136.2643
  0
ARC
  8
0
  6
CONTINUOUS
 62
     7
 10
-227.23524
 20
205.05121
 40
1.5
 50
30.000001
 51
90.000003
  0
ARC
  8
0
  6
CONTINUOUS
 62
     7
 10
-239.23524
 20
205.05121
 40
1.5
 50
90.000003
 51
150
  0
ARC
  8
0
  6
CONTINUOUS
 62
     7
 10
-239.23524
 20
178.05121
 40
1.5
 50
210
 51
270
  0
ARC
  8
0
  6
CONTINUOUS
 62
     7
 10
-227.23524
 20
178.05121
 40
1.5
 50
270
 51
330
  0
ARC
  8
0
  6
CONTINUOUS
 62
     7
 10
-224.63718
 20
176.55121
 40
1.5
 50
90.000003
 51
150
  0
ARC
  8
0
  6
CONTINUOUS
 62
     7
 10
-224.63718
 20
206.55121
 40
1.5
 50
210
 51
270
  0
ARC
  8
0
  6
CONTINUOUS
 62
     7
 10
-241.83333
 20
206.55121
 40
1.5
 50
270
 51
330
  0
ARC
  8
0
  6
CONTINUOUS
 62
     7
 10
-241.83333
 20
176.55121
 40
1.5
 50
30.000001
 51
90.000003
  0
ARC
  8
0
  6
CONTINUOUS
 62
     7
 10
-129.336
 20
208.05121
 40
1.5
 50
30.000001
 51
90.000003
  0
ARC
  8
0
  6
CONTINUOUS
 62
     7
 10
-143.836
 20
208.05121
 40
1.5
 50
90.000003
 51
150
  0
ARC
  8
0
  6
CONTINUOUS
 62
     7
 10
-143.836
 20
175.05121
 40
1.5
 50
210
 51
270
  0
ARC
  8
0
  6
CONTINUOUS
 62
     7
 10
-129.336
 20
175.05121
 40
1.5
 50
270
 51
330
  0
ARC
  8
0
  6
CONTINUOUS
 62
     7
 10
-126.73794
 20
209.55121
 40
1.5
 50
210
 51
270
  0
ARC
  8
0
  6
CONTINUOUS
 62
     7
 10
-146.43408
 20
209.55121
 40
1.5
 50
270
 51
330
  0
ARC
  8
0
  6
CONTINUOUS
 62
     7
 10
-146.43408
 20
173.55121
 40
1.5
 50
30.000001
 51
90.000003
  0
ARC
  8
0
  6
CONTINUOUS
 62
     7
 10
-126.73794
 20
173.55121
 40
1.5
 50
90.000003
 51
150
  0
ARC
  8
0
  6
CONTINUOUS
 62
     7
 10
-23.953663
 20
213.03064
 40
1.5
 50
30.000001
 51
90.000003
  0
ARC
  8
0
  6
CONTINUOUS
 62
     7
 10
-40.953663
 20
213.03064
 40
1.5
 50
90.000003
 51
150
  0
ARC
  8
0
  6
CONTINUOUS
 62
     7
 10
-40.953663
 20
172.03064
 40
1.5
 50
210
 51
270
  0
ARC
  8
0
  6
CONTINUOUS
 62
     7
 10
-23.953663
 20
172.03064
 40
1.5
 50
270
 51
330
  0
ARC
  8
0
  6
CONTINUOUS
 62
     7
 10
-21.355579
 20
214.53064
 40
1.5
 50
210
 51
270
  0
ARC
  8
0
  6
CONTINUOUS
 62
     7
 10
-43.551731
 20
214.53064
 40
1.5
 50
270
 51
330
  0
ARC
  8
0
  6
CONTINUOUS
 62
     7
 10
-43.551731
 20
170.53064
 40
1.5
 50
30.000001
 51
90.000003
  0
ARC
  8
0
  6
CONTINUOUS
 62
     7
 10
-21.355579
 20
170.53064
 40
1.5
 50
90.000003
 51
150
  0
ARC
  8
0
  6
CONTINUOUS
 62
     7
 10
-111.94713
 20
56.905369
 40
1.5
 50
30.000001
 51
90.000003
  0
ARC
  8
0
  6
CONTINUOUS
 62
     7
 10
-131.44713
 20
56.905369
 40
1.5
 50
90.000003
 51
150
  0
ARC
  8
0
  6
CONTINUOUS
 62
     7
 10
-111.94713
 20
6.9053702
 40
1.5
 50
270
 51
330
  0
ARC
  8
0
  6
CONTINUOUS
 62
     7
 10
-131.44713
 20
6.9053702
 40
1.5
 50
210
 51
270
  0
ARC
  8
0
  6
CONTINUOUS
 62
     7
 10
-109.34905
 20
5.4053702
 40
1.5
 50
90.000003
 51
150
  0
ARC
  8
0
  6
CONTINUOUS
 62
     7
 10
-134.0452
 20
5.4053702
 40
1.5
 50
30.000001
 51
90.000003
  0
ARC
  8
0
  6
CONTINUOUS
 62
     7
 10
-109.34905
 20
58.405369
 40
1.5
 50
210
 51
270
  0
ARC
  8
0
  6
CONTINUOUS
 62
     7
 10
-134.0452
 20
58.405369
 40
1.5
 50
270
 51
330
  0
ARC
  8
0
  6
CONTINUOUS
 62
     7
 10
-12.801426
 20
59.905369
 40
2
 50
30.000001
 51
90.000003
  0
ARC
  8
0
  6
CONTINUOUS
 62
     7
 10
-33.801426
 20
59.905369
 40
2
 50
90.000003
 51
150
  0
ARC
  8
0
  6
CONTINUOUS
 62
     7
 10
-12.801426
 20
3.9053702
 40
2
 50
270
 51
330
  0
ARC
  8
0
  6
CONTINUOUS
 62
     7
 10
-33.801426
 20
3.9053702
 40
2
 50
210
 51
270
  0
ARC
  8
0
  6
CONTINUOUS
 62
     7
 10
-9.3373241
 20
1.9053701
 40
2
 50
90.000003
 51
150
  0
ARC
  8
0
  6
CONTINUOUS
 62
     7
 10
-37.26553
 20
1.9053701
 40
2
 50
30.000001
 51
90.000003
  0
ARC
  8
0
  6
CONTINUOUS
 62
     7
 10
-9.3373241
 20
61.905369
 40
2
 50
210
 51
270
  0
ARC
  8
0
  6
CONTINUOUS
 62
     7
 10
-37.26553
 20
61.905369
 40
2
 50
270
 51
330
  0
ARC
  8
0
  6
CONTINUOUS
 62
     7
 10
90.950485
 20
66.405373
 40
2
 50
30.000001
 51
90.000003
  0
ARC
  8
0
  6
CONTINUOUS
 62
     7
 10
67.450485
 20
66.405373
 40
2
 50
90.000003
 51
150
  0
ARC
  8
0
  6
CONTINUOUS
 62
     7
 10
67.450485
 20
-2.5946298
 40
2
 50
210
 51
270
  0
ARC
  8
0
  6
CONTINUOUS
 62
     7
 10
90.950485
 20
-2.5946298
 40
2
 50
270
 51
330
  0
ARC
  8
0
  6
CONTINUOUS
 62
     7
 10
94.414581
 20
-4.5946298
 40
2
 50
90.000003
 51
150
  0
ARC
  8
0
  6
CONTINUOUS
 62
     7
 10
63.986382
 20
-4.5946298
 40
2
 50
30.000001
 51
90.000003
  0
ARC
  8
0
  6
CONTINUOUS
 62
     7
 10
94.414581
 20
68.405373
 40
2
 50
210
 51
270
  0
ARC
  8
0
  6
CONTINUOUS
 62
     7
 10
63.986382
 20
68.405373
 40
2
 50
270
 51
330
  0
ARC
  8
0
  6
CONTINUOUS
 62
     7
 10
-13.677966
 20
-104.56373
 40
6
 50
270
 51
324.31468
  0
ARC
  8
0
  6
CONTINUOUS
 62
     7
 10
-49.931171
 20
-104.56373
 40
6
 50
215.68536
 51
270.00002
  0
ARC
  8
0
  6
CONTINUOUS
 62
     7
 10
-13.677966
 20
-202.56372
 40
6
 50
35.685324
 51
90.000003
  0
ARC
  8
0
  6
CONTINUOUS
 62
     7
 10
-49.931171
 20
-202.56372
 40
6
 50
89.999982
 51
144.31464
  0
ARC
  8
0
  6
CONTINUOUS
 62
     7
 10
105.04354
 20
-95.664307
 40
10
 50
270
 51
315.57299
  0
ARC
  8
0
  6
CONTINUOUS
 62
     7
 10
70.326393
 20
-95.664307
 40
10
 50
224.42703
 51
270.00002
  0
ARC
  8
0
  6
CONTINUOUS
 62
     7
 10
105.04354
 20
-214.66431
 40
10
 50
44.42701
 51
90.000003
  0
ARC
  8
0
  6
CONTINUOUS
 62
     7
 10
70.326393
 20
-214.66431
 40
10
 50
89.999982
 51
135.57297
  0
ARC
  8
0
  6
CONTINUOUS
 62
     7
 10
234.69876
 20
-81.664322
 40
10
 50
270
 51
315.57299
  0
ARC
  8
0
  6
CONTINUOUS
 62
     7
 10
195.98163
 20
-81.664322
 40
10
 50
224.42703
 51
270.00002
  0
ARC
  8
0
  6
CONTINUOUS
 62
     7
 10
190.84019
 20
-149.16431
 40
2
 50
179.99999
 51
270
  0
ARC
  8
0
  6
CONTINUOUS
 62
     7
 10
239.84019
 20
-149.16431
 40
2
 50
270
 51
0
  0
ARC
  8
0
  6
CONTINUOUS
 62
     7
 10
234.69876
 20
-228.66429
 40
10
 50
44.42701
 51
90.000003
  0
ARC
  8
0
  6
CONTINUOUS
 62
     7
 10
195.98163
 20
-228.66429
 40
10
 50
89.999982
 51
135.57297
  0
ARC
  8
0
  6
CONTINUOUS
 62
     7
 10
190.84019
 20
-161.16431
 40
2
 50
90.000003
 51
180.00001
  0
ARC
  8
0
  6
CONTINUOUS
 62
     7
 10
239.84019
 20
-161.16431
 40
2
 50
0
 51
90.000003
  0
ARC
  8
0
  6
CONTINUOUS
 62
     7
 10
-231.43524
 20
191.55121
 40
1.8
 50
306.00832
 51
53.991676
  0
ARC
  8
0
  6
CONTINUOUS
 62
     7
 10
-231.43524
 20
191.55121
 40
2.7
 50
306.00832
 51
53.991676
  0
ARC
  8
0
  6
CONTINUOUS
 62
     7
 10
-235.03525
 20
191.55121
 40
1.8
 50
126.00833
 51
233.99168
  0
ARC
  8
0
  6
CONTINUOUS
 62
     7
 10
-235.03525
 20
191.55121
 40
2.7
 50
126.00833
 51
233.99168
  0
ARC
  8
0
  6
CONTINUOUS
 62
     7
 10
-233.23524
 20
189.07448
 40
5.7617307
 50
53.991676
 51
85.520553
  0
ARC
  8
0
  6
CONTINUOUS
 62
     7
 10
-233.23524
 20
189.07448
 40
4.8617306
 50
53.991676
 51
84.689121
  0
ARC
  8
0
  6
CONTINUOUS
 62
     7
 10
-233.23524
 20
194.02794
 40
4.8617306
 50
233.99167
 51
306.00832
  0
ARC
  8
0
  6
CONTINUOUS
 62
     7
 10
-233.23524
 20
194.02794
 40
5.7617307
 50
233.99167
 51
265.52055
  0
ARC
  8
0
  6
CONTINUOUS
 62
     7
 10
-233.23524
 20
195.71371
 40
0.5625
 50
36.869897
 51
143.1301
  0
ARC
  8
0
  6
CONTINUOUS
 62
     7
 10
-233.23524
 20
191.8887
 40
0.5625
 50
216.8699
 51
323.1301
  0
ARC
  8
0
  6
CONTINUOUS
 62
     7
 10
-233.23524
 20
187.3887
 40
0.5625
 50
216.8699
 51
323.1301
  0
ARC
  8
0
  6
CONTINUOUS
 62
     7
 10
-233.23524
 20
189.07448
 40
5.7617307
 50
94.479452
 51
126.00833
  0
ARC
  8
0
  6
CONTINUOUS
 62
     7
 10
-233.23524
 20
189.07448
 40
4.8617306
 50
95.310878
 51
126.00833
  0
ARC
  8
0
  6
CONTINUOUS
 62
     7
 10
-233.23524
 20
194.02794
 40
5.7617307
 50
274.47945
 51
306.00832
  0
ARC
  8
0
  6
CONTINUOUS
 62
     7
 10
-134.786
 20
191.55121
 40
1.8
 50
306.00832
 51
53.991676
  0
ARC
  8
0
  6
CONTINUOUS
 62
     7
 10
-134.786
 20
191.55121
 40
2.7
 50
306.00832
 51
53.991676
  0
ARC
  8
0
  6
CONTINUOUS
 62
     7
 10
-138.386
 20
191.55121
 40
1.8
 50
126.00833
 51
233.99168
  0
ARC
  8
0
  6
CONTINUOUS
 62
     7
 10
-138.386
 20
191.55121
 40
2.7
 50
126.00833
 51
233.99168
  0
ARC
  8
0
  6
CONTINUOUS
 62
     7
 10
-136.586
 20
189.07448
 40
5.7617307
 50
53.991676
 51
85.520553
  0
ARC
  8
0
  6
CONTINUOUS
 62
     7
 10
-136.586
 20
189.07448
 40
4.8617306
 50
53.991676
 51
84.689121
  0
ARC
  8
0
  6
CONTINUOUS
 62
     7
 10
-136.586
 20
194.02794
 40
4.8617306
 50
233.99167
 51
306.00832
  0
ARC
  8
0
  6
CONTINUOUS
 62
     7
 10
-136.586
 20
194.02794
 40
5.7617307
 50
233.99167
 51
265.52055
  0
ARC
  8
0
  6
CONTINUOUS
 62
     7
 10
-136.586
 20
195.71371
 40
0.5625
 50
36.869897
 51
143.1301
  0
ARC
  8
0
  6
CONTINUOUS
 62
     7
 10
-136.586
 20
191.8887
 40
0.5625
 50
216.8699
 51
323.1301
  0
ARC
  8
0
  6
CONTINUOUS
 62
     7
 10
-136.586
 20
187.3887
 40
0.5625
 50
216.8699
 51
323.1301
  0
ARC
  8
0
  6
CONTINUOUS
 62
     7
 10
-136.586
 20
189.07448
 40
5.7617307
 50
94.479452
 51
126.00833
  0
ARC
  8
0
  6
CONTINUOUS
 62
     7
 10
-136.586
 20
189.07448
 40
4.8617306
 50
95.310878
 51
126.00833
  0
ARC
  8
0
  6
CONTINUOUS
 62
     7
 10
-136.586
 20
194.02794
 40
5.7617307
 50
274.47945
 51
306.00832
  0
ARC
  8
0
  6
CONTINUOUS
 62
     7
 10
-30.053669
 20
192.53064
 40
2.4000001
 50
306.00832
 51
53.991676
  0
ARC
  8
0
  6
CONTINUOUS
 62
     7
 10
-30.053669
 20
192.53064
 40
3.5999999
 50
306.00832
 51
53.991676
  0
ARC
  8
0
  6
CONTINUOUS
 62
     7
 10
-34.853657
 20
192.53064
 40
2.4000001
 50
126.00833
 51
233.99168
  0
ARC
  8
0
  6
CONTINUOUS
 62
     7
 10
-34.853657
 20
192.53064
 40
3.5999999
 50
126.00833
 51
233.99168
  0
ARC
  8
0
  6
CONTINUOUS
 62
     7
 10
-32.453663
 20
189.22833
 40
7.6823077
 50
53.991676
 51
85.520553
  0
ARC
  8
0
  6
CONTINUOUS
 62
     7
 10
-32.453663
 20
189.22833
 40
6.4823079
 50
53.991676
 51
84.689121
  0
ARC
  8
0
  6
CONTINUOUS
 62
     7
 10
-32.453663
 20
195.83295
 40
6.4823079
 50
233.99167
 51
306.00832
  0
ARC
  8
0
  6
CONTINUOUS
 62
     7
 10
-32.453663
 20
195.83295
 40
7.6823077
 50
233.99167
 51
265.52055
  0
ARC
  8
0
  6
CONTINUOUS
 62
     7
 10
-32.453663
 20
198.08064
 40
0.75
 50
36.869897
 51
143.1301
  0
ARC
  8
0
  6
CONTINUOUS
 62
     7
 10
-32.453663
 20
192.98064
 40
0.75
 50
216.8699
 51
323.1301
  0
ARC
  8
0
  6
CONTINUOUS
 62
     7
 10
-32.453663
 20
186.98064
 40
0.75
 50
216.8699
 51
323.1301
  0
ARC
  8
0
  6
CONTINUOUS
 62
     7
 10
-32.453663
 20
189.22833
 40
6.4823079
 50
95.310878
 51
126.00833
  0
ARC
  8
0
  6
CONTINUOUS
 62
     7
 10
-32.453663
 20
189.22833
 40
7.6823077
 50
94.479452
 51
126.00833
  0
ARC
  8
0
  6
CONTINUOUS
 62
     7
 10
-32.453663
 20
195.83295
 40
7.6823077
 50
274.47945
 51
306.00832
  0
ARC
  8
0
  6
CONTINUOUS
 62
     7
 10
-119.29713
 20
31.905371
 40
2.4000001
 50
306.00832
 51
53.991676
  0
ARC
  8
0
  6
CONTINUOUS
 62
     7
 10
-119.29713
 20
31.905371
 40
3.5999999
 50
306.00832
 51
53.991676
  0
ARC
  8
0
  6
CONTINUOUS
 62
     7
 10
-124.09713
 20
31.905371
 40
2.4000001
 50
126.00833
 51
233.99168
  0
ARC
  8
0
  6
CONTINUOUS
 62
     7
 10
-124.09713
 20
31.905371
 40
3.5999999
 50
126.00833
 51
233.99168
  0
ARC
  8
0
  6
CONTINUOUS
 62
     7
 10
-121.69713
 20
28.603064
 40
7.6823077
 50
53.991676
 51
85.520553
  0
ARC
  8
0
  6
CONTINUOUS
 62
     7
 10
-121.69713
 20
28.603064
 40
6.4823079
 50
53.991676
 51
84.689121
  0
ARC
  8
0
  6
CONTINUOUS
 62
     7
 10
-121.69713
 20
35.207676
 40
6.4823079
 50
233.99167
 51
306.00832
  0
ARC
  8
0
  6
CONTINUOUS
 62
     7
 10
-121.69713
 20
35.207676
 40
7.6823077
 50
233.99167
 51
265.52055
  0
ARC
  8
0
  6
CONTINUOUS
 62
     7
 10
-121.69713
 20
37.455372
 40
0.75
 50
36.869897
 51
143.1301
  0
ARC
  8
0
  6
CONTINUOUS
 62
     7
 10
-121.69713
 20
32.355366
 40
0.75
 50
216.8699
 51
323.1301
  0
ARC
  8
0
  6
CONTINUOUS
 62
     7
 10
-121.69713
 20
26.355368
 40
0.75
 50
216.8699
 51
323.1301
  0
ARC
  8
0
  6
CONTINUOUS
 62
     7
 10
-121.69713
 20
28.603064
 40
6.4823079
 50
95.310878
 51
126.00833
  0
ARC
  8
0
  6
CONTINUOUS
 62
     7
 10
-121.69713
 20
28.603064
 40
7.6823077
 50
94.479452
 51
126.00833
  0
ARC
  8
0
  6
CONTINUOUS
 62
     7
 10
-121.69713
 20
35.207676
 40
7.6823077
 50
274.47945
 51
306.00832
  0
ARC
  8
0
  6
CONTINUOUS
 62
     7
 10
-20.901424
 20
31.905371
 40
2.4000001
 50
306.00832
 51
53.991676
  0
ARC
  8
0
  6
CONTINUOUS
 62
     7
 10
-20.901424
 20
31.905371
 40
3.5999999
 50
306.00832
 51
53.991676
  0
ARC
  8
0
  6
CONTINUOUS
 62
     7
 10
-25.701424
 20
31.905371
 40
2.4000001
 50
126.00833
 51
233.99168
  0
ARC
  8
0
  6
CONTINUOUS
 62
     7
 10
-25.701424
 20
31.905371
 40
3.5999999
 50
126.00833
 51
233.99168
  0
ARC
  8
0
  6
CONTINUOUS
 62
     7
 10
-23.301424
 20
28.603064
 40
7.6823077
 50
53.991676
 51
85.520553
  0
ARC
  8
0
  6
CONTINUOUS
 62
     7
 10
-23.301424
 20
28.603064
 40
6.4823079
 50
53.991676
 51
84.689121
  0
ARC
  8
0
  6
CONTINUOUS
 62
     7
 10
-23.301424
 20
35.207676
 40
6.4823079
 50
233.99167
 51
306.00832
  0
ARC
  8
0
  6
CONTINUOUS
 62
     7
 10
-23.301424
 20
35.207676
 40
7.6823077
 50
233.99167
 51
265.52055
  0
ARC
  8
0
  6
CONTINUOUS
 62
     7
 10
-23.301424
 20
37.455372
 40
0.75
 50
36.869897
 51
143.1301
  0
ARC
  8
0
  6
CONTINUOUS
 62
     7
 10
-23.301424
 20
32.355366
 40
0.75
 50
216.8699
 51
323.1301
  0
ARC
  8
0
  6
CONTINUOUS
 62
     7
 10
-23.301424
 20
26.355368
 40
0.75
 50
216.8699
 51
323.1301
  0
ARC
  8
0
  6
CONTINUOUS
 62
     7
 10
-23.301424
 20
28.603064
 40
6.4823079
 50
95.310878
 51
126.00833
  0
ARC
  8
0
  6
CONTINUOUS
 62
     7
 10
-23.301424
 20
28.603064
 40
7.6823077
 50
94.479452
 51
126.00833
  0
ARC
  8
0
  6
CONTINUOUS
 62
     7
 10
-23.301424
 20
35.207676
 40
7.6823077
 50
274.47945
 51
306.00832
  0
ARC
  8
0
  6
CONTINUOUS
 62
     7
 10
82.200485
 20
31.905371
 40
3
 50
306.00832
 51
53.991676
  0
ARC
  8
0
  6
CONTINUOUS
 62
     7
 10
82.200485
 20
31.905371
 40
4.5
 50
306.00832
 51
53.991676
  0
ARC
  8
0
  6
CONTINUOUS
 62
     7
 10
76.200485
 20
31.905371
 40
3
 50
126.00833
 51
233.99168
  0
ARC
  8
0
  6
CONTINUOUS
 62
     7
 10
76.200485
 20
31.905371
 40
4.5
 50
126.00833
 51
233.99168
  0
ARC
  8
0
  6
CONTINUOUS
 62
     7
 10
79.200485
 20
27.777487
 40
9.6028843
 50
53.991676
 51
85.520553
  0
ARC
  8
0
  6
CONTINUOUS
 62
     7
 10
79.200485
 20
27.777487
 40
8.1028843
 50
53.991676
 51
84.689121
  0
ARC
  8
0
  6
CONTINUOUS
 62
     7
 10
79.200485
 20
36.033253
 40
8.1028843
 50
233.99167
 51
306.00832
  0
ARC
  8
0
  6
CONTINUOUS
 62
     7
 10
79.200485
 20
36.033253
 40
9.6028843
 50
233.99167
 51
265.52055
  0
ARC
  8
0
  6
CONTINUOUS
 62
     7
 10
79.200485
 20
38.842869
 40
0.9375
 50
36.869897
 51
143.1301
  0
ARC
  8
0
  6
CONTINUOUS
 62
     7
 10
79.200485
 20
32.467869
 40
0.9375
 50
216.8699
 51
323.1301
  0
ARC
  8
0
  6
CONTINUOUS
 62
     7
 10
79.200485
 20
24.967871
 40
0.9375
 50
216.8699
 51
323.1301
  0
ARC
  8
0
  6
CONTINUOUS
 62
     7
 10
79.200485
 20
27.777487
 40
9.6028843
 50
94.479452
 51
126.00833
  0
ARC
  8
0
  6
CONTINUOUS
 62
     7
 10
79.200485
 20
27.777487
 40
8.1028843
 50
95.310878
 51
126.00833
  0
ARC
  8
0
  6
CONTINUOUS
 62
     7
 10
79.200485
 20
36.033253
 40
9.6028843
 50
274.47945
 51
306.00832
  0
ARC
  8
0
  6
CONTINUOUS
 62
     7
 10
-28.804569
 20
-153.56372
 40
3
 50
306.00832
 51
53.991676
  0
ARC
  8
0
  6
CONTINUOUS
 62
     7
 10
-28.804569
 20
-153.56372
 40
4.5
 50
306.00832
 51
53.991676
  0
ARC
  8
0
  6
CONTINUOUS
 62
     7
 10
-34.804569
 20
-153.56372
 40
3
 50
126.00833
 51
233.99168
  0
ARC
  8
0
  6
CONTINUOUS
 62
     7
 10
-34.804569
 20
-153.56372
 40
4.5
 50
126.00833
 51
233.99168
  0
ARC
  8
0
  6
CONTINUOUS
 62
     7
 10
-31.804569
 20
-157.6916
 40
9.6028843
 50
53.991676
 51
85.520553
  0
ARC
  8
0
  6
CONTINUOUS
 62
     7
 10
-31.804569
 20
-157.6916
 40
8.1028843
 50
53.991676
 51
84.689121
  0
ARC
  8
0
  6
CONTINUOUS
 62
     7
 10
-31.804569
 20
-149.43584
 40
8.1028843
 50
233.99167
 51
306.00832
  0
ARC
  8
0
  6
CONTINUOUS
 62
     7
 10
-31.804569
 20
-149.43584
 40
9.6028843
 50
233.99167
 51
265.52055
  0
ARC
  8
0
  6
CONTINUOUS
 62
     7
 10
-31.804569
 20
-146.62622
 40
0.9375
 50
36.869897
 51
143.1301
  0
ARC
  8
0
  6
CONTINUOUS
 62
     7
 10
-31.804569
 20
-153.00122
 40
0.9375
 50
216.8699
 51
323.1301
  0
ARC
  8
0
  6
CONTINUOUS
 62
     7
 10
-31.804569
 20
-160.50122
 40
0.9375
 50
216.8699
 51
323.1301
  0
ARC
  8
0
  6
CONTINUOUS
 62
     7
 10
-31.804569
 20
-157.6916
 40
9.6028843
 50
94.479452
 51
126.00833
  0
ARC
  8
0
  6
CONTINUOUS
 62
     7
 10
-31.804569
 20
-157.6916
 40
8.1028843
 50
95.310878
 51
126.00833
  0
ARC
  8
0
  6
CONTINUOUS
 62
     7
 10
-31.804569
 20
-149.43584
 40
9.6028843
 50
274.47945
 51
306.00832
  0
ARC
  8
0
  6
CONTINUOUS
 62
     7
 10
91.284966
 20
-155.16431
 40
3.5999999
 50
306.00832
 51
53.991676
  0
ARC
  8
0
  6
CONTINUOUS
 62
     7
 10
91.284966
 20
-155.16431
 40
5.4000001
 50
306.00832
 51
53.991676
  0
ARC
  8
0
  6
CONTINUOUS
 62
     7
 10
84.084953
 20
-155.16431
 40
3.5999999
 50
126.00833
 51
233.99168
  0
ARC
  8
0
  6
CONTINUOUS
 62
     7
 10
84.084953
 20
-155.16431
 40
5.4000001
 50
126.00833
 51
233.99168
  0
ARC
  8
0
  6
CONTINUOUS
 62
     7
 10
87.684959
 20
-160.11777
 40
11.523461
 50
53.991676
 51
85.520553
  0
ARC
  8
0
  6
CONTINUOUS
 62
     7
 10
87.684959
 20
-160.11777
 40
9.7234612
 50
53.991676
 51
84.689121
  0
ARC
  8
0
  6
CONTINUOUS
 62
     7
 10
87.684959
 20
-150.21085
 40
9.7234612
 50
233.99167
 51
306.00832
  0
ARC
  8
0
  6
CONTINUOUS
 62
     7
 10
87.684959
 20
-150.21085
 40
11.523461
 50
233.99167
 51
265.52055
  0
ARC
  8
0
  6
CONTINUOUS
 62
     7
 10
87.684959
 20
-146.83931
 40
1.125
 50
36.869897
 51
143.1301
  0
ARC
  8
0
  6
CONTINUOUS
 62
     7
 10
87.684959
 20
-154.4893
 40
1.125
 50
216.8699
 51
323.1301
  0
ARC
  8
0
  6
CONTINUOUS
 62
     7
 10
87.684959
 20
-163.4893
 40
1.125
 50
216.8699
 51
323.1301
  0
ARC
  8
0
  6
CONTINUOUS
 62
     7
 10
87.684959
 20
-160.11777
 40
11.523461
 50
94.479452
 51
126.00833
  0
ARC
  8
0
  6
CONTINUOUS
 62
     7
 10
87.684959
 20
-160.11777
 40
9.7234612
 50
95.310878
 51
126.00833
  0
ARC
  8
0
  6
CONTINUOUS
 62
     7
 10
87.684959
 20
-150.21085
 40
11.523461
 50
274.47945
 51
306.00832
  0
ARC
  8
0
  6
CONTINUOUS
 62
     7
 10
219.26518
 20
-136.2643
 40
3.5999999
 50
306.00832
 51
53.991676
  0
ARC
  8
0
  6
CONTINUOUS
 62
     7
 10
219.26518
 20
-136.2643
 40
5.4000001
 50
306.00832
 51
53.991676
  0
ARC
  8
0
  6
CONTINUOUS
 62
     7
 10
212.06519
 20
-136.2643
 40
3.5999999
 50
126.00833
 51
233.99168
  0
ARC
  8
0
  6
CONTINUOUS
 62
     7
 10
212.06519
 20
-136.2643
 40
5.4000001
 50
126.00833
 51
233.99168
  0
ARC
  8
0
  6
CONTINUOUS
 62
     7
 10
215.66519
 20
-141.21776
 40
11.523461
 50
53.991676
 51
85.520553
  0
ARC
  8
0
  6
CONTINUOUS
 62
     7
 10
215.66519
 20
-141.21776
 40
9.7234612
 50
53.991676
 51
84.689121
  0
ARC
  8
0
  6
CONTINUOUS
 62
     7
 10
215.66519
 20
-131.31084
 40
9.7234612
 50
233.99167
 51
306.00832
  0
ARC
  8
0
  6
CONTINUOUS
 62
     7
 10
215.66519
 20
-131.31084
 40
11.523461
 50
233.99167
 51
265.52055
  0
ARC
  8
0
  6
CONTINUOUS
 62
     7
 10
215.66519
 20
-127.9393
 40
1.125
 50
36.869897
 51
143.1301
  0
ARC
  8
0
  6
CONTINUOUS
 62
     7
 10
215.66519
 20
-135.58929
 40
1.125
 50
216.8699
 51
323.1301
  0
ARC
  8
0
  6
CONTINUOUS
 62
     7
 10
215.66519
 20
-144.58929
 40
1.125
 50
216.8699
 51
323.1301
  0
ARC
  8
0
  6
CONTINUOUS
 62
     7
 10
215.66519
 20
-141.21776
 40
11.523461
 50
94.479452
 51
126.00833
  0
ARC
  8
0
  6
CONTINUOUS
 62
     7
 10
215.66519
 20
-141.21776
 40
9.7234612
 50
95.310878
 51
126.00833
  0
ARC
  8
0
  6
CONTINUOUS
 62
     7
 10
215.66519
 20
-131.31084
 40
11.523461
 50
274.47945
 51
306.00832
  0
TEXT
  8
0
  6
CONTINUOUS
 62
     7
 10
-379.08815
 20
266.396
 40
12
 41
0.84349531
  1
ＲＣＦ－Ｋ　Ｓ（ソケット）
  0
TEXT
  8
0
  6
CONTINUOUS
 62
     7
 10
-241.96893
 20
220.85158
 40
8
 41
0.85534224
  1
１／２
  0
TEXT
  8
0
  6
CONTINUOUS
 62
     7
 10
-145.98553
 20
223.78984
 40
8
 41
0.85534224
  1
３／４
  0
TEXT
  8
0
  6
CONTINUOUS
 62
     7
 10
-36.290231
 20
230.6458
 40
8
 41
0.90036054
  1
１
  0
TEXT
  8
0
  6
CONTINUOUS
 62
     7
 10
-135.2119
 20
77.855911
 40
8
 41
0.85124966
  1
１１／４
  0
TEXT
  8
0
  6
CONTINUOUS
 62
     7
 10
-37.26965
 20
81.773598
 40
8
 41
0.85124966
  1
１１／２
  0
TEXT
  8
0
  6
CONTINUOUS
 62
     7
 10
73.405078
 20
82.753021
 40
8
 41
0.90036054
  1
２
  0
TEXT
  8
0
  6
CONTINUOUS
 62
     7
 10
-43.146188
 20
-84.728203
 40
8
 41
0.85124966
  1
２１／２
  0
TEXT
  8
0
  6
CONTINUOUS
 62
     7
 10
85.158145
 20
-78.851669
 40
8
 41
0.90036054
  1
３
  0
TEXT
  8
0
  6
CONTINUOUS
 62
     7
 10
209.54479
 20
-71.016289
 40
8
 41
0.90036054
  1
４
  0
POINT
  8
1
  6
CONTINUOUS
 62
     7
 10
410
 20
-297.5
  0
LINE
  8
1
  6
CONTINUOUS
 62
     7
 10
-429
 20
-297.5
 11
410
 21
-297.5
  0
LINE
  8
1
  6
CONTINUOUS
 62
     7
 10
-429
 20
297.5
 11
-429
 21
-297.5
  0
LINE
  8
1
  6
CONTINUOUS
 62
     7
 10
410
 20
297.5
 11
410
 21
-297.5
  0
LINE
  8
1
  6
CONTINUOUS
 62
     7
 10
-429
 20
297.5
 11
410
 21
297.5
  0
ENDSEC
  0
EOF
