  0
SECTION
  2
HEADER
  9
$EXTMAX
 10
1259
 20
-913.5
  9
$EXTMIN
 10
417
 20
-1507.5
  0
ENDSEC
  0
SECTION
  2
TABLES
  0
TABLE
  2
LTYPE
 70
    22
  0
LTYPE
  2
CONTINUOUS
 70
    64
  3
Solid line
 72
    65
 73
     0
 40
0.000000
  0
LTYPE
  2
DASHED
 70
    64
  3
__ __ __ __ __ __ __ __ __ __ __ __ __ __ __
 72
    65
 73
     2
 40
3.500000
 49
2.000000
 49
-1.500000
  0
LTYPE
  2
CENTER
 70
    64
  3
____ _ ____ _ ____ _ ____ _ ____ _ ____ _ ____
 72
    65
 73
     4
 40
17.500000
 49
13.000000
 49
-1.500000
 49
1.500000
 49
-1.500000
  0
LTYPE
  2
PHANTOM
 70
    64
  3
_____ _ _ _____ _ _ _____ _ _ _____ _ _ ____  
 72
    65
 73
     6
 40
15.500000
 49
8.000000
 49
-1.500000
 49
1.500000
 49
-1.500000
 49
1.500000
 49
-1.500000
  0
LTYPE
  2
DOT
 70
    64
  3
. . . . . . . . . . . . . . . . . . . . . . . .
 72
    65
 73
     2
 40
0.25
 49
0.0
 49
-0.25
  0
ENDTAB
  0
TABLE
  2
LAYER
 70
     2
  0
LAYER
  2
0
 70
     0
 62
     7
  6
CONTINUOUS
  0
LAYER
  2
1
 70
     0
 62
     7
  6
CONTINUOUS
  0
ENDTAB
  0
TABLE
  2
STYLE
 70
     1
  0
STYLE
  2
STANDARD
 70
     0
 40
0.000000
 41
1.000000
 50
0.000000
 71
     0
 42
0.200000
  3
txt
  4
BIGFONT
  0
ENDTAB
  0
TABLE
  2
VIEW
 70
     0
  0
ENDTAB
  0
ENDSEC
  0
SECTION
  2
BLOCKS
  0
ENDSEC
  0
SECTION
  2
ENTITIES
  0
POINT
  8
0
  6
CONTINUOUS
 62
     7
 10
-351.48041
 20
191.30496
  0
POINT
  8
0
  6
CONTINUOUS
 62
     7
 10
-265.44977
 20
190.17297
  0
POINT
  8
0
  6
CONTINUOUS
 62
     7
 10
-177.15518
 20
192.43694
  0
POINT
  8
0
  6
CONTINUOUS
 62
     7
 10
65.08181
 20
193.9586
  0
POINT
  8
0
  6
CONTINUOUS
 62
     7
 10
-79.804733
 20
189.04099
  0
POINT
  8
0
  6
CONTINUOUS
 62
     7
 10
29.997522
 20
184.51306
  0
POINT
  8
0
  6
CONTINUOUS
 62
     7
 10
139.79977
 20
184.51306
  0
POINT
  8
0
  6
CONTINUOUS
 62
     7
 10
255.26193
 20
182.2491
  0
POINT
  8
0
  6
CONTINUOUS
 62
     7
 10
-346.95248
 20
41.883335
  0
POINT
  8
0
  6
CONTINUOUS
 62
     7
 10
-239.37718
 20
35.756695
  0
POINT
  8
0
  6
CONTINUOUS
 62
     7
 10
-122.82005
 20
36.223423
  0
POINT
  8
0
  6
CONTINUOUS
 62
     7
 10
-3.961937
 20
38.091442
  0
POINT
  8
0
  6
CONTINUOUS
 62
     7
 10
119.4241
 20
36.223423
  0
POINT
  8
0
  6
CONTINUOUS
 62
     7
 10
260.92184
 20
32.827477
  0
POINT
  8
0
  6
CONTINUOUS
 62
     7
 10
-341.86984
 20
-133.63556
  0
POINT
  8
0
  6
CONTINUOUS
 62
     7
 10
-341.86984
 20
-90.635544
  0
POINT
  8
0
  6
CONTINUOUS
 62
     7
 10
-341.86984
 20
-75.635544
  0
POINT
  8
0
  6
CONTINUOUS
 62
     7
 10
-218.54704
 20
-133.34402
  0
POINT
  8
0
  6
CONTINUOUS
 62
     7
 10
-218.54704
 20
-75.344025
  0
POINT
  8
0
  6
CONTINUOUS
 62
     7
 10
-80.142319
 20
-129.24315
  0
POINT
  8
0
  6
CONTINUOUS
 62
     7
 10
69.744751
 20
-128.19919
  0
POINT
  8
0
  6
CONTINUOUS
 62
     7
 10
-341.4671
 20
-420.67612
  0
POINT
  8
0
  6
CONTINUOUS
 62
     7
 10
-200.33235
 20
-420.18469
  0
POINT
  8
0
  6
CONTINUOUS
 62
     7
 10
-35.573776
 20
-417.99286
  0
POINT
  8
0
  6
CONTINUOUS
 62
     7
 10
129.44762
 20
-417.99286
  0
POINT
  8
0
  6
CONTINUOUS
 62
     7
 10
129.44762
 20
-368.49286
  0
POINT
  8
0
  6
CONTINUOUS
 62
     7
 10
129.44762
 20
-417.99286
  0
POINT
  8
0
  6
CONTINUOUS
 62
     7
 10
129.44762
 20
-353.49286
  0
POINT
  8
0
  6
CONTINUOUS
 62
     7
 10
309.22702
 20
-419.3345
  0
POINT
  8
0
  6
CONTINUOUS
 62
     7
 10
-316.64679
 20
-633.99646
  0
POINT
  8
0
  6
CONTINUOUS
 62
     7
 10
-116.85476
 20
-634.9798
  0
LINE
  8
0
  6
CONTINUOUS
 62
     7
 10
-367.98041
 20
220.30495
 11
-367.98041
 21
162.30498
  0
LINE
  8
0
  6
CENTER
 62
     7
 10
-370.98041
 20
191.30496
 11
-318.48041
 21
191.30496
  0
LINE
  8
0
  6
CENTER
 62
     7
 10
-351.48041
 20
223.30495
 11
-351.48041
 21
159.30498
  0
LINE
  8
0
  6
CONTINUOUS
 62
     7
 10
-334.98041
 20
208.30496
 11
-334.98041
 21
220.30495
  0
LINE
  8
0
  6
CONTINUOUS
 62
     7
 10
-331.48041
 20
204.80496
 11
-321.48041
 21
204.80496
  0
LINE
  8
0
  6
CONTINUOUS
 62
     7
 10
-331.48041
 20
177.80496
 11
-321.48041
 21
177.80496
  0
LINE
  8
0
  6
CONTINUOUS
 62
     7
 10
-334.98041
 20
174.30496
 11
-334.98041
 21
162.30498
  0
LINE
  8
0
  6
CONTINUOUS
 62
     7
 10
-367.98041
 20
162.30498
 11
-334.98041
 21
162.30498
  0
LINE
  8
0
  6
CONTINUOUS
 62
     7
 10
-367.98041
 20
220.30495
 11
-334.98041
 21
220.30495
  0
LINE
  8
0
  6
CONTINUOUS
 62
     7
 10
-321.48041
 20
204.80496
 11
-321.48041
 21
177.80496
  0
LINE
  8
0
  6
CONTINUOUS
 62
     7
 10
-355.98041
 20
191.75496
 11
-354.7478
 21
191.75496
  0
LINE
  8
0
  6
CONTINUOUS
 62
     7
 10
-355.98041
 20
190.85497
 11
-354.7478
 21
190.85497
  0
LINE
  8
0
  6
CONTINUOUS
 62
     7
 10
-348.21301
 20
190.85497
 11
-346.98041
 21
190.85497
  0
LINE
  8
0
  6
CONTINUOUS
 62
     7
 10
-348.21301
 20
191.75496
 11
-346.98041
 21
191.75496
  0
LINE
  8
0
  6
CONTINUOUS
 62
     7
 10
-353.84454
 20
190.85497
 11
-351.48041
 21
190.85497
  0
LINE
  8
0
  6
CONTINUOUS
 62
     7
 10
-353.84454
 20
191.75496
 11
-351.48041
 21
191.75496
  0
LINE
  8
0
  6
CENTER
 62
     7
 10
-265.44977
 20
225.17296
 11
-265.44977
 21
155.17299
  0
LINE
  8
0
  6
CENTER
 62
     7
 10
-288.94977
 20
190.17297
 11
-229.44977
 21
190.17297
  0
LINE
  8
0
  6
CONTINUOUS
 62
     7
 10
-285.94977
 20
222.17296
 11
-285.94977
 21
158.17299
  0
LINE
  8
0
  6
CONTINUOUS
 62
     7
 10
-244.94975
 20
173.17297
 11
-244.94975
 21
158.17299
  0
LINE
  8
0
  6
CONTINUOUS
 62
     7
 10
-241.44975
 20
176.67297
 11
-232.44977
 21
176.67297
  0
LINE
  8
0
  6
CONTINUOUS
 62
     7
 10
-241.44975
 20
203.67297
 11
-232.44977
 21
203.67297
  0
LINE
  8
0
  6
CONTINUOUS
 62
     7
 10
-244.94975
 20
207.17297
 11
-244.94975
 21
222.17296
  0
LINE
  8
0
  6
CONTINUOUS
 62
     7
 10
-285.94977
 20
158.17299
 11
-244.94975
 21
158.17299
  0
LINE
  8
0
  6
CONTINUOUS
 62
     7
 10
-285.94977
 20
222.17296
 11
-244.94975
 21
222.17296
  0
LINE
  8
0
  6
CONTINUOUS
 62
     7
 10
-232.44977
 20
203.67297
 11
-232.44977
 21
176.67297
  0
LINE
  8
0
  6
CONTINUOUS
 62
     7
 10
-271.44977
 20
190.77298
 11
-269.8063
 21
190.77298
  0
LINE
  8
0
  6
CONTINUOUS
 62
     7
 10
-271.44977
 20
189.57297
 11
-269.8063
 21
189.57297
  0
LINE
  8
0
  6
CONTINUOUS
 62
     7
 10
-261.09323
 20
189.57297
 11
-259.44977
 21
189.57297
  0
LINE
  8
0
  6
CONTINUOUS
 62
     7
 10
-261.09323
 20
190.77298
 11
-259.44977
 21
190.77298
  0
LINE
  8
0
  6
CONTINUOUS
 62
     7
 10
-268.60196
 20
189.57297
 11
-265.44977
 21
189.57297
  0
LINE
  8
0
  6
CONTINUOUS
 62
     7
 10
-268.60196
 20
190.77298
 11
-265.44977
 21
190.77298
  0
LINE
  8
0
  6
CONTINUOUS
 62
     7
 10
-197.65518
 20
226.43692
 11
-197.65518
 21
158.43695
  0
LINE
  8
0
  6
CONTINUOUS
 62
     7
 10
-156.65518
 20
172.43694
 11
-156.65518
 21
158.43695
  0
LINE
  8
0
  6
CENTER
 62
     7
 10
-177.15518
 20
229.43692
 11
-177.15518
 21
155.43695
  0
LINE
  8
0
  6
CONTINUOUS
 62
     7
 10
-153.15518
 20
175.93694
 11
-142.15518
 21
175.93694
  0
LINE
  8
0
  6
CONTINUOUS
 62
     7
 10
-153.15518
 20
208.93694
 11
-142.15518
 21
208.93694
  0
LINE
  8
0
  6
CONTINUOUS
 62
     7
 10
-156.65518
 20
212.43694
 11
-156.65518
 21
226.43692
  0
LINE
  8
0
  6
CENTER
 62
     7
 10
-200.65518
 20
192.43694
 11
-139.15518
 21
192.43694
  0
LINE
  8
0
  6
CONTINUOUS
 62
     7
 10
-197.65518
 20
226.43692
 11
-156.65518
 21
226.43692
  0
LINE
  8
0
  6
CONTINUOUS
 62
     7
 10
-197.65518
 20
158.43695
 11
-156.65518
 21
158.43695
  0
LINE
  8
0
  6
CONTINUOUS
 62
     7
 10
-142.15518
 20
208.93694
 11
-142.15518
 21
175.93694
  0
LINE
  8
0
  6
CONTINUOUS
 62
     7
 10
-183.15518
 20
193.03694
 11
-181.51172
 21
193.03694
  0
LINE
  8
0
  6
CONTINUOUS
 62
     7
 10
-183.15518
 20
191.83694
 11
-181.51172
 21
191.83694
  0
LINE
  8
0
  6
CONTINUOUS
 62
     7
 10
-172.79865
 20
191.83694
 11
-171.15518
 21
191.83694
  0
LINE
  8
0
  6
CONTINUOUS
 62
     7
 10
-172.79865
 20
193.03694
 11
-171.15518
 21
193.03694
  0
LINE
  8
0
  6
CONTINUOUS
 62
     7
 10
-180.30736
 20
191.83694
 11
-177.15518
 21
191.83694
  0
LINE
  8
0
  6
CONTINUOUS
 62
     7
 10
-180.30736
 20
193.03694
 11
-177.15518
 21
193.03694
  0
LINE
  8
0
  6
CONTINUOUS
 62
     7
 10
-104.80475
 20
227.04099
 11
-104.80475
 21
151.041
  0
LINE
  8
0
  6
CONTINUOUS
 62
     7
 10
-54.804729
 20
168.54099
 11
-54.804729
 21
151.041
  0
LINE
  8
0
  6
CONTINUOUS
 62
     7
 10
-50.804729
 20
172.54099
 11
-39.804729
 21
172.54099
  0
LINE
  8
0
  6
CONTINUOUS
 62
     7
 10
-50.804729
 20
205.541
 11
-39.804729
 21
205.541
  0
LINE
  8
0
  6
CONTINUOUS
 62
     7
 10
-54.804729
 20
209.541
 11
-54.804729
 21
227.04099
  0
LINE
  8
0
  6
CENTER
 62
     7
 10
-79.804733
 20
230.04099
 11
-79.804733
 21
148.041
  0
LINE
  8
0
  6
CENTER
 62
     7
 10
-107.80475
 20
189.04099
 11
-36.804729
 21
189.04099
  0
LINE
  8
0
  6
CONTINUOUS
 62
     7
 10
-104.80475
 20
227.04099
 11
-54.804729
 21
227.04099
  0
LINE
  8
0
  6
CONTINUOUS
 62
     7
 10
-104.80475
 20
151.041
 11
-54.804729
 21
151.041
  0
LINE
  8
0
  6
CONTINUOUS
 62
     7
 10
-39.804729
 20
205.541
 11
-39.804729
 21
172.54099
  0
LINE
  8
0
  6
CONTINUOUS
 62
     7
 10
4.9975529
 20
224.51305
 11
4.9975529
 21
144.51308
  0
LINE
  8
0
  6
CONTINUOUS
 62
     7
 10
54.997555
 20
160.01306
 11
54.997555
 21
144.51308
  0
LINE
  8
0
  6
CONTINUOUS
 62
     7
 10
58.997555
 20
164.01306
 11
71.997528
 21
164.01306
  0
LINE
  8
0
  6
CONTINUOUS
 62
     7
 10
58.997555
 20
205.01306
 11
71.997528
 21
205.01306
  0
LINE
  8
0
  6
CONTINUOUS
 62
     7
 10
54.997555
 20
209.01306
 11
54.997555
 21
224.51305
  0
LINE
  8
0
  6
CENTER
 62
     7
 10
1.997553
 20
184.51306
 11
74.997528
 21
184.51306
  0
LINE
  8
0
  6
CENTER
 62
     7
 10
29.997522
 20
227.51305
 11
29.997522
 21
141.51308
  0
LINE
  8
0
  6
CONTINUOUS
 62
     7
 10
4.9975529
 20
224.51305
 11
54.997555
 21
224.51305
  0
LINE
  8
0
  6
CONTINUOUS
 62
     7
 10
4.9975529
 20
144.51308
 11
54.997555
 21
144.51308
  0
LINE
  8
0
  6
CONTINUOUS
 62
     7
 10
71.997528
 20
205.01306
 11
71.997528
 21
164.01306
  0
LINE
  8
0
  6
CONTINUOUS
 62
     7
 10
-85.804733
 20
189.64099
 11
-84.16127
 21
189.64099
  0
LINE
  8
0
  6
CONTINUOUS
 62
     7
 10
-85.804733
 20
188.44099
 11
-84.16127
 21
188.44099
  0
LINE
  8
0
  6
CONTINUOUS
 62
     7
 10
-75.448196
 20
188.44099
 11
-73.804733
 21
188.44099
  0
LINE
  8
0
  6
CONTINUOUS
 62
     7
 10
-75.448196
 20
189.64099
 11
-73.804733
 21
189.64099
  0
LINE
  8
0
  6
CONTINUOUS
 62
     7
 10
-82.956909
 20
188.44099
 11
-79.804733
 21
188.44099
  0
LINE
  8
0
  6
CONTINUOUS
 62
     7
 10
-82.956909
 20
189.64099
 11
-79.804733
 21
189.64099
  0
LINE
  8
0
  6
CONTINUOUS
 62
     7
 10
23.997522
 20
185.11307
 11
25.640985
 21
185.11307
  0
LINE
  8
0
  6
CONTINUOUS
 62
     7
 10
23.997522
 20
183.91306
 11
25.640985
 21
183.91306
  0
LINE
  8
0
  6
CONTINUOUS
 62
     7
 10
34.354061
 20
183.91306
 11
35.997524
 21
183.91306
  0
LINE
  8
0
  6
CONTINUOUS
 62
     7
 10
34.354061
 20
185.11307
 11
35.997524
 21
185.11307
  0
LINE
  8
0
  6
CONTINUOUS
 62
     7
 10
26.845346
 20
183.91306
 11
29.997522
 21
183.91306
  0
LINE
  8
0
  6
CONTINUOUS
 62
     7
 10
26.845346
 20
185.11307
 11
29.997522
 21
185.11307
  0
LINE
  8
0
  6
CONTINUOUS
 62
     7
 10
111.7998
 20
219.51305
 11
111.7998
 21
149.51308
  0
LINE
  8
0
  6
CONTINUOUS
 62
     7
 10
167.79979
 20
167.01306
 11
167.79979
 21
149.51308
  0
LINE
  8
0
  6
CONTINUOUS
 62
     7
 10
171.79979
 20
171.01306
 11
181.79977
 21
171.01306
  0
LINE
  8
0
  6
CONTINUOUS
 62
     7
 10
171.79979
 20
198.01306
 11
181.79977
 21
198.01306
  0
LINE
  8
0
  6
CONTINUOUS
 62
     7
 10
167.79979
 20
202.01306
 11
167.79979
 21
219.51305
  0
LINE
  8
0
  6
CENTER
 62
     7
 10
108.7998
 20
184.51306
 11
184.79977
 21
184.51306
  0
LINE
  8
0
  6
CENTER
 62
     7
 10
139.79977
 20
222.51305
 11
139.79977
 21
146.51308
  0
LINE
  8
0
  6
CONTINUOUS
 62
     7
 10
111.7998
 20
149.51308
 11
167.79979
 21
149.51308
  0
LINE
  8
0
  6
CONTINUOUS
 62
     7
 10
111.7998
 20
219.51305
 11
167.79979
 21
219.51305
  0
LINE
  8
0
  6
CONTINUOUS
 62
     7
 10
181.79977
 20
198.01306
 11
181.79977
 21
171.01306
  0
LINE
  8
0
  6
CONTINUOUS
 62
     7
 10
227.26196
 20
220.24908
 11
227.26196
 21
144.24911
  0
LINE
  8
0
  6
CENTER
 62
     7
 10
255.26193
 20
223.24908
 11
255.26193
 21
141.24911
  0
LINE
  8
0
  6
CONTINUOUS
 62
     7
 10
283.26196
 20
160.7491
 11
283.26196
 21
144.24911
  0
LINE
  8
0
  6
CONTINUOUS
 62
     7
 10
288.26196
 20
165.7491
 11
298.26193
 21
165.7491
  0
LINE
  8
0
  6
CONTINUOUS
 62
     7
 10
288.26196
 20
198.7491
 11
298.26193
 21
198.7491
  0
LINE
  8
0
  6
CONTINUOUS
 62
     7
 10
283.26196
 20
203.7491
 11
283.26196
 21
220.24908
  0
LINE
  8
0
  6
CENTER
 62
     7
 10
224.26196
 20
182.2491
 11
301.26193
 21
182.2491
  0
LINE
  8
0
  6
CONTINUOUS
 62
     7
 10
227.26196
 20
220.24908
 11
283.26196
 21
220.24908
  0
LINE
  8
0
  6
CONTINUOUS
 62
     7
 10
227.26196
 20
144.24911
 11
283.26196
 21
144.24911
  0
LINE
  8
0
  6
CONTINUOUS
 62
     7
 10
298.26193
 20
198.7491
 11
298.26193
 21
165.7491
  0
LINE
  8
0
  6
CONTINUOUS
 62
     7
 10
-374.95245
 20
82.883316
 11
-374.95245
 21
0.88334858
  0
LINE
  8
0
  6
CONTINUOUS
 62
     7
 10
-318.95245
 20
16.383333
 11
-318.95245
 21
0.88334858
  0
LINE
  8
0
  6
CONTINUOUS
 62
     7
 10
-313.95245
 20
21.383333
 11
-301.95248
 21
21.383333
  0
LINE
  8
0
  6
CONTINUOUS
 62
     7
 10
-313.95245
 20
62.383335
 11
-301.95248
 21
62.383335
  0
LINE
  8
0
  6
CONTINUOUS
 62
     7
 10
-318.95245
 20
67.383331
 11
-318.95245
 21
82.883316
  0
LINE
  8
0
  6
CENTER
 62
     7
 10
-377.95245
 20
41.883335
 11
-298.95248
 21
41.883335
  0
LINE
  8
0
  6
CENTER
 62
     7
 10
-346.95248
 20
85.883316
 11
-346.95248
 21
-2.1166513
  0
LINE
  8
0
  6
CONTINUOUS
 62
     7
 10
-374.95245
 20
0.88334858
 11
-318.95245
 21
0.88334858
  0
LINE
  8
0
  6
CONTINUOUS
 62
     7
 10
-374.95245
 20
82.883316
 11
-318.95245
 21
82.883316
  0
LINE
  8
0
  6
CONTINUOUS
 62
     7
 10
-301.95248
 20
62.383335
 11
-301.95248
 21
21.383333
  0
LINE
  8
0
  6
CONTINUOUS
 62
     7
 10
-267.37714
 20
80.756683
 11
-267.37714
 21
-9.243289
  0
LINE
  8
0
  6
CONTINUOUS
 62
     7
 10
-211.37717
 20
5.7566957
 11
-211.37717
 21
-9.243289
  0
LINE
  8
0
  6
CONTINUOUS
 62
     7
 10
-206.37717
 20
10.756696
 11
-191.37718
 21
10.756696
  0
LINE
  8
0
  6
CONTINUOUS
 62
     7
 10
-206.37717
 20
60.756695
 11
-191.37718
 21
60.756695
  0
LINE
  8
0
  6
CONTINUOUS
 62
     7
 10
-211.37717
 20
65.756699
 11
-211.37717
 21
80.756683
  0
LINE
  8
0
  6
CENTER
 62
     7
 10
-239.37718
 20
83.756683
 11
-239.37718
 21
-12.243289
  0
LINE
  8
0
  6
CENTER
 62
     7
 10
-270.37714
 20
35.756695
 11
-188.37718
 21
35.756695
  0
LINE
  8
0
  6
CONTINUOUS
 62
     7
 10
-267.37714
 20
80.756683
 11
-211.37717
 21
80.756683
  0
LINE
  8
0
  6
CONTINUOUS
 62
     7
 10
-267.37714
 20
-9.243289
 11
-211.37717
 21
-9.243289
  0
LINE
  8
0
  6
CONTINUOUS
 62
     7
 10
-191.37718
 20
60.756695
 11
-191.37718
 21
10.756696
  0
LINE
  8
0
  6
CONTINUOUS
 62
     7
 10
133.79977
 20
185.11307
 11
135.44324
 21
185.11307
  0
LINE
  8
0
  6
CONTINUOUS
 62
     7
 10
133.79977
 20
183.91306
 11
135.44324
 21
183.91306
  0
LINE
  8
0
  6
CONTINUOUS
 62
     7
 10
144.15631
 20
183.91306
 11
145.79977
 21
183.91306
  0
LINE
  8
0
  6
CONTINUOUS
 62
     7
 10
144.15631
 20
185.11307
 11
145.79977
 21
185.11307
  0
LINE
  8
0
  6
CONTINUOUS
 62
     7
 10
136.6476
 20
183.91306
 11
139.79977
 21
183.91306
  0
LINE
  8
0
  6
CONTINUOUS
 62
     7
 10
136.6476
 20
185.11307
 11
139.79977
 21
185.11307
  0
LINE
  8
0
  6
CONTINUOUS
 62
     7
 10
249.26193
 20
182.84911
 11
250.90541
 21
182.84911
  0
LINE
  8
0
  6
CONTINUOUS
 62
     7
 10
249.26193
 20
181.64909
 11
250.9054
 21
181.64909
  0
LINE
  8
0
  6
CONTINUOUS
 62
     7
 10
259.61847
 20
181.64909
 11
261.26193
 21
181.64909
  0
LINE
  8
0
  6
CONTINUOUS
 62
     7
 10
259.61847
 20
182.84911
 11
261.26193
 21
182.84911
  0
LINE
  8
0
  6
CONTINUOUS
 62
     7
 10
252.10977
 20
181.64909
 11
255.26193
 21
181.64909
  0
LINE
  8
0
  6
CONTINUOUS
 62
     7
 10
252.10977
 20
182.84911
 11
255.26193
 21
182.84911
  0
LINE
  8
0
  6
CONTINUOUS
 62
     7
 10
-352.95248
 20
42.483334
 11
-351.30902
 21
42.483334
  0
LINE
  8
0
  6
CONTINUOUS
 62
     7
 10
-352.95248
 20
41.283333
 11
-351.30902
 21
41.283333
  0
LINE
  8
0
  6
CONTINUOUS
 62
     7
 10
-342.59595
 20
41.283333
 11
-340.95248
 21
41.283333
  0
LINE
  8
0
  6
CONTINUOUS
 62
     7
 10
-342.59595
 20
42.483334
 11
-340.95248
 21
42.483334
  0
LINE
  8
0
  6
CONTINUOUS
 62
     7
 10
-350.10464
 20
41.283333
 11
-346.95248
 21
41.283333
  0
LINE
  8
0
  6
CONTINUOUS
 62
     7
 10
-350.10464
 20
42.483334
 11
-346.95248
 21
42.483334
  0
LINE
  8
0
  6
CONTINUOUS
 62
     7
 10
-245.37718
 20
36.356697
 11
-243.73372
 21
36.356697
  0
LINE
  8
0
  6
CONTINUOUS
 62
     7
 10
-245.37718
 20
35.156696
 11
-243.73372
 21
35.156696
  0
LINE
  8
0
  6
CONTINUOUS
 62
     7
 10
-235.02065
 20
35.156696
 11
-233.37718
 21
35.156696
  0
LINE
  8
0
  6
CONTINUOUS
 62
     7
 10
-235.02065
 20
36.356697
 11
-233.37718
 21
36.356697
  0
LINE
  8
0
  6
CONTINUOUS
 62
     7
 10
-242.52936
 20
35.156696
 11
-239.37718
 21
35.156696
  0
LINE
  8
0
  6
CONTINUOUS
 62
     7
 10
-242.52936
 20
36.356697
 11
-239.37718
 21
36.356697
  0
LINE
  8
0
  6
CONTINUOUS
 62
     7
 10
-157.32001
 20
77.223412
 11
-157.32001
 21
-4.7765536
  0
LINE
  8
0
  6
CONTINUOUS
 62
     7
 10
-88.320023
 20
13.723431
 11
-88.320023
 21
-4.7765536
  0
LINE
  8
0
  6
CONTINUOUS
 62
     7
 10
-82.320023
 20
19.723431
 11
-73.820045
 21
19.723431
  0
LINE
  8
0
  6
CONTINUOUS
 62
     7
 10
-82.320023
 20
52.723423
 11
-73.820045
 21
52.723423
  0
LINE
  8
0
  6
CONTINUOUS
 62
     7
 10
-88.320023
 20
58.723423
 11
-88.320023
 21
77.223412
  0
LINE
  8
0
  6
CENTER
 62
     7
 10
-122.82005
 20
80.223412
 11
-122.82005
 21
-7.7765536
  0
LINE
  8
0
  6
CENTER
 62
     7
 10
-160.32001
 20
36.223423
 11
-70.820038
 21
36.223423
  0
LINE
  8
0
  6
CONTINUOUS
 62
     7
 10
-73.820038
 20
52.723423
 11
-73.820038
 21
19.723431
  0
LINE
  8
0
  6
CONTINUOUS
 62
     7
 10
-157.32001
 20
-4.7765536
 11
-88.320023
 21
-4.7765536
  0
LINE
  8
0
  6
CONTINUOUS
 62
     7
 10
-157.32001
 20
77.223412
 11
-88.320023
 21
77.223412
  0
LINE
  8
0
  6
CONTINUOUS
 62
     7
 10
-38.461937
 20
82.091423
 11
-38.461937
 21
-5.9085431
  0
LINE
  8
0
  6
CONTINUOUS
 62
     7
 10
30.538071
 20
11.591441
 11
30.538071
 21
-5.9085431
  0
LINE
  8
0
  6
CONTINUOUS
 62
     7
 10
36.538071
 20
17.591442
 11
47.038063
 21
17.591442
  0
LINE
  8
0
  6
CONTINUOUS
 62
     7
 10
36.538071
 20
58.591442
 11
47.038063
 21
58.591442
  0
LINE
  8
0
  6
CONTINUOUS
 62
     7
 10
30.538071
 20
64.591438
 11
30.538071
 21
82.091423
  0
LINE
  8
0
  6
CENTER
 62
     7
 10
-3.961937
 20
85.091431
 11
-3.961937
 21
-8.9085436
  0
LINE
  8
0
  6
CENTER
 62
     7
 10
-41.461937
 20
38.091442
 11
50.038067
 21
38.091442
  0
LINE
  8
0
  6
CONTINUOUS
 62
     7
 10
-38.461937
 20
82.091431
 11
30.538071
 21
82.091431
  0
LINE
  8
0
  6
CONTINUOUS
 62
     7
 10
-38.461937
 20
-5.9085431
 11
30.538071
 21
-5.9085431
  0
LINE
  8
0
  6
CONTINUOUS
 62
     7
 10
47.038067
 20
58.591442
 11
47.038067
 21
17.591442
  0
LINE
  8
0
  6
CENTER
 62
     7
 10
119.4241
 20
87.22345
 11
119.4241
 21
-14.776592
  0
LINE
  8
0
  6
CONTINUOUS
 62
     7
 10
84.924103
 20
-11.776577
 11
84.924103
 21
84.223427
  0
LINE
  8
0
  6
CENTER
 62
     7
 10
176.4241
 20
36.223423
 11
81.924103
 21
36.223423
  0
LINE
  8
0
  6
CONTINUOUS
 62
     7
 10
153.9241
 20
5.2234235
 11
153.9241
 21
-11.776577
  0
LINE
  8
0
  6
CONTINUOUS
 62
     7
 10
159.92409
 20
11.223423
 11
173.42409
 21
11.223423
  0
LINE
  8
0
  6
CONTINUOUS
 62
     7
 10
159.92409
 20
61.223423
 11
173.42409
 21
61.223423
  0
LINE
  8
0
  6
CONTINUOUS
 62
     7
 10
153.9241
 20
67.223427
 11
153.9241
 21
84.223427
  0
LINE
  8
0
  6
CONTINUOUS
 62
     7
 10
153.9241
 20
84.22345
 11
84.924103
 21
84.22345
  0
LINE
  8
0
  6
CONTINUOUS
 62
     7
 10
153.9241
 20
-11.776592
 11
84.924103
 21
-11.776592
  0
LINE
  8
0
  6
CONTINUOUS
 62
     7
 10
173.4241
 20
61.223423
 11
173.4241
 21
11.223423
  0
LINE
  8
0
  6
CONTINUOUS
 62
     7
 10
226.42184
 20
-19.172522
 11
226.42184
 21
84.827477
  0
LINE
  8
0
  6
CONTINUOUS
 62
     7
 10
295.42184
 20
-1.1725378
 11
295.42184
 21
-19.172522
  0
LINE
  8
0
  6
CONTINUOUS
 62
     7
 10
301.42184
 20
4.8274622
 11
315.92184
 21
4.8274622
  0
LINE
  8
0
  6
CONTINUOUS
 62
     7
 10
301.42184
 20
60.827415
 11
315.92184
 21
60.827415
  0
LINE
  8
0
  6
CONTINUOUS
 62
     7
 10
295.42184
 20
66.827415
 11
295.42184
 21
84.827477
  0
LINE
  8
0
  6
CENTER
 62
     7
 10
260.92184
 20
87.827477
 11
260.92184
 21
-22.172506
  0
LINE
  8
0
  6
CENTER
 62
     7
 10
318.92188
 20
32.827477
 11
223.42184
 21
32.827477
  0
LINE
  8
0
  6
CONTINUOUS
 62
     7
 10
295.42184
 20
84.827477
 11
226.42184
 21
84.827477
  0
LINE
  8
0
  6
CONTINUOUS
 62
     7
 10
295.42184
 20
-19.172506
 11
226.42184
 21
-19.172506
  0
LINE
  8
0
  6
CONTINUOUS
 62
     7
 10
315.92188
 20
60.827415
 11
315.92188
 21
4.8274622
  0
LINE
  8
0
  6
CONTINUOUS
 62
     7
 10
-130.32004
 20
36.973423
 11
-128.2657
 21
36.973423
  0
LINE
  8
0
  6
CONTINUOUS
 62
     7
 10
-130.32004
 20
35.473423
 11
-128.2657
 21
35.473423
  0
LINE
  8
0
  6
CONTINUOUS
 62
     7
 10
-117.37438
 20
35.473423
 11
-115.32005
 21
35.473423
  0
LINE
  8
0
  6
CONTINUOUS
 62
     7
 10
-117.37437
 20
36.973423
 11
-115.32005
 21
36.973423
  0
LINE
  8
0
  6
CONTINUOUS
 62
     7
 10
-126.76026
 20
35.473423
 11
-122.82005
 21
35.473423
  0
LINE
  8
0
  6
CONTINUOUS
 62
     7
 10
-126.76026
 20
36.973423
 11
-122.82005
 21
36.973423
  0
LINE
  8
0
  6
CONTINUOUS
 62
     7
 10
-11.461937
 20
38.841442
 11
-9.4076042
 21
38.841442
  0
LINE
  8
0
  6
CONTINUOUS
 62
     7
 10
-11.461937
 20
37.341442
 11
-9.4076042
 21
37.341442
  0
LINE
  8
0
  6
CONTINUOUS
 62
     7
 10
1.4837303
 20
37.341442
 11
3.538063
 21
37.341442
  0
LINE
  8
0
  6
CONTINUOUS
 62
     7
 10
1.4837303
 20
38.841442
 11
3.538063
 21
38.841442
  0
LINE
  8
0
  6
CONTINUOUS
 62
     7
 10
-7.902153
 20
37.341442
 11
-3.961937
 21
37.341442
  0
LINE
  8
0
  6
CONTINUOUS
 62
     7
 10
-7.902153
 20
38.841442
 11
-3.961937
 21
38.841442
  0
LINE
  8
0
  6
CONTINUOUS
 62
     7
 10
111.9241
 20
36.973423
 11
113.97844
 21
36.973423
  0
LINE
  8
0
  6
CONTINUOUS
 62
     7
 10
111.9241
 20
35.473423
 11
113.97843
 21
35.473423
  0
LINE
  8
0
  6
CONTINUOUS
 62
     7
 10
124.86977
 20
35.473423
 11
126.9241
 21
35.473423
  0
LINE
  8
0
  6
CONTINUOUS
 62
     7
 10
124.86977
 20
36.973423
 11
126.9241
 21
36.973423
  0
LINE
  8
0
  6
CONTINUOUS
 62
     7
 10
115.48389
 20
35.473423
 11
119.4241
 21
35.473423
  0
LINE
  8
0
  6
CONTINUOUS
 62
     7
 10
115.48389
 20
36.973423
 11
119.4241
 21
36.973423
  0
LINE
  8
0
  6
CONTINUOUS
 62
     7
 10
253.42184
 20
33.577477
 11
255.47618
 21
33.577477
  0
LINE
  8
0
  6
CONTINUOUS
 62
     7
 10
253.42184
 20
32.077477
 11
255.47618
 21
32.077477
  0
LINE
  8
0
  6
CONTINUOUS
 62
     7
 10
266.36752
 20
32.077477
 11
268.42184
 21
32.077477
  0
LINE
  8
0
  6
CONTINUOUS
 62
     7
 10
266.36752
 20
33.577477
 11
268.42184
 21
33.577477
  0
LINE
  8
0
  6
CONTINUOUS
 62
     7
 10
256.98163
 20
32.077477
 11
260.92184
 21
32.077477
  0
LINE
  8
0
  6
CONTINUOUS
 62
     7
 10
256.98163
 20
33.577477
 11
260.92184
 21
33.577477
  0
LINE
  8
0
  6
CONTINUOUS
 62
     7
 10
-309.86984
 20
-179.13556
 11
-309.86984
 21
-88.135544
  0
LINE
  8
0
  6
CONTINUOUS
 62
     7
 10
-373.86984
 20
-179.13556
 11
-373.86984
 21
-88.135544
  0
LINE
  8
0
  6
CONTINUOUS
 62
     7
 10
-373.86984
 20
-88.135544
 11
-385.86984
 21
-88.135544
  0
LINE
  8
0
  6
CENTER
 62
     7
 10
-341.86984
 20
-195.11136
 11
-341.86984
 21
-83.88327
  0
LINE
  8
0
  6
CENTER
 62
     7
 10
-290.11252
 20
-133.63556
 11
-393.86984
 21
-133.63556
  0
LINE
  8
0
  6
CONTINUOUS
 62
     7
 10
-309.86984
 20
-179.13556
 11
-297.86984
 21
-179.13556
  0
LINE
  8
0
  6
CONTINUOUS
 62
     7
 10
-297.86984
 20
-179.13556
 11
-297.86984
 21
-88.135544
  0
LINE
  8
0
  6
CONTINUOUS
 62
     7
 10
-309.86984
 20
-88.135544
 11
-297.86984
 21
-88.135544
  0
LINE
  8
0
  6
CONTINUOUS
 62
     7
 10
-368.99646
 20
-90.635544
 11
-314.74326
 21
-90.635544
  0
LINE
  8
0
  6
CONTINUOUS
 62
     7
 10
-385.86984
 20
-179.13556
 11
-385.86984
 21
-88.135544
  0
LINE
  8
0
  6
CONTINUOUS
 62
     7
 10
-373.86984
 20
-179.13556
 11
-385.86984
 21
-179.13556
  0
LINE
  8
0
  6
CONTINUOUS
 62
     7
 10
-364.36987
 20
-176.63556
 11
-368.99646
 21
-176.63556
  0
LINE
  8
0
  6
CONTINUOUS
 62
     7
 10
-358.36987
 20
-182.63556
 11
-358.36987
 21
-183.03748
  0
LINE
  8
0
  6
CONTINUOUS
 62
     7
 10
-359.86987
 20
-185.63556
 11
-359.86987
 21
-191.63556
  0
LINE
  8
0
  6
CONTINUOUS
 62
     7
 10
-323.86987
 20
-185.63556
 11
-359.86987
 21
-185.63556
  0
LINE
  8
0
  6
CONTINUOUS
 62
     7
 10
-323.86987
 20
-191.63556
 11
-359.86987
 21
-191.63556
  0
LINE
  8
0
  6
CONTINUOUS
 62
     7
 10
-323.86987
 20
-185.63556
 11
-323.86987
 21
-191.63556
  0
LINE
  8
0
  6
CONTINUOUS
 62
     7
 10
-325.36987
 20
-182.63556
 11
-325.36987
 21
-183.03748
  0
LINE
  8
0
  6
CONTINUOUS
 62
     7
 10
-319.36987
 20
-176.63556
 11
-314.74326
 21
-176.63556
  0
LINE
  8
0
  6
CONTINUOUS
 62
     7
 10
-170.54704
 20
-178.84402
 11
-170.54704
 21
-87.844025
  0
LINE
  8
0
  6
CONTINUOUS
 62
     7
 10
-182.54704
 20
-87.844025
 11
-170.54704
 21
-87.844025
  0
LINE
  8
0
  6
CONTINUOUS
 62
     7
 10
-182.54704
 20
-178.84402
 11
-182.54704
 21
-87.844025
  0
LINE
  8
0
  6
CONTINUOUS
 62
     7
 10
-249.67365
 20
-90.344025
 11
-187.42046
 21
-90.344025
  0
LINE
  8
0
  6
CONTINUOUS
 62
     7
 10
-254.54704
 20
-178.84402
 11
-254.54704
 21
-87.844025
  0
LINE
  8
0
  6
CONTINUOUS
 62
     7
 10
-254.54704
 20
-87.844025
 11
-266.54703
 21
-87.844025
  0
LINE
  8
0
  6
CONTINUOUS
 62
     7
 10
-266.54703
 20
-178.84402
 11
-266.54703
 21
-87.844025
  0
LINE
  8
0
  6
CONTINUOUS
 62
     7
 10
-254.54704
 20
-178.84402
 11
-266.54703
 21
-178.84402
  0
LINE
  8
0
  6
CONTINUOUS
 62
     7
 10
-245.04706
 20
-176.34402
 11
-249.67365
 21
-176.34402
  0
LINE
  8
0
  6
CONTINUOUS
 62
     7
 10
-239.04706
 20
-182.34402
 11
-239.04706
 21
-183.74594
  0
LINE
  8
0
  6
CONTINUOUS
 62
     7
 10
-240.54706
 20
-186.34402
 11
-240.54706
 21
-193.34402
  0
LINE
  8
0
  6
CONTINUOUS
 62
     7
 10
-196.54707
 20
-193.34402
 11
-240.54706
 21
-193.34402
  0
LINE
  8
0
  6
CONTINUOUS
 62
     7
 10
-196.54707
 20
-186.34402
 11
-240.54706
 21
-186.34402
  0
LINE
  8
0
  6
CONTINUOUS
 62
     7
 10
-196.54707
 20
-186.34402
 11
-196.54707
 21
-193.34402
  0
LINE
  8
0
  6
CONTINUOUS
 62
     7
 10
-198.04707
 20
-182.34402
 11
-198.04707
 21
-183.74594
  0
LINE
  8
0
  6
CONTINUOUS
 62
     7
 10
-192.04707
 20
-176.34402
 11
-187.42046
 21
-176.34402
  0
LINE
  8
0
  6
CONTINUOUS
 62
     7
 10
-182.54704
 20
-178.84402
 11
-170.54704
 21
-178.84402
  0
LINE
  8
0
  6
CENTER
 62
     7
 10
-218.54704
 20
-197.88855
 11
-218.54704
 21
-83.591751
  0
LINE
  8
0
  6
CENTER
 62
     7
 10
-162.92
 20
-133.34402
 11
-276.01828
 21
-133.34402
  0
LINE
  8
0
  6
CONTINUOUS
 62
     7
 10
-341.11984
 20
-126.13555
 11
-341.11984
 21
-128.18988
  0
LINE
  8
0
  6
CONTINUOUS
 62
     7
 10
-342.61984
 20
-126.13555
 11
-342.61984
 21
-128.18988
  0
LINE
  8
0
  6
CONTINUOUS
 62
     7
 10
-342.61984
 20
-139.08122
 11
-342.61984
 21
-141.13556
  0
LINE
  8
0
  6
CONTINUOUS
 62
     7
 10
-341.11984
 20
-139.08122
 11
-341.11984
 21
-141.13556
  0
LINE
  8
0
  6
CONTINUOUS
 62
     7
 10
-342.61984
 20
-129.69534
 11
-342.61984
 21
-133.63556
  0
LINE
  8
0
  6
CONTINUOUS
 62
     7
 10
-341.11984
 20
-129.69534
 11
-341.11984
 21
-133.63556
  0
LINE
  8
0
  6
CONTINUOUS
 62
     7
 10
-217.79704
 20
-125.84402
 11
-217.79704
 21
-127.89836
  0
LINE
  8
0
  6
CONTINUOUS
 62
     7
 10
-219.29704
 20
-125.84402
 11
-219.29704
 21
-127.89836
  0
LINE
  8
0
  6
CONTINUOUS
 62
     7
 10
-219.29704
 20
-138.78969
 11
-219.29704
 21
-140.84402
  0
LINE
  8
0
  6
CONTINUOUS
 62
     7
 10
-217.79704
 20
-138.78969
 11
-217.79704
 21
-140.84402
  0
LINE
  8
0
  6
CONTINUOUS
 62
     7
 10
-219.29704
 20
-129.40381
 11
-219.29704
 21
-133.34402
  0
LINE
  8
0
  6
CONTINUOUS
 62
     7
 10
-217.79704
 20
-129.40381
 11
-217.79704
 21
-133.34402
  0
LINE
  8
0
  6
CONTINUOUS
 62
     7
 10
-37.142319
 20
-83.743141
 11
-25.142317
 21
-83.743141
  0
LINE
  8
0
  6
CONTINUOUS
 62
     7
 10
-25.142317
 20
-174.74315
 11
-25.142317
 21
-83.743141
  0
LINE
  8
0
  6
CONTINUOUS
 62
     7
 10
-37.142319
 20
-174.74315
 11
-37.142319
 21
-83.743141
  0
LINE
  8
0
  6
CONTINUOUS
 62
     7
 10
-118.26892
 20
-86.243141
 11
-42.015732
 21
-86.243141
  0
LINE
  8
0
  6
CONTINUOUS
 62
     7
 10
-123.14232
 20
-174.74315
 11
-123.14232
 21
-83.743141
  0
LINE
  8
0
  6
CONTINUOUS
 62
     7
 10
-123.14232
 20
-83.743141
 11
-135.14232
 21
-83.743141
  0
LINE
  8
0
  6
CONTINUOUS
 62
     7
 10
-135.14232
 20
-174.74315
 11
-135.14232
 21
-83.743141
  0
LINE
  8
0
  6
CENTER
 62
     7
 10
-80.142319
 20
-196.27646
 11
-80.142319
 21
-79.490868
  0
LINE
  8
0
  6
CENTER
 62
     7
 10
-21.407515
 20
-129.24315
 11
-143.14232
 21
-129.24315
  0
LINE
  8
0
  6
CONTINUOUS
 62
     7
 10
-123.14232
 20
-174.74315
 11
-135.14232
 21
-174.74315
  0
LINE
  8
0
  6
CONTINUOUS
 62
     7
 10
-114.14233
 20
-172.24315
 11
-118.26892
 21
-172.24315
  0
LINE
  8
0
  6
CONTINUOUS
 62
     7
 10
-108.14233
 20
-178.24315
 11
-108.14233
 21
-178.77904
  0
LINE
  8
0
  6
CONTINUOUS
 62
     7
 10
-110.14233
 20
-182.24315
 11
-110.14233
 21
-191.24315
  0
LINE
  8
0
  6
CONTINUOUS
 62
     7
 10
-50.142349
 20
-182.77904
 11
-110.14233
 21
-182.77904
  0
LINE
  8
0
  6
CONTINUOUS
 62
     7
 10
-50.142349
 20
-191.24315
 11
-110.14233
 21
-191.24315
  0
LINE
  8
0
  6
CONTINUOUS
 62
     7
 10
-50.142349
 20
-182.24315
 11
-50.142349
 21
-191.24315
  0
LINE
  8
0
  6
CONTINUOUS
 62
     7
 10
-52.142349
 20
-178.24315
 11
-52.142349
 21
-178.77904
  0
LINE
  8
0
  6
CONTINUOUS
 62
     7
 10
-46.142349
 20
-172.24315
 11
-42.015732
 21
-172.24315
  0
LINE
  8
0
  6
CONTINUOUS
 62
     7
 10
-37.142319
 20
-174.74315
 11
-25.142317
 21
-174.74315
  0
LINE
  8
0
  6
CONTINUOUS
 62
     7
 10
-79.392319
 20
-121.74314
 11
-79.392319
 21
-123.79748
  0
LINE
  8
0
  6
CONTINUOUS
 62
     7
 10
-80.892319
 20
-121.74314
 11
-80.892319
 21
-123.79748
  0
LINE
  8
0
  6
CONTINUOUS
 62
     7
 10
-80.892319
 20
-134.68881
 11
-80.892319
 21
-136.74315
  0
LINE
  8
0
  6
CONTINUOUS
 62
     7
 10
-79.392319
 20
-134.68881
 11
-79.392319
 21
-136.74315
  0
LINE
  8
0
  6
CONTINUOUS
 62
     7
 10
-80.892319
 20
-125.30293
 11
-80.892319
 21
-129.24315
  0
LINE
  8
0
  6
CONTINUOUS
 62
     7
 10
-79.392319
 20
-125.30293
 11
-79.392319
 21
-129.24315
  0
LINE
  8
0
  6
CONTINUOUS
 62
     7
 10
117.74475
 20
-173.69919
 11
117.74475
 21
-82.699188
  0
LINE
  8
0
  6
CONTINUOUS
 62
     7
 10
129.74475
 20
-173.69919
 11
129.74475
 21
-82.699188
  0
LINE
  8
0
  6
CONTINUOUS
 62
     7
 10
117.74475
 20
-82.699188
 11
129.74475
 21
-82.699188
  0
LINE
  8
0
  6
CONTINUOUS
 62
     7
 10
26.618151
 20
-85.199196
 11
112.87134
 21
-85.199196
  0
LINE
  8
0
  6
CENTER
 62
     7
 10
69.744751
 20
-198.22365
 11
69.744751
 21
-78.446915
  0
LINE
  8
0
  6
CONTINUOUS
 62
     7
 10
21.744753
 20
-173.69919
 11
21.744753
 21
-82.699188
  0
LINE
  8
0
  6
CONTINUOUS
 62
     7
 10
21.744753
 20
-82.699188
 11
9.7447538
 21
-82.699188
  0
LINE
  8
0
  6
CONTINUOUS
 62
     7
 10
9.7447538
 20
-173.69919
 11
9.7447538
 21
-82.699188
  0
LINE
  8
0
  6
CONTINUOUS
 62
     7
 10
21.744753
 20
-173.69919
 11
9.7447538
 21
-173.69919
  0
LINE
  8
0
  6
CONTINUOUS
 62
     7
 10
29.244738
 20
-171.19919
 11
26.618151
 21
-171.19919
  0
LINE
  8
0
  6
CONTINUOUS
 62
     7
 10
35.24474
 20
-177.19919
 11
35.24474
 21
-178.73508
  0
LINE
  8
0
  6
CONTINUOUS
 62
     7
 10
106.24472
 20
-182.73509
 11
33.24474
 21
-182.73509
  0
LINE
  8
0
  6
CONTINUOUS
 62
     7
 10
33.24474
 20
-182.1992
 11
33.24474
 21
-193.1992
  0
LINE
  8
0
  6
CONTINUOUS
 62
     7
 10
106.24472
 20
-193.1992
 11
33.24474
 21
-193.1992
  0
LINE
  8
0
  6
CONTINUOUS
 62
     7
 10
106.24472
 20
-182.1992
 11
106.24472
 21
-193.1992
  0
LINE
  8
0
  6
CONTINUOUS
 62
     7
 10
104.24472
 20
-177.19919
 11
104.24472
 21
-178.73508
  0
LINE
  8
0
  6
CONTINUOUS
 62
     7
 10
110.24472
 20
-171.19919
 11
112.87134
 21
-171.19919
  0
LINE
  8
0
  6
CONTINUOUS
 62
     7
 10
117.74475
 20
-173.69919
 11
129.74475
 21
-173.69919
  0
LINE
  8
0
  6
CENTER
 62
     7
 10
134.74475
 20
-128.19919
 11
-0.25524628
 21
-128.19919
  0
LINE
  8
0
  6
CONTINUOUS
 62
     7
 10
70.494751
 20
-120.69919
 11
70.494751
 21
-122.75352
  0
LINE
  8
0
  6
CONTINUOUS
 62
     7
 10
68.994751
 20
-120.69919
 11
68.994751
 21
-122.75352
  0
LINE
  8
0
  6
CONTINUOUS
 62
     7
 10
68.994751
 20
-133.64487
 11
68.994751
 21
-135.69919
  0
LINE
  8
0
  6
CONTINUOUS
 62
     7
 10
70.494751
 20
-133.64487
 11
70.494751
 21
-135.69919
  0
LINE
  8
0
  6
CONTINUOUS
 62
     7
 10
68.994751
 20
-124.25897
 11
68.994751
 21
-128.19919
  0
LINE
  8
0
  6
CONTINUOUS
 62
     7
 10
70.494751
 20
-124.25897
 11
70.494751
 21
-128.19919
  0
LINE
  8
0
  6
CONTINUOUS
 62
     7
 10
-295.4671
 20
-473.17615
 11
-295.4671
 21
-368.17612
  0
LINE
  8
0
  6
CONTINUOUS
 62
     7
 10
-308.4671
 20
-368.17612
 11
-295.4671
 21
-368.17612
  0
LINE
  8
0
  6
CONTINUOUS
 62
     7
 10
-308.4671
 20
-473.17615
 11
-308.4671
 21
-368.17612
  0
LINE
  8
0
  6
CONTINUOUS
 62
     7
 10
-367.32565
 20
-371.17612
 11
-315.60852
 21
-371.17612
  0
LINE
  8
0
  6
CENTER
 62
     7
 10
-341.4671
 20
-490.70059
 11
-341.4671
 21
-366.55975
  0
LINE
  8
0
  6
CONTINUOUS
 62
     7
 10
-374.4671
 20
-473.17615
 11
-387.4671
 21
-473.17615
  0
LINE
  8
0
  6
CONTINUOUS
 62
     7
 10
-374.4671
 20
-368.17612
 11
-387.4671
 21
-368.17612
  0
LINE
  8
0
  6
CONTINUOUS
 62
     7
 10
-387.4671
 20
-473.17615
 11
-387.4671
 21
-368.17612
  0
LINE
  8
0
  6
CENTER
 62
     7
 10
-287.42035
 20
-420.67612
 11
-397.8671
 21
-420.67612
  0
LINE
  8
0
  6
CONTINUOUS
 62
     7
 10
-374.4671
 20
-473.17615
 11
-374.4671
 21
-368.17612
  0
LINE
  8
0
  6
CONTINUOUS
 62
     7
 10
-363.9671
 20
-470.17612
 11
-367.32565
 21
-470.17612
  0
LINE
  8
0
  6
CONTINUOUS
 62
     7
 10
-357.9671
 20
-476.17615
 11
-357.9671
 21
-478.07806
  0
LINE
  8
0
  6
CONTINUOUS
 62
     7
 10
-359.4671
 20
-480.67615
 11
-359.4671
 21
-486.67615
  0
LINE
  8
0
  6
CONTINUOUS
 62
     7
 10
-323.46713
 20
-480.67615
 11
-359.4671
 21
-480.67615
  0
LINE
  8
0
  6
CONTINUOUS
 62
     7
 10
-323.46713
 20
-486.67615
 11
-359.4671
 21
-486.67615
  0
LINE
  8
0
  6
CONTINUOUS
 62
     7
 10
-323.46713
 20
-480.67615
 11
-323.46713
 21
-486.67615
  0
LINE
  8
0
  6
CONTINUOUS
 62
     7
 10
-324.96713
 20
-476.17615
 11
-324.96713
 21
-478.07806
  0
LINE
  8
0
  6
CONTINUOUS
 62
     7
 10
-318.96713
 20
-470.17612
 11
-315.60852
 21
-470.17612
  0
LINE
  8
0
  6
CONTINUOUS
 62
     7
 10
-308.4671
 20
-473.17615
 11
-295.4671
 21
-473.17615
  0
LINE
  8
0
  6
CONTINUOUS
 62
     7
 10
-340.56708
 20
-411.67612
 11
-340.56708
 21
-414.14133
  0
LINE
  8
0
  6
CONTINUOUS
 62
     7
 10
-342.3671
 20
-411.67612
 11
-342.3671
 21
-414.14133
  0
LINE
  8
0
  6
CONTINUOUS
 62
     7
 10
-342.3671
 20
-427.21094
 11
-342.3671
 21
-429.67612
  0
LINE
  8
0
  6
CONTINUOUS
 62
     7
 10
-340.56708
 20
-427.21094
 11
-340.56708
 21
-429.67612
  0
LINE
  8
0
  6
CONTINUOUS
 62
     7
 10
-342.3671
 20
-415.94788
 11
-342.3671
 21
-420.67612
  0
LINE
  8
0
  6
CONTINUOUS
 62
     7
 10
-340.56708
 20
-415.94788
 11
-340.56708
 21
-420.67612
  0
LINE
  8
0
  6
CONTINUOUS
 62
     7
 10
-163.33235
 20
-367.68469
 11
-150.33235
 21
-367.68469
  0
LINE
  8
0
  6
CONTINUOUS
 62
     7
 10
-163.33235
 20
-472.68472
 11
-163.33235
 21
-367.68469
  0
LINE
  8
0
  6
CONTINUOUS
 62
     7
 10
-150.33235
 20
-472.68472
 11
-150.33235
 21
-367.68469
  0
LINE
  8
0
  6
CONTINUOUS
 62
     7
 10
-230.19092
 20
-370.68469
 11
-170.47377
 21
-370.68469
  0
LINE
  8
0
  6
CENTER
 62
     7
 10
-200.33235
 20
-493.35855
 11
-200.33235
 21
-366.06833
  0
LINE
  8
0
  6
CENTER
 62
     7
 10
-143.10307
 20
-420.18469
 11
-260.73236
 21
-420.18469
  0
LINE
  8
0
  6
CONTINUOUS
 62
     7
 10
-237.33235
 20
-472.68472
 11
-237.33235
 21
-367.68469
  0
LINE
  8
0
  6
CONTINUOUS
 62
     7
 10
-250.33235
 20
-472.68472
 11
-250.33235
 21
-367.68469
  0
LINE
  8
0
  6
CONTINUOUS
 62
     7
 10
-237.33235
 20
-367.68469
 11
-250.33235
 21
-367.68469
  0
LINE
  8
0
  6
CONTINUOUS
 62
     7
 10
-163.33235
 20
-472.68472
 11
-150.33235
 21
-472.68472
  0
LINE
  8
0
  6
CONTINUOUS
 62
     7
 10
-171.83238
 20
-469.68469
 11
-170.47377
 21
-469.68469
  0
LINE
  8
0
  6
CONTINUOUS
 62
     7
 10
-179.83238
 20
-477.68472
 11
-179.83238
 21
-478.58664
  0
LINE
  8
0
  6
CONTINUOUS
 62
     7
 10
-178.33238
 20
-481.18472
 11
-178.33238
 21
-488.18472
  0
LINE
  8
0
  6
CONTINUOUS
 62
     7
 10
-178.33238
 20
-488.18472
 11
-222.33237
 21
-488.18472
  0
LINE
  8
0
  6
CONTINUOUS
 62
     7
 10
-178.33238
 20
-481.18472
 11
-222.33237
 21
-481.18472
  0
LINE
  8
0
  6
CONTINUOUS
 62
     7
 10
-222.33237
 20
-481.18472
 11
-222.33237
 21
-488.18472
  0
LINE
  8
0
  6
CONTINUOUS
 62
     7
 10
-220.83237
 20
-477.68472
 11
-220.83237
 21
-478.58664
  0
LINE
  8
0
  6
CONTINUOUS
 62
     7
 10
-228.83237
 20
-469.68469
 11
-230.19092
 21
-469.68469
  0
LINE
  8
0
  6
CONTINUOUS
 62
     7
 10
-237.33235
 20
-472.68472
 11
-250.33235
 21
-472.68472
  0
LINE
  8
0
  6
CONTINUOUS
 62
     7
 10
-199.43236
 20
-411.18469
 11
-199.43236
 21
-413.6499
  0
LINE
  8
0
  6
CONTINUOUS
 62
     7
 10
-201.23235
 20
-411.18469
 11
-201.23235
 21
-413.6499
  0
LINE
  8
0
  6
CONTINUOUS
 62
     7
 10
-201.23235
 20
-426.71951
 11
-201.23235
 21
-429.18469
  0
LINE
  8
0
  6
CONTINUOUS
 62
     7
 10
-199.43236
 20
-426.71951
 11
-199.43236
 21
-429.18469
  0
LINE
  8
0
  6
CONTINUOUS
 62
     7
 10
-201.23235
 20
-415.45645
 11
-201.23235
 21
-420.18469
  0
LINE
  8
0
  6
CONTINUOUS
 62
     7
 10
-199.43236
 20
-415.45645
 11
-199.43236
 21
-420.18469
  0
LINE
  8
0
  6
CENTER
 62
     7
 10
29.214737
 20
-417.99286
 11
-103.97377
 21
-417.99286
  0
LINE
  8
0
  6
CENTER
 62
     7
 10
-35.573776
 20
-494.59283
 11
-35.573776
 21
-363.8765
  0
LINE
  8
0
  6
CONTINUOUS
 62
     7
 10
-73.432327
 20
-368.49286
 11
2.2848048
 21
-368.49286
  0
LINE
  8
0
  6
CONTINUOUS
 62
     7
 10
9.4262228
 20
-470.49286
 11
9.4262228
 21
-365.49286
  0
LINE
  8
0
  6
CONTINUOUS
 62
     7
 10
9.4262228
 20
-365.49286
 11
22.426224
 21
-365.49286
  0
LINE
  8
0
  6
CONTINUOUS
 62
     7
 10
22.426224
 20
-470.49286
 11
22.426224
 21
-365.49286
  0
LINE
  8
0
  6
CONTINUOUS
 62
     7
 10
-80.573776
 20
-470.49286
 11
-80.573776
 21
-365.49286
  0
LINE
  8
0
  6
CONTINUOUS
 62
     7
 10
-80.573776
 20
-365.49286
 11
-93.573776
 21
-365.49286
  0
LINE
  8
0
  6
CONTINUOUS
 62
     7
 10
-93.573776
 20
-470.49286
 11
-93.573776
 21
-365.49286
  0
LINE
  8
0
  6
CONTINUOUS
 62
     7
 10
-80.573776
 20
-470.49286
 11
-93.573776
 21
-470.49286
  0
LINE
  8
0
  6
CONTINUOUS
 62
     7
 10
-72.573776
 20
-467.49286
 11
-73.432327
 21
-467.49286
  0
LINE
  8
0
  6
CONTINUOUS
 62
     7
 10
-63.573776
 20
-476.49286
 11
-63.573776
 21
-477.52875
  0
LINE
  8
0
  6
CONTINUOUS
 62
     7
 10
-65.573776
 20
-480.99286
 11
-65.573776
 21
-489.99286
  0
LINE
  8
0
  6
CONTINUOUS
 62
     7
 10
-5.5737767
 20
-480.99286
 11
-65.573776
 21
-480.99286
  0
LINE
  8
0
  6
CONTINUOUS
 62
     7
 10
-5.5737767
 20
-489.99286
 11
-65.573776
 21
-489.99286
  0
LINE
  8
0
  6
CONTINUOUS
 62
     7
 10
-5.5737767
 20
-480.99286
 11
-5.5737767
 21
-489.99286
  0
LINE
  8
0
  6
CONTINUOUS
 62
     7
 10
-7.5737767
 20
-476.49286
 11
-7.5737767
 21
-477.52875
  0
LINE
  8
0
  6
CONTINUOUS
 62
     7
 10
1.4262233
 20
-467.49286
 11
2.2848048
 21
-467.49286
  0
LINE
  8
0
  6
CONTINUOUS
 62
     7
 10
9.4262228
 20
-470.49286
 11
22.426224
 21
-470.49286
  0
LINE
  8
0
  6
CONTINUOUS
 62
     7
 10
191.44762
 20
-470.49286
 11
191.44762
 21
-365.49286
  0
LINE
  8
0
  6
CONTINUOUS
 62
     7
 10
178.44762
 20
-365.49286
 11
191.44762
 21
-365.49286
  0
LINE
  8
0
  6
CONTINUOUS
 62
     7
 10
178.44762
 20
-470.49286
 11
178.44762
 21
-365.49286
  0
LINE
  8
0
  6
CONTINUOUS
 62
     7
 10
87.589096
 20
-368.49286
 11
171.3062
 21
-368.49286
  0
LINE
  8
0
  6
CENTER
 62
     7
 10
129.44762
 20
-494.59283
 11
129.44762
 21
-363.8765
  0
LINE
  8
0
  6
CONTINUOUS
 62
     7
 10
80.447617
 20
-470.49286
 11
80.447617
 21
-365.49286
  0
LINE
  8
0
  6
CONTINUOUS
 62
     7
 10
80.447617
 20
-365.49286
 11
67.447617
 21
-365.49286
  0
LINE
  8
0
  6
CONTINUOUS
 62
     7
 10
67.447617
 20
-470.49286
 11
67.447617
 21
-365.49286
  0
LINE
  8
0
  6
CONTINUOUS
 62
     7
 10
80.447617
 20
-470.49286
 11
67.447617
 21
-470.49286
  0
LINE
  8
0
  6
CONTINUOUS
 62
     7
 10
89.947617
 20
-467.49286
 11
87.589096
 21
-467.49286
  0
LINE
  8
0
  6
CONTINUOUS
 62
     7
 10
94.947617
 20
-472.49286
 11
94.947617
 21
-475.52875
  0
LINE
  8
0
  6
CONTINUOUS
 62
     7
 10
92.947617
 20
-478.99286
 11
92.947617
 21
-489.99286
  0
LINE
  8
0
  6
CONTINUOUS
 62
     7
 10
165.94762
 20
-478.99286
 11
92.947617
 21
-478.99286
  0
LINE
  8
0
  6
CONTINUOUS
 62
     7
 10
165.94762
 20
-489.99286
 11
92.947617
 21
-489.99286
  0
LINE
  8
0
  6
CONTINUOUS
 62
     7
 10
165.94762
 20
-478.99286
 11
165.94762
 21
-489.99286
  0
LINE
  8
0
  6
CONTINUOUS
 62
     7
 10
163.94762
 20
-472.49286
 11
163.94762
 21
-475.52875
  0
LINE
  8
0
  6
CONTINUOUS
 62
     7
 10
168.94762
 20
-467.49286
 11
171.3062
 21
-467.49286
  0
LINE
  8
0
  6
CONTINUOUS
 62
     7
 10
178.44762
 20
-470.49286
 11
191.44762
 21
-470.49286
  0
LINE
  8
0
  6
CENTER
 62
     7
 10
196.94279
 20
-417.99286
 11
57.047653
 21
-417.99286
  0
LINE
  8
0
  6
CONTINUOUS
 62
     7
 10
381.22702
 20
-471.8345
 11
381.22702
 21
-366.8345
  0
LINE
  8
0
  6
CONTINUOUS
 62
     7
 10
368.22702
 20
-366.8345
 11
381.22702
 21
-366.8345
  0
LINE
  8
0
  6
CONTINUOUS
 62
     7
 10
368.22702
 20
-471.8345
 11
368.22702
 21
-366.8345
  0
LINE
  8
0
  6
CONTINUOUS
 62
     7
 10
368.22702
 20
-471.8345
 11
381.22702
 21
-471.8345
  0
LINE
  8
0
  6
CONTINUOUS
 62
     7
 10
360.22696
 20
-468.8345
 11
361.0856
 21
-468.8345
  0
LINE
  8
0
  6
CONTINUOUS
 62
     7
 10
352.22696
 20
-476.8345
 11
352.22696
 21
-477.46109
  0
LINE
  8
0
  6
CONTINUOUS
 62
     7
 10
354.72696
 20
-482.3345
 11
354.72696
 21
-494.3345
  0
LINE
  8
0
  6
CONTINUOUS
 62
     7
 10
354.72696
 20
-482.3345
 11
263.72702
 21
-482.3345
  0
LINE
  8
0
  6
CONTINUOUS
 62
     7
 10
354.72696
 20
-494.3345
 11
263.72702
 21
-494.3345
  0
LINE
  8
0
  6
CENTER
 62
     7
 10
309.22702
 20
-498.58112
 11
309.22702
 21
-365.21814
  0
LINE
  8
0
  6
CONTINUOUS
 62
     7
 10
263.72702
 20
-482.3345
 11
263.72702
 21
-494.3345
  0
LINE
  8
0
  6
CONTINUOUS
 62
     7
 10
266.22702
 20
-476.8345
 11
266.22702
 21
-477.46109
  0
LINE
  8
0
  6
CONTINUOUS
 62
     7
 10
258.22702
 20
-468.8345
 11
257.36844
 21
-468.8345
  0
LINE
  8
0
  6
CONTINUOUS
 62
     7
 10
250.22702
 20
-471.8345
 11
237.22702
 21
-471.8345
  0
LINE
  8
0
  6
CONTINUOUS
 62
     7
 10
237.22702
 20
-471.8345
 11
237.22702
 21
-366.8345
  0
LINE
  8
0
  6
CONTINUOUS
 62
     7
 10
250.22702
 20
-366.8345
 11
237.22702
 21
-366.8345
  0
LINE
  8
0
  6
CONTINUOUS
 62
     7
 10
250.22702
 20
-471.8345
 11
250.22702
 21
-366.8345
  0
LINE
  8
0
  6
CONTINUOUS
 62
     7
 10
257.36844
 20
-369.8345
 11
361.0856
 21
-369.8345
  0
LINE
  8
0
  6
CENTER
 62
     7
 10
387.09708
 20
-419.3345
 11
226.827
 21
-419.3345
  0
LINE
  8
0
  6
CONTINUOUS
 62
     7
 10
-34.673752
 20
-408.99286
 11
-34.673752
 21
-411.45807
  0
LINE
  8
0
  6
CONTINUOUS
 62
     7
 10
-36.473801
 20
-408.99286
 11
-36.473801
 21
-411.45807
  0
LINE
  8
0
  6
CONTINUOUS
 62
     7
 10
-36.473801
 20
-424.52765
 11
-36.473801
 21
-426.99286
  0
LINE
  8
0
  6
CONTINUOUS
 62
     7
 10
-34.673752
 20
-424.52765
 11
-34.673752
 21
-426.99286
  0
LINE
  8
0
  6
CONTINUOUS
 62
     7
 10
-36.473801
 20
-413.26459
 11
-36.473801
 21
-417.99286
  0
LINE
  8
0
  6
CONTINUOUS
 62
     7
 10
-34.673752
 20
-413.26459
 11
-34.673752
 21
-417.99286
  0
LINE
  8
0
  6
CONTINUOUS
 62
     7
 10
130.34764
 20
-408.99286
 11
130.34764
 21
-411.45807
  0
LINE
  8
0
  6
CONTINUOUS
 62
     7
 10
128.54759
 20
-408.99286
 11
128.54759
 21
-411.45807
  0
LINE
  8
0
  6
CONTINUOUS
 62
     7
 10
128.54759
 20
-424.52765
 11
128.54759
 21
-426.99286
  0
LINE
  8
0
  6
CONTINUOUS
 62
     7
 10
130.34764
 20
-424.52765
 11
130.34764
 21
-426.99286
  0
LINE
  8
0
  6
CONTINUOUS
 62
     7
 10
128.54759
 20
-413.26459
 11
128.54759
 21
-417.99286
  0
LINE
  8
0
  6
CONTINUOUS
 62
     7
 10
130.34764
 20
-413.26459
 11
130.34764
 21
-417.99286
  0
LINE
  8
0
  6
CONTINUOUS
 62
     7
 10
310.12704
 20
-410.3345
 11
310.12704
 21
-412.79968
  0
LINE
  8
0
  6
CONTINUOUS
 62
     7
 10
308.327
 20
-410.3345
 11
308.327
 21
-412.79968
  0
LINE
  8
0
  6
CONTINUOUS
 62
     7
 10
308.327
 20
-425.86929
 11
308.327
 21
-428.3345
  0
LINE
  8
0
  6
CONTINUOUS
 62
     7
 10
310.12704
 20
-425.86929
 11
310.12704
 21
-428.3345
  0
LINE
  8
0
  6
CONTINUOUS
 62
     7
 10
308.327
 20
-414.60623
 11
308.327
 21
-419.3345
  0
LINE
  8
0
  6
CONTINUOUS
 62
     7
 10
310.12704
 20
-414.60623
 11
310.12704
 21
-419.3345
  0
LINE
  8
0
  6
CONTINUOUS
 62
     7
 10
-263.64679
 20
-700.49646
 11
-247.6468
 21
-700.49646
  0
LINE
  8
0
  6
CENTER
 62
     7
 10
-237.25752
 20
-633.99646
 11
-393.64679
 21
-633.99646
  0
LINE
  8
0
  6
CENTER
 62
     7
 10
-316.64679
 20
-724.8139
 11
-316.64679
 21
-565.47205
  0
LINE
  8
0
  6
CONTINUOUS
 62
     7
 10
-359.14682
 20
-697.49646
 11
-362.50537
 21
-697.49646
  0
LINE
  8
0
  6
CONTINUOUS
 62
     7
 10
-369.64679
 20
-700.49646
 11
-385.64679
 21
-700.49646
  0
LINE
  8
0
  6
CONTINUOUS
 62
     7
 10
-351.14682
 20
-705.49646
 11
-351.14682
 21
-706.53235
  0
LINE
  8
0
  6
CONTINUOUS
 62
     7
 10
-353.14682
 20
-709.99646
 11
-353.14682
 21
-720.99646
  0
LINE
  8
0
  6
CONTINUOUS
 62
     7
 10
-280.14682
 20
-709.99646
 11
-280.14682
 21
-720.99646
  0
LINE
  8
0
  6
CONTINUOUS
 62
     7
 10
-282.14682
 20
-705.49646
 11
-282.14682
 21
-706.53235
  0
LINE
  8
0
  6
CONTINUOUS
 62
     7
 10
-274.14682
 20
-697.49646
 11
-270.78821
 21
-697.49646
  0
LINE
  8
0
  6
CONTINUOUS
 62
     7
 10
-263.64679
 20
-567.49646
 11
-247.6468
 21
-567.49646
  0
LINE
  8
0
  6
CONTINUOUS
 62
     7
 10
-362.50537
 20
-570.49646
 11
-270.78821
 21
-570.49646
  0
LINE
  8
0
  6
CONTINUOUS
 62
     7
 10
-369.64679
 20
-567.49646
 11
-385.64679
 21
-567.49646
  0
LINE
  8
0
  6
CONTINUOUS
 62
     7
 10
-385.64679
 20
-567.49646
 11
-385.64679
 21
-700.49646
  0
LINE
  8
0
  6
CONTINUOUS
 62
     7
 10
-369.64679
 20
-567.49646
 11
-369.64679
 21
-700.49646
  0
LINE
  8
0
  6
CONTINUOUS
 62
     7
 10
-263.64679
 20
-567.49646
 11
-263.64679
 21
-700.49646
  0
LINE
  8
0
  6
CONTINUOUS
 62
     7
 10
-247.6468
 20
-567.49646
 11
-247.6468
 21
-700.49646
  0
LINE
  8
0
  6
CONTINUOUS
 62
     7
 10
-353.14682
 20
-709.99646
 11
-280.14682
 21
-709.99646
  0
LINE
  8
0
  6
CONTINUOUS
 62
     7
 10
-353.14682
 20
-720.99646
 11
-280.14682
 21
-720.99646
  0
LINE
  8
0
  6
CONTINUOUS
 62
     7
 10
-315.7468
 20
-624.99646
 11
-315.7468
 21
-627.46167
  0
LINE
  8
0
  6
CONTINUOUS
 62
     7
 10
-317.54678
 20
-624.99646
 11
-317.54678
 21
-627.46167
  0
LINE
  8
0
  6
CONTINUOUS
 62
     7
 10
-317.54678
 20
-640.53125
 11
-317.54678
 21
-642.99646
  0
LINE
  8
0
  6
CONTINUOUS
 62
     7
 10
-315.7468
 20
-640.53125
 11
-315.7468
 21
-642.99646
  0
LINE
  8
0
  6
CONTINUOUS
 62
     7
 10
-317.54678
 20
-629.26819
 11
-317.54678
 21
-633.99646
  0
LINE
  8
0
  6
CONTINUOUS
 62
     7
 10
-315.7468
 20
-629.26819
 11
-315.7468
 21
-633.99646
  0
LINE
  8
0
  6
CONTINUOUS
 62
     7
 10
-49.854763
 20
-568.4798
 11
-33.854763
 21
-568.4798
  0
LINE
  8
0
  6
CONTINUOUS
 62
     7
 10
-33.854763
 20
-701.4798
 11
-33.854763
 21
-568.4798
  0
LINE
  8
0
  6
CONTINUOUS
 62
     7
 10
-49.854763
 20
-701.4798
 11
-49.854763
 21
-568.4798
  0
LINE
  8
0
  6
CONTINUOUS
 62
     7
 10
-176.71333
 20
-571.4798
 11
-56.996181
 21
-571.4798
  0
LINE
  8
0
  6
CONTINUOUS
 62
     7
 10
-183.85477
 20
-701.4798
 11
-183.85477
 21
-568.4798
  0
LINE
  8
0
  6
CONTINUOUS
 62
     7
 10
-183.85477
 20
-568.4798
 11
-199.85477
 21
-568.4798
  0
LINE
  8
0
  6
CONTINUOUS
 62
     7
 10
-199.85477
 20
-701.4798
 11
-199.85477
 21
-568.4798
  0
LINE
  8
0
  6
CENTER
 62
     7
 10
-116.85476
 20
-730.59296
 11
-116.85476
 21
-566.45538
  0
LINE
  8
0
  6
CENTER
 62
     7
 10
-26.856379
 20
-634.9798
 11
-211.05475
 21
-634.9798
  0
LINE
  8
0
  6
CONTINUOUS
 62
     7
 10
-183.85477
 20
-701.4798
 11
-199.85477
 21
-701.4798
  0
LINE
  8
0
  6
CONTINUOUS
 62
     7
 10
-175.3548
 20
-698.4798
 11
-176.71333
 21
-698.4798
  0
LINE
  8
0
  6
CONTINUOUS
 62
     7
 10
-169.3548
 20
-712.9798
 11
-169.3548
 21
-725.9798
  0
LINE
  8
0
  6
CONTINUOUS
 62
     7
 10
-64.35479
 20
-712.9798
 11
-169.3548
 21
-712.9798
  0
LINE
  8
0
  6
CONTINUOUS
 62
     7
 10
-64.35479
 20
-725.9798
 11
-169.3548
 21
-725.9798
  0
LINE
  8
0
  6
CONTINUOUS
 62
     7
 10
-64.35479
 20
-712.9798
 11
-64.35479
 21
-725.9798
  0
LINE
  8
0
  6
CONTINUOUS
 62
     7
 10
-58.354794
 20
-698.4798
 11
-56.996181
 21
-698.4798
  0
LINE
  8
0
  6
CONTINUOUS
 62
     7
 10
-49.854763
 20
-701.4798
 11
-33.854763
 21
-701.4798
  0
LINE
  8
0
  6
CONTINUOUS
 62
     7
 10
-115.95477
 20
-625.9798
 11
-115.95477
 21
-628.44501
  0
LINE
  8
0
  6
CONTINUOUS
 62
     7
 10
-117.75475
 20
-625.9798
 11
-117.75475
 21
-628.44501
  0
LINE
  8
0
  6
CONTINUOUS
 62
     7
 10
-117.75475
 20
-641.51459
 11
-117.75475
 21
-643.9798
  0
LINE
  8
0
  6
CONTINUOUS
 62
     7
 10
-115.95477
 20
-641.51459
 11
-115.95477
 21
-643.9798
  0
LINE
  8
0
  6
CONTINUOUS
 62
     7
 10
-117.75475
 20
-630.25153
 11
-117.75475
 21
-634.9798
  0
LINE
  8
0
  6
CONTINUOUS
 62
     7
 10
-115.95477
 20
-630.25153
 11
-115.95477
 21
-634.9798
  0
ARC
  8
0
  6
CONTINUOUS
 62
     7
 10
-331.48041
 20
208.30496
 40
3.5
 50
179.99998
 51
270.00003
  0
ARC
  8
0
  6
CONTINUOUS
 62
     7
 10
-331.48041
 20
174.30496
 40
3.5
 50
89.999982
 51
179.99996
  0
ARC
  8
0
  6
CONTINUOUS
 62
     7
 10
-351.48041
 20
193.10497
 40
1.8
 50
36.008324
 51
143.99167
  0
ARC
  8
0
  6
CONTINUOUS
 62
     7
 10
-351.48041
 20
193.10497
 40
2.7
 50
36.008324
 51
143.99167
  0
ARC
  8
0
  6
CONTINUOUS
 62
     7
 10
-351.48041
 20
189.50496
 40
1.8
 50
216.00833
 51
323.99168
  0
ARC
  8
0
  6
CONTINUOUS
 62
     7
 10
-351.48041
 20
189.50496
 40
2.7
 50
216.00833
 51
323.99168
  0
ARC
  8
0
  6
CONTINUOUS
 62
     7
 10
-349.00366
 20
191.30496
 40
5.7617307
 50
143.99167
 51
175.52055
  0
ARC
  8
0
  6
CONTINUOUS
 62
     7
 10
-349.00366
 20
191.30496
 40
4.8617306
 50
143.99167
 51
174.68912
  0
ARC
  8
0
  6
CONTINUOUS
 62
     7
 10
-353.95712
 20
191.30496
 40
4.8617306
 50
323.99167
 51
36.008324
  0
ARC
  8
0
  6
CONTINUOUS
 62
     7
 10
-353.95712
 20
191.30496
 40
5.7617307
 50
323.99167
 51
355.52055
  0
ARC
  8
0
  6
CONTINUOUS
 62
     7
 10
-355.64291
 20
191.30496
 40
0.5625
 50
126.8699
 51
233.13009
  0
ARC
  8
0
  6
CONTINUOUS
 62
     7
 10
-351.8179
 20
191.30496
 40
0.5625
 50
306.8699
 51
53.130102
  0
ARC
  8
0
  6
CONTINUOUS
 62
     7
 10
-347.3179
 20
191.30496
 40
0.5625
 50
306.8699
 51
53.130102
  0
ARC
  8
0
  6
CONTINUOUS
 62
     7
 10
-349.00366
 20
191.30496
 40
5.7617307
 50
184.47945
 51
216.00833
  0
ARC
  8
0
  6
CONTINUOUS
 62
     7
 10
-349.00366
 20
191.30496
 40
4.8617306
 50
185.31088
 51
216.00833
  0
ARC
  8
0
  6
CONTINUOUS
 62
     7
 10
-353.95712
 20
191.30496
 40
5.7617307
 50
4.4794472
 51
36.008324
  0
ARC
  8
0
  6
CONTINUOUS
 62
     7
 10
-241.44975
 20
173.17297
 40
3.5
 50
89.999982
 51
179.99996
  0
ARC
  8
0
  6
CONTINUOUS
 62
     7
 10
-241.44975
 20
207.17297
 40
3.5
 50
179.99998
 51
270.00003
  0
ARC
  8
0
  6
CONTINUOUS
 62
     7
 10
-265.44977
 20
192.57297
 40
2.4000001
 50
36.008324
 51
143.99167
  0
ARC
  8
0
  6
CONTINUOUS
 62
     7
 10
-265.44977
 20
192.57297
 40
3.5999999
 50
36.008324
 51
143.99167
  0
ARC
  8
0
  6
CONTINUOUS
 62
     7
 10
-265.44977
 20
187.77296
 40
2.4000001
 50
216.00833
 51
323.99168
  0
ARC
  8
0
  6
CONTINUOUS
 62
     7
 10
-265.44977
 20
187.77296
 40
3.5999999
 50
216.00833
 51
323.99168
  0
ARC
  8
0
  6
CONTINUOUS
 62
     7
 10
-262.14746
 20
190.17297
 40
7.6823077
 50
143.99167
 51
175.52055
  0
ARC
  8
0
  6
CONTINUOUS
 62
     7
 10
-262.14746
 20
190.17297
 40
6.4823079
 50
143.99167
 51
174.68912
  0
ARC
  8
0
  6
CONTINUOUS
 62
     7
 10
-268.75208
 20
190.17297
 40
6.4823079
 50
323.99167
 51
36.008324
  0
ARC
  8
0
  6
CONTINUOUS
 62
     7
 10
-268.75208
 20
190.17297
 40
7.6823077
 50
323.99167
 51
355.52055
  0
ARC
  8
0
  6
CONTINUOUS
 62
     7
 10
-270.99979
 20
190.17297
 40
0.75
 50
126.8699
 51
233.13009
  0
ARC
  8
0
  6
CONTINUOUS
 62
     7
 10
-265.89978
 20
190.17297
 40
0.75
 50
306.8699
 51
53.130102
  0
ARC
  8
0
  6
CONTINUOUS
 62
     7
 10
-259.89978
 20
190.17297
 40
0.75
 50
306.8699
 51
53.130102
  0
ARC
  8
0
  6
CONTINUOUS
 62
     7
 10
-262.14746
 20
190.17297
 40
6.4823079
 50
185.31088
 51
216.00833
  0
ARC
  8
0
  6
CONTINUOUS
 62
     7
 10
-262.14746
 20
190.17297
 40
7.6823077
 50
184.47945
 51
216.00833
  0
ARC
  8
0
  6
CONTINUOUS
 62
     7
 10
-268.75208
 20
190.17297
 40
7.6823077
 50
4.4794472
 51
36.008324
  0
ARC
  8
0
  6
CONTINUOUS
 62
     7
 10
-153.15518
 20
172.43694
 40
3.5
 50
89.999982
 51
179.99996
  0
ARC
  8
0
  6
CONTINUOUS
 62
     7
 10
-153.15518
 20
212.43694
 40
3.5
 50
179.99998
 51
270.00003
  0
ARC
  8
0
  6
CONTINUOUS
 62
     7
 10
-177.15518
 20
194.83693
 40
2.4000001
 50
36.008324
 51
143.99167
  0
ARC
  8
0
  6
CONTINUOUS
 62
     7
 10
-177.15518
 20
194.83693
 40
3.5999999
 50
36.008324
 51
143.99167
  0
ARC
  8
0
  6
CONTINUOUS
 62
     7
 10
-177.15518
 20
190.03694
 40
2.4000001
 50
216.00833
 51
323.99168
  0
ARC
  8
0
  6
CONTINUOUS
 62
     7
 10
-177.15518
 20
190.03694
 40
3.5999999
 50
216.00833
 51
323.99168
  0
ARC
  8
0
  6
CONTINUOUS
 62
     7
 10
-173.85287
 20
192.43694
 40
7.6823077
 50
143.99167
 51
175.52055
  0
ARC
  8
0
  6
CONTINUOUS
 62
     7
 10
-173.85287
 20
192.43694
 40
6.4823079
 50
143.99167
 51
174.68912
  0
ARC
  8
0
  6
CONTINUOUS
 62
     7
 10
-180.45749
 20
192.43694
 40
6.4823079
 50
323.99167
 51
36.008324
  0
ARC
  8
0
  6
CONTINUOUS
 62
     7
 10
-180.45749
 20
192.43694
 40
7.6823077
 50
323.99167
 51
355.52055
  0
ARC
  8
0
  6
CONTINUOUS
 62
     7
 10
-182.70518
 20
192.43694
 40
0.75
 50
126.8699
 51
233.13009
  0
ARC
  8
0
  6
CONTINUOUS
 62
     7
 10
-177.60518
 20
192.43694
 40
0.75
 50
306.8699
 51
53.130102
  0
ARC
  8
0
  6
CONTINUOUS
 62
     7
 10
-171.60518
 20
192.43694
 40
0.75
 50
306.8699
 51
53.130102
  0
ARC
  8
0
  6
CONTINUOUS
 62
     7
 10
-173.85287
 20
192.43694
 40
6.4823079
 50
185.31088
 51
216.00833
  0
ARC
  8
0
  6
CONTINUOUS
 62
     7
 10
-173.85287
 20
192.43694
 40
7.6823077
 50
184.47945
 51
216.00833
  0
ARC
  8
0
  6
CONTINUOUS
 62
     7
 10
-180.45749
 20
192.43694
 40
7.6823077
 50
4.4794472
 51
36.008324
  0
ARC
  8
0
  6
CONTINUOUS
 62
     7
 10
-50.804729
 20
168.54099
 40
4
 50
89.999982
 51
179.99996
  0
ARC
  8
0
  6
CONTINUOUS
 62
     7
 10
-50.804729
 20
209.541
 40
4
 50
179.99998
 51
270.00003
  0
ARC
  8
0
  6
CONTINUOUS
 62
     7
 10
58.997555
 20
160.01306
 40
4
 50
89.999982
 51
179.99996
  0
ARC
  8
0
  6
CONTINUOUS
 62
     7
 10
58.997555
 20
209.01306
 40
4
 50
179.99998
 51
270.00003
  0
ARC
  8
0
  6
CONTINUOUS
 62
     7
 10
-79.804733
 20
191.44099
 40
2.4000001
 50
36.008324
 51
143.99167
  0
ARC
  8
0
  6
CONTINUOUS
 62
     7
 10
-79.804733
 20
191.44099
 40
3.5999999
 50
36.008324
 51
143.99167
  0
ARC
  8
0
  6
CONTINUOUS
 62
     7
 10
-79.804733
 20
186.64099
 40
2.4000001
 50
216.00833
 51
323.99168
  0
ARC
  8
0
  6
CONTINUOUS
 62
     7
 10
-79.804733
 20
186.64099
 40
3.5999999
 50
216.00833
 51
323.99168
  0
ARC
  8
0
  6
CONTINUOUS
 62
     7
 10
-76.502426
 20
189.04099
 40
7.6823077
 50
143.99167
 51
175.52055
  0
ARC
  8
0
  6
CONTINUOUS
 62
     7
 10
-76.502426
 20
189.04099
 40
6.4823079
 50
143.99167
 51
174.68912
  0
ARC
  8
0
  6
CONTINUOUS
 62
     7
 10
-83.10704
 20
189.04099
 40
6.4823079
 50
323.99167
 51
36.008324
  0
ARC
  8
0
  6
CONTINUOUS
 62
     7
 10
-83.10704
 20
189.04099
 40
7.6823077
 50
323.99167
 51
355.52055
  0
ARC
  8
0
  6
CONTINUOUS
 62
     7
 10
-85.354736
 20
189.04099
 40
0.75
 50
126.8699
 51
233.13009
  0
ARC
  8
0
  6
CONTINUOUS
 62
     7
 10
-80.25473
 20
189.04099
 40
0.75
 50
306.8699
 51
53.130102
  0
ARC
  8
0
  6
CONTINUOUS
 62
     7
 10
-74.25473
 20
189.04099
 40
0.75
 50
306.8699
 51
53.130102
  0
ARC
  8
0
  6
CONTINUOUS
 62
     7
 10
-76.502426
 20
189.04099
 40
6.4823079
 50
185.31088
 51
216.00833
  0
ARC
  8
0
  6
CONTINUOUS
 62
     7
 10
-76.502426
 20
189.04099
 40
7.6823077
 50
184.47945
 51
216.00833
  0
ARC
  8
0
  6
CONTINUOUS
 62
     7
 10
-83.10704
 20
189.04099
 40
7.6823077
 50
4.4794472
 51
36.008324
  0
ARC
  8
0
  6
CONTINUOUS
 62
     7
 10
29.997522
 20
186.91306
 40
2.4000001
 50
36.008324
 51
143.99167
  0
ARC
  8
0
  6
CONTINUOUS
 62
     7
 10
29.997522
 20
186.91306
 40
3.5999999
 50
36.008324
 51
143.99167
  0
ARC
  8
0
  6
CONTINUOUS
 62
     7
 10
29.997522
 20
182.11307
 40
2.4000001
 50
216.00833
 51
323.99168
  0
ARC
  8
0
  6
CONTINUOUS
 62
     7
 10
29.997522
 20
182.11307
 40
3.5999999
 50
216.00833
 51
323.99168
  0
ARC
  8
0
  6
CONTINUOUS
 62
     7
 10
33.299831
 20
184.51306
 40
7.6823077
 50
143.99167
 51
175.52055
  0
ARC
  8
0
  6
CONTINUOUS
 62
     7
 10
33.299831
 20
184.51306
 40
6.4823079
 50
143.99167
 51
174.68912
  0
ARC
  8
0
  6
CONTINUOUS
 62
     7
 10
26.695215
 20
184.51306
 40
6.4823079
 50
323.99167
 51
36.008324
  0
ARC
  8
0
  6
CONTINUOUS
 62
     7
 10
26.695215
 20
184.51306
 40
7.6823077
 50
323.99167
 51
355.52055
  0
ARC
  8
0
  6
CONTINUOUS
 62
     7
 10
24.447519
 20
184.51306
 40
0.75
 50
126.8699
 51
233.13009
  0
ARC
  8
0
  6
CONTINUOUS
 62
     7
 10
29.547525
 20
184.51306
 40
0.75
 50
306.8699
 51
53.130102
  0
ARC
  8
0
  6
CONTINUOUS
 62
     7
 10
35.547527
 20
184.51306
 40
0.75
 50
306.8699
 51
53.130102
  0
ARC
  8
0
  6
CONTINUOUS
 62
     7
 10
33.299831
 20
184.51306
 40
6.4823079
 50
185.31088
 51
216.00833
  0
ARC
  8
0
  6
CONTINUOUS
 62
     7
 10
33.299831
 20
184.51306
 40
7.6823077
 50
184.47945
 51
216.00833
  0
ARC
  8
0
  6
CONTINUOUS
 62
     7
 10
26.695215
 20
184.51306
 40
7.6823077
 50
4.4794472
 51
36.008324
  0
ARC
  8
0
  6
CONTINUOUS
 62
     7
 10
171.79979
 20
167.01306
 40
4
 50
89.999982
 51
179.99996
  0
ARC
  8
0
  6
CONTINUOUS
 62
     7
 10
171.79979
 20
202.01306
 40
4
 50
179.99998
 51
270.00003
  0
ARC
  8
0
  6
CONTINUOUS
 62
     7
 10
288.26196
 20
160.7491
 40
5
 50
89.999982
 51
179.99996
  0
ARC
  8
0
  6
CONTINUOUS
 62
     7
 10
288.26196
 20
203.7491
 40
5
 50
179.99998
 51
270.00003
  0
ARC
  8
0
  6
CONTINUOUS
 62
     7
 10
-313.95245
 20
16.383333
 40
5
 50
89.999982
 51
179.99996
  0
ARC
  8
0
  6
CONTINUOUS
 62
     7
 10
-313.95245
 20
67.383331
 40
5
 50
179.99998
 51
270.00003
  0
ARC
  8
0
  6
CONTINUOUS
 62
     7
 10
-206.37717
 20
5.7566957
 40
5
 50
89.999982
 51
179.99996
  0
ARC
  8
0
  6
CONTINUOUS
 62
     7
 10
-206.37717
 20
65.756699
 40
5
 50
179.99998
 51
270.00003
  0
ARC
  8
0
  6
CONTINUOUS
 62
     7
 10
139.79977
 20
186.91306
 40
2.4000001
 50
36.008324
 51
143.99167
  0
ARC
  8
0
  6
CONTINUOUS
 62
     7
 10
139.79977
 20
186.91306
 40
3.5999999
 50
36.008324
 51
143.99167
  0
ARC
  8
0
  6
CONTINUOUS
 62
     7
 10
139.79977
 20
182.11307
 40
2.4000001
 50
216.00833
 51
323.99168
  0
ARC
  8
0
  6
CONTINUOUS
 62
     7
 10
139.79977
 20
182.11307
 40
3.5999999
 50
216.00833
 51
323.99168
  0
ARC
  8
0
  6
CONTINUOUS
 62
     7
 10
143.10208
 20
184.51306
 40
7.6823077
 50
143.99167
 51
175.52055
  0
ARC
  8
0
  6
CONTINUOUS
 62
     7
 10
143.10208
 20
184.51306
 40
6.4823079
 50
143.99167
 51
174.68912
  0
ARC
  8
0
  6
CONTINUOUS
 62
     7
 10
136.49747
 20
184.51306
 40
6.4823079
 50
323.99167
 51
36.008324
  0
ARC
  8
0
  6
CONTINUOUS
 62
     7
 10
136.49747
 20
184.51306
 40
7.6823077
 50
323.99167
 51
355.52055
  0
ARC
  8
0
  6
CONTINUOUS
 62
     7
 10
134.24977
 20
184.51306
 40
0.75
 50
126.8699
 51
233.13009
  0
ARC
  8
0
  6
CONTINUOUS
 62
     7
 10
139.34978
 20
184.51306
 40
0.75
 50
306.8699
 51
53.130102
  0
ARC
  8
0
  6
CONTINUOUS
 62
     7
 10
145.34978
 20
184.51306
 40
0.75
 50
306.8699
 51
53.130102
  0
ARC
  8
0
  6
CONTINUOUS
 62
     7
 10
143.10208
 20
184.51306
 40
6.4823079
 50
185.31088
 51
216.00833
  0
ARC
  8
0
  6
CONTINUOUS
 62
     7
 10
143.10208
 20
184.51306
 40
7.6823077
 50
184.47945
 51
216.00833
  0
ARC
  8
0
  6
CONTINUOUS
 62
     7
 10
136.49747
 20
184.51306
 40
7.6823077
 50
4.4794472
 51
36.008324
  0
ARC
  8
0
  6
CONTINUOUS
 62
     7
 10
255.26193
 20
184.64909
 40
2.4000001
 50
36.008324
 51
143.99167
  0
ARC
  8
0
  6
CONTINUOUS
 62
     7
 10
255.26193
 20
184.64909
 40
3.5999999
 50
36.008324
 51
143.99167
  0
ARC
  8
0
  6
CONTINUOUS
 62
     7
 10
255.26193
 20
179.84911
 40
2.4000001
 50
216.00833
 51
323.99168
  0
ARC
  8
0
  6
CONTINUOUS
 62
     7
 10
255.26193
 20
179.84911
 40
3.5999999
 50
216.00833
 51
323.99168
  0
ARC
  8
0
  6
CONTINUOUS
 62
     7
 10
258.56424
 20
182.2491
 40
7.6823077
 50
143.99167
 51
175.52055
  0
ARC
  8
0
  6
CONTINUOUS
 62
     7
 10
258.56424
 20
182.2491
 40
6.4823079
 50
143.99167
 51
174.68912
  0
ARC
  8
0
  6
CONTINUOUS
 62
     7
 10
251.95963
 20
182.2491
 40
6.4823079
 50
323.99167
 51
36.008324
  0
ARC
  8
0
  6
CONTINUOUS
 62
     7
 10
251.95963
 20
182.2491
 40
7.6823077
 50
323.99167
 51
355.52055
  0
ARC
  8
0
  6
CONTINUOUS
 62
     7
 10
249.71193
 20
182.2491
 40
0.75
 50
126.8699
 51
233.13009
  0
ARC
  8
0
  6
CONTINUOUS
 62
     7
 10
254.81194
 20
182.2491
 40
0.75
 50
306.8699
 51
53.130102
  0
ARC
  8
0
  6
CONTINUOUS
 62
     7
 10
260.81195
 20
182.2491
 40
0.75
 50
306.8699
 51
53.130102
  0
ARC
  8
0
  6
CONTINUOUS
 62
     7
 10
258.56424
 20
182.2491
 40
6.4823079
 50
185.31088
 51
216.00833
  0
ARC
  8
0
  6
CONTINUOUS
 62
     7
 10
258.56424
 20
182.2491
 40
7.6823077
 50
184.47945
 51
216.00833
  0
ARC
  8
0
  6
CONTINUOUS
 62
     7
 10
251.95963
 20
182.2491
 40
7.6823077
 50
4.4794472
 51
36.008324
  0
ARC
  8
0
  6
CONTINUOUS
 62
     7
 10
-346.95248
 20
44.283333
 40
2.4000001
 50
36.008324
 51
143.99167
  0
ARC
  8
0
  6
CONTINUOUS
 62
     7
 10
-346.95248
 20
44.283333
 40
3.5999999
 50
36.008324
 51
143.99167
  0
ARC
  8
0
  6
CONTINUOUS
 62
     7
 10
-346.95248
 20
39.483334
 40
2.4000001
 50
216.00833
 51
323.99168
  0
ARC
  8
0
  6
CONTINUOUS
 62
     7
 10
-346.95248
 20
39.483334
 40
3.5999999
 50
216.00833
 51
323.99168
  0
ARC
  8
0
  6
CONTINUOUS
 62
     7
 10
-343.65018
 20
41.883335
 40
7.6823077
 50
143.99167
 51
175.52055
  0
ARC
  8
0
  6
CONTINUOUS
 62
     7
 10
-343.65018
 20
41.883335
 40
6.4823079
 50
143.99167
 51
174.68912
  0
ARC
  8
0
  6
CONTINUOUS
 62
     7
 10
-350.25479
 20
41.883335
 40
6.4823079
 50
323.99167
 51
36.008324
  0
ARC
  8
0
  6
CONTINUOUS
 62
     7
 10
-350.25479
 20
41.883335
 40
7.6823077
 50
323.99167
 51
355.52055
  0
ARC
  8
0
  6
CONTINUOUS
 62
     7
 10
-352.50247
 20
41.883335
 40
0.75
 50
126.8699
 51
233.13009
  0
ARC
  8
0
  6
CONTINUOUS
 62
     7
 10
-347.40247
 20
41.883335
 40
0.75
 50
306.8699
 51
53.130102
  0
ARC
  8
0
  6
CONTINUOUS
 62
     7
 10
-341.40247
 20
41.883335
 40
0.75
 50
306.8699
 51
53.130102
  0
ARC
  8
0
  6
CONTINUOUS
 62
     7
 10
-343.65018
 20
41.883335
 40
6.4823079
 50
185.31088
 51
216.00833
  0
ARC
  8
0
  6
CONTINUOUS
 62
     7
 10
-343.65018
 20
41.883335
 40
7.6823077
 50
184.47945
 51
216.00833
  0
ARC
  8
0
  6
CONTINUOUS
 62
     7
 10
-350.25479
 20
41.883335
 40
7.6823077
 50
4.4794472
 51
36.008324
  0
ARC
  8
0
  6
CONTINUOUS
 62
     7
 10
-239.37718
 20
38.156696
 40
2.4000001
 50
36.008324
 51
143.99167
  0
ARC
  8
0
  6
CONTINUOUS
 62
     7
 10
-239.37718
 20
38.156696
 40
3.5999999
 50
36.008324
 51
143.99167
  0
ARC
  8
0
  6
CONTINUOUS
 62
     7
 10
-239.37718
 20
33.356697
 40
2.4000001
 50
216.00833
 51
323.99168
  0
ARC
  8
0
  6
CONTINUOUS
 62
     7
 10
-239.37718
 20
33.356697
 40
3.5999999
 50
216.00833
 51
323.99168
  0
ARC
  8
0
  6
CONTINUOUS
 62
     7
 10
-236.07487
 20
35.756695
 40
7.6823077
 50
143.99167
 51
175.52055
  0
ARC
  8
0
  6
CONTINUOUS
 62
     7
 10
-236.07487
 20
35.756695
 40
6.4823079
 50
143.99167
 51
174.68912
  0
ARC
  8
0
  6
CONTINUOUS
 62
     7
 10
-242.67949
 20
35.756695
 40
6.4823079
 50
323.99167
 51
36.008324
  0
ARC
  8
0
  6
CONTINUOUS
 62
     7
 10
-242.67949
 20
35.756695
 40
7.6823077
 50
323.99167
 51
355.52055
  0
ARC
  8
0
  6
CONTINUOUS
 62
     7
 10
-244.92719
 20
35.756695
 40
0.75
 50
126.8699
 51
233.13009
  0
ARC
  8
0
  6
CONTINUOUS
 62
     7
 10
-239.82718
 20
35.756695
 40
0.75
 50
306.8699
 51
53.130102
  0
ARC
  8
0
  6
CONTINUOUS
 62
     7
 10
-233.82718
 20
35.756695
 40
0.75
 50
306.8699
 51
53.130102
  0
ARC
  8
0
  6
CONTINUOUS
 62
     7
 10
-236.07487
 20
35.756695
 40
6.4823079
 50
185.31088
 51
216.00833
  0
ARC
  8
0
  6
CONTINUOUS
 62
     7
 10
-236.07487
 20
35.756695
 40
7.6823077
 50
184.47945
 51
216.00833
  0
ARC
  8
0
  6
CONTINUOUS
 62
     7
 10
-242.67949
 20
35.756695
 40
7.6823077
 50
4.4794472
 51
36.008324
  0
ARC
  8
0
  6
CONTINUOUS
 62
     7
 10
-82.320023
 20
13.723431
 40
6
 50
89.999982
 51
179.99996
  0
ARC
  8
0
  6
CONTINUOUS
 62
     7
 10
-82.320023
 20
58.723423
 40
6
 50
179.99998
 51
270.00003
  0
ARC
  8
0
  6
CONTINUOUS
 62
     7
 10
36.538071
 20
11.591441
 40
6
 50
89.999982
 51
179.99996
  0
ARC
  8
0
  6
CONTINUOUS
 62
     7
 10
36.538071
 20
64.591438
 40
6
 50
179.99998
 51
270.00003
  0
ARC
  8
0
  6
CONTINUOUS
 62
     7
 10
159.92409
 20
5.2234235
 40
6
 50
89.999982
 51
180.00002
  0
ARC
  8
0
  6
CONTINUOUS
 62
     7
 10
159.92409
 20
67.223427
 40
6
 50
180.00002
 51
270
  0
ARC
  8
0
  6
CONTINUOUS
 62
     7
 10
301.42184
 20
-1.1725378
 40
6
 50
89.999982
 51
180.00002
  0
ARC
  8
0
  6
CONTINUOUS
 62
     7
 10
301.42184
 20
66.827415
 40
6
 50
180.00002
 51
270
  0
ARC
  8
0
  6
CONTINUOUS
 62
     7
 10
-122.82005
 20
39.223423
 40
3
 50
36.008324
 51
143.99167
  0
ARC
  8
0
  6
CONTINUOUS
 62
     7
 10
-122.82005
 20
39.223423
 40
4.5
 50
36.008324
 51
143.99167
  0
ARC
  8
0
  6
CONTINUOUS
 62
     7
 10
-122.82005
 20
33.223423
 40
3
 50
216.00833
 51
323.99168
  0
ARC
  8
0
  6
CONTINUOUS
 62
     7
 10
-122.82005
 20
33.223423
 40
4.5
 50
216.00833
 51
323.99168
  0
ARC
  8
0
  6
CONTINUOUS
 62
     7
 10
-118.69216
 20
36.223423
 40
9.6028843
 50
143.99167
 51
175.52055
  0
ARC
  8
0
  6
CONTINUOUS
 62
     7
 10
-118.69216
 20
36.223423
 40
8.1028843
 50
143.99167
 51
174.68912
  0
ARC
  8
0
  6
CONTINUOUS
 62
     7
 10
-126.94793
 20
36.223423
 40
8.1028843
 50
323.99167
 51
36.008324
  0
ARC
  8
0
  6
CONTINUOUS
 62
     7
 10
-126.94793
 20
36.223423
 40
9.6028843
 50
323.99167
 51
355.52055
  0
ARC
  8
0
  6
CONTINUOUS
 62
     7
 10
-129.75754
 20
36.223423
 40
0.9375
 50
126.8699
 51
233.13009
  0
ARC
  8
0
  6
CONTINUOUS
 62
     7
 10
-123.38255
 20
36.223423
 40
0.9375
 50
306.8699
 51
53.130102
  0
ARC
  8
0
  6
CONTINUOUS
 62
     7
 10
-115.88255
 20
36.223423
 40
0.9375
 50
306.8699
 51
53.130102
  0
ARC
  8
0
  6
CONTINUOUS
 62
     7
 10
-118.69216
 20
36.223423
 40
9.6028843
 50
184.47945
 51
216.00833
  0
ARC
  8
0
  6
CONTINUOUS
 62
     7
 10
-118.69216
 20
36.223423
 40
8.1028843
 50
185.31088
 51
216.00833
  0
ARC
  8
0
  6
CONTINUOUS
 62
     7
 10
-126.94793
 20
36.223423
 40
9.6028843
 50
4.4794472
 51
36.008324
  0
ARC
  8
0
  6
CONTINUOUS
 62
     7
 10
-3.961937
 20
41.091442
 40
3
 50
36.008324
 51
143.99167
  0
ARC
  8
0
  6
CONTINUOUS
 62
     7
 10
-3.961937
 20
41.091442
 40
4.5
 50
36.008324
 51
143.99167
  0
ARC
  8
0
  6
CONTINUOUS
 62
     7
 10
-3.961937
 20
35.091442
 40
3
 50
216.00833
 51
323.99168
  0
ARC
  8
0
  6
CONTINUOUS
 62
     7
 10
-3.961937
 20
35.091442
 40
4.5
 50
216.00833
 51
323.99168
  0
ARC
  8
0
  6
CONTINUOUS
 62
     7
 10
0.16594698
 20
38.091442
 40
9.6028843
 50
143.99167
 51
175.52055
  0
ARC
  8
0
  6
CONTINUOUS
 62
     7
 10
0.16594698
 20
38.091442
 40
8.1028843
 50
143.99167
 51
174.68912
  0
ARC
  8
0
  6
CONTINUOUS
 62
     7
 10
-8.0898209
 20
38.091442
 40
8.1028843
 50
323.99167
 51
36.008324
  0
ARC
  8
0
  6
CONTINUOUS
 62
     7
 10
-8.0898209
 20
38.091442
 40
9.6028843
 50
323.99167
 51
355.52055
  0
ARC
  8
0
  6
CONTINUOUS
 62
     7
 10
-10.899437
 20
38.091442
 40
0.9375
 50
126.8699
 51
233.13009
  0
ARC
  8
0
  6
CONTINUOUS
 62
     7
 10
-4.524437
 20
38.091442
 40
0.9375
 50
306.8699
 51
53.130102
  0
ARC
  8
0
  6
CONTINUOUS
 62
     7
 10
2.975563
 20
38.091442
 40
0.9375
 50
306.8699
 51
53.130102
  0
ARC
  8
0
  6
CONTINUOUS
 62
     7
 10
0.16594698
 20
38.091442
 40
9.6028843
 50
184.47945
 51
216.00833
  0
ARC
  8
0
  6
CONTINUOUS
 62
     7
 10
0.16594698
 20
38.091442
 40
8.1028843
 50
185.31088
 51
216.00833
  0
ARC
  8
0
  6
CONTINUOUS
 62
     7
 10
-8.0898209
 20
38.091442
 40
9.6028843
 50
4.4794472
 51
36.008324
  0
ARC
  8
0
  6
CONTINUOUS
 62
     7
 10
119.4241
 20
39.223423
 40
3
 50
36.008324
 51
143.99167
  0
ARC
  8
0
  6
CONTINUOUS
 62
     7
 10
119.4241
 20
39.223423
 40
4.5
 50
36.008324
 51
143.99167
  0
ARC
  8
0
  6
CONTINUOUS
 62
     7
 10
119.4241
 20
33.223423
 40
3
 50
216.00833
 51
323.99168
  0
ARC
  8
0
  6
CONTINUOUS
 62
     7
 10
119.4241
 20
33.223423
 40
4.5
 50
216.00833
 51
323.99168
  0
ARC
  8
0
  6
CONTINUOUS
 62
     7
 10
123.55199
 20
36.223423
 40
9.6028843
 50
143.99167
 51
175.52055
  0
ARC
  8
0
  6
CONTINUOUS
 62
     7
 10
123.55199
 20
36.223423
 40
8.1028843
 50
143.99167
 51
174.68912
  0
ARC
  8
0
  6
CONTINUOUS
 62
     7
 10
115.29622
 20
36.223423
 40
8.1028843
 50
323.99167
 51
36.008324
  0
ARC
  8
0
  6
CONTINUOUS
 62
     7
 10
115.29622
 20
36.223423
 40
9.6028843
 50
323.99167
 51
355.52055
  0
ARC
  8
0
  6
CONTINUOUS
 62
     7
 10
112.4866
 20
36.223423
 40
0.9375
 50
126.8699
 51
233.13009
  0
ARC
  8
0
  6
CONTINUOUS
 62
     7
 10
118.8616
 20
36.223423
 40
0.9375
 50
306.8699
 51
53.130102
  0
ARC
  8
0
  6
CONTINUOUS
 62
     7
 10
126.3616
 20
36.223423
 40
0.9375
 50
306.8699
 51
53.130102
  0
ARC
  8
0
  6
CONTINUOUS
 62
     7
 10
123.55199
 20
36.223423
 40
9.6028843
 50
184.47945
 51
216.00833
  0
ARC
  8
0
  6
CONTINUOUS
 62
     7
 10
123.55199
 20
36.223423
 40
8.1028843
 50
185.31088
 51
216.00833
  0
ARC
  8
0
  6
CONTINUOUS
 62
     7
 10
115.29622
 20
36.223423
 40
9.6028843
 50
4.4794472
 51
36.008324
  0
ARC
  8
0
  6
CONTINUOUS
 62
     7
 10
260.92184
 20
35.827477
 40
3
 50
36.008324
 51
143.99167
  0
ARC
  8
0
  6
CONTINUOUS
 62
     7
 10
260.92184
 20
35.827477
 40
4.5
 50
36.008324
 51
143.99167
  0
ARC
  8
0
  6
CONTINUOUS
 62
     7
 10
260.92184
 20
29.827478
 40
3
 50
216.00833
 51
323.99168
  0
ARC
  8
0
  6
CONTINUOUS
 62
     7
 10
260.92184
 20
29.827478
 40
4.5
 50
216.00833
 51
323.99168
  0
ARC
  8
0
  6
CONTINUOUS
 62
     7
 10
265.04974
 20
32.827477
 40
9.6028843
 50
143.99167
 51
175.52055
  0
ARC
  8
0
  6
CONTINUOUS
 62
     7
 10
265.04974
 20
32.827477
 40
8.1028843
 50
143.99167
 51
174.68912
  0
ARC
  8
0
  6
CONTINUOUS
 62
     7
 10
256.79398
 20
32.827477
 40
8.1028843
 50
323.99167
 51
36.008324
  0
ARC
  8
0
  6
CONTINUOUS
 62
     7
 10
256.79398
 20
32.827477
 40
9.6028843
 50
323.99167
 51
355.52055
  0
ARC
  8
0
  6
CONTINUOUS
 62
     7
 10
253.98434
 20
32.827477
 40
0.9375
 50
126.8699
 51
233.13009
  0
ARC
  8
0
  6
CONTINUOUS
 62
     7
 10
260.35934
 20
32.827477
 40
0.9375
 50
306.8699
 51
53.130102
  0
ARC
  8
0
  6
CONTINUOUS
 62
     7
 10
267.85934
 20
32.827477
 40
0.9375
 50
306.8699
 51
53.130102
  0
ARC
  8
0
  6
CONTINUOUS
 62
     7
 10
265.04974
 20
32.827477
 40
9.6028843
 50
184.47945
 51
216.00833
  0
ARC
  8
0
  6
CONTINUOUS
 62
     7
 10
265.04974
 20
32.827477
 40
8.1028843
 50
185.31088
 51
216.00833
  0
ARC
  8
0
  6
CONTINUOUS
 62
     7
 10
256.79398
 20
32.827477
 40
9.6028843
 50
4.4794472
 51
36.008324
  0
ARC
  8
0
  6
CONTINUOUS
 62
     7
 10
-341.86984
 20
-129.50768
 40
8.1028843
 50
233.99167
 51
306.00832
  0
ARC
  8
0
  6
CONTINUOUS
 62
     7
 10
-341.86984
 20
-137.76344
 40
9.6028843
 50
94.479452
 51
126.00833
  0
ARC
  8
0
  6
CONTINUOUS
 62
     7
 10
-341.86984
 20
-137.76344
 40
8.1028843
 50
95.310878
 51
126.00833
  0
ARC
  8
0
  6
CONTINUOUS
 62
     7
 10
-341.86984
 20
-129.50768
 40
9.6028843
 50
274.47945
 51
306.00832
  0
ARC
  8
0
  6
CONTINUOUS
 62
     7
 10
-314.74326
 20
-84.635544
 40
6
 50
269.99996
 51
324.31463
  0
ARC
  8
0
  6
CONTINUOUS
 62
     7
 10
-368.99646
 20
-84.635544
 40
6
 50
215.68533
 51
270
  0
ARC
  8
0
  6
CONTINUOUS
 62
     7
 10
-368.99646
 20
-182.63556
 40
6
 50
89.999996
 51
144.31467
  0
ARC
  8
0
  6
CONTINUOUS
 62
     7
 10
-364.36987
 20
-182.63556
 40
6
 50
359.99998
 51
90.000016
  0
ARC
  8
0
  6
CONTINUOUS
 62
     7
 10
-361.36984
 20
-183.03748
 40
3
 50
300.00001
 51
359.99999
  0
ARC
  8
0
  6
CONTINUOUS
 62
     7
 10
-322.36984
 20
-183.03748
 40
3
 50
179.99999
 51
239.99998
  0
ARC
  8
0
  6
CONTINUOUS
 62
     7
 10
-319.36987
 20
-182.63556
 40
6
 50
90.000016
 51
180.00001
  0
ARC
  8
0
  6
CONTINUOUS
 62
     7
 10
-314.74326
 20
-182.63556
 40
6
 50
35.685303
 51
89.999975
  0
ARC
  8
0
  6
CONTINUOUS
 62
     7
 10
-187.42046
 20
-84.344025
 40
6
 50
269.99996
 51
324.31463
  0
ARC
  8
0
  6
CONTINUOUS
 62
     7
 10
-249.67365
 20
-84.344025
 40
6
 50
215.68533
 51
270
  0
ARC
  8
0
  6
CONTINUOUS
 62
     7
 10
-249.67365
 20
-182.34402
 40
6
 50
89.999996
 51
144.31467
  0
ARC
  8
0
  6
CONTINUOUS
 62
     7
 10
-245.04706
 20
-182.34402
 40
6
 50
359.99998
 51
90.000016
  0
ARC
  8
0
  6
CONTINUOUS
 62
     7
 10
-242.04704
 20
-183.74594
 40
3
 50
300.00001
 51
359.99999
  0
ARC
  8
0
  6
CONTINUOUS
 62
     7
 10
-195.04704
 20
-183.74594
 40
3
 50
179.99999
 51
239.99998
  0
ARC
  8
0
  6
CONTINUOUS
 62
     7
 10
-192.04707
 20
-182.34402
 40
6
 50
90.000016
 51
180.00001
  0
ARC
  8
0
  6
CONTINUOUS
 62
     7
 10
-187.42046
 20
-182.34402
 40
6
 50
35.685303
 51
89.999975
  0
ARC
  8
0
  6
CONTINUOUS
 62
     7
 10
-338.86984
 20
-133.63556
 40
3
 50
306.00832
 51
53.991676
  0
ARC
  8
0
  6
CONTINUOUS
 62
     7
 10
-338.86984
 20
-133.63556
 40
4.5
 50
306.00832
 51
53.991676
  0
ARC
  8
0
  6
CONTINUOUS
 62
     7
 10
-344.86984
 20
-133.63556
 40
3
 50
126.00833
 51
233.99168
  0
ARC
  8
0
  6
CONTINUOUS
 62
     7
 10
-344.86984
 20
-133.63556
 40
4.5
 50
126.00833
 51
233.99168
  0
ARC
  8
0
  6
CONTINUOUS
 62
     7
 10
-341.86984
 20
-137.76344
 40
9.6028843
 50
53.991676
 51
85.520553
  0
ARC
  8
0
  6
CONTINUOUS
 62
     7
 10
-341.86984
 20
-137.76344
 40
8.1028843
 50
53.991676
 51
84.689121
  0
ARC
  8
0
  6
CONTINUOUS
 62
     7
 10
-341.86984
 20
-129.50768
 40
9.6028843
 50
233.99167
 51
265.52055
  0
ARC
  8
0
  6
CONTINUOUS
 62
     7
 10
-341.86984
 20
-126.69805
 40
0.9375
 50
36.869897
 51
143.1301
  0
ARC
  8
0
  6
CONTINUOUS
 62
     7
 10
-341.86984
 20
-133.07306
 40
0.9375
 50
216.8699
 51
323.1301
  0
ARC
  8
0
  6
CONTINUOUS
 62
     7
 10
-341.86984
 20
-140.57306
 40
0.9375
 50
216.8699
 51
323.1301
  0
ARC
  8
0
  6
CONTINUOUS
 62
     7
 10
-215.54704
 20
-133.34402
 40
3
 50
306.00832
 51
53.991676
  0
ARC
  8
0
  6
CONTINUOUS
 62
     7
 10
-215.54704
 20
-133.34402
 40
4.5
 50
306.00832
 51
53.991676
  0
ARC
  8
0
  6
CONTINUOUS
 62
     7
 10
-221.54704
 20
-133.34402
 40
3
 50
126.00833
 51
233.99168
  0
ARC
  8
0
  6
CONTINUOUS
 62
     7
 10
-221.54704
 20
-133.34402
 40
4.5
 50
126.00833
 51
233.99168
  0
ARC
  8
0
  6
CONTINUOUS
 62
     7
 10
-218.54704
 20
-137.47191
 40
9.6028843
 50
53.991676
 51
85.520553
  0
ARC
  8
0
  6
CONTINUOUS
 62
     7
 10
-218.54704
 20
-137.47191
 40
8.1028843
 50
53.991676
 51
84.689121
  0
ARC
  8
0
  6
CONTINUOUS
 62
     7
 10
-218.54704
 20
-129.21614
 40
8.1028843
 50
233.99167
 51
306.00832
  0
ARC
  8
0
  6
CONTINUOUS
 62
     7
 10
-218.54704
 20
-129.21614
 40
9.6028843
 50
233.99167
 51
265.52055
  0
ARC
  8
0
  6
CONTINUOUS
 62
     7
 10
-218.54704
 20
-126.40652
 40
0.9375
 50
36.869897
 51
143.1301
  0
ARC
  8
0
  6
CONTINUOUS
 62
     7
 10
-218.54704
 20
-132.78152
 40
0.9375
 50
216.8699
 51
323.1301
  0
ARC
  8
0
  6
CONTINUOUS
 62
     7
 10
-218.54704
 20
-140.28152
 40
0.9375
 50
216.8699
 51
323.1301
  0
ARC
  8
0
  6
CONTINUOUS
 62
     7
 10
-218.54704
 20
-137.47191
 40
9.6028843
 50
94.479452
 51
126.00833
  0
ARC
  8
0
  6
CONTINUOUS
 62
     7
 10
-218.54704
 20
-137.47191
 40
8.1028843
 50
95.310878
 51
126.00833
  0
ARC
  8
0
  6
CONTINUOUS
 62
     7
 10
-218.54704
 20
-129.21614
 40
9.6028843
 50
274.47945
 51
306.00832
  0
ARC
  8
0
  6
CONTINUOUS
 62
     7
 10
-42.015732
 20
-80.243141
 40
6
 50
269.99996
 51
324.31463
  0
ARC
  8
0
  6
CONTINUOUS
 62
     7
 10
-118.26892
 20
-80.243141
 40
6
 50
215.68533
 51
270
  0
ARC
  8
0
  6
CONTINUOUS
 62
     7
 10
-118.26892
 20
-178.24315
 40
6
 50
89.999996
 51
144.31467
  0
ARC
  8
0
  6
CONTINUOUS
 62
     7
 10
-114.14233
 20
-178.24315
 40
6
 50
359.99998
 51
90.000016
  0
ARC
  8
0
  6
CONTINUOUS
 62
     7
 10
-112.14232
 20
-178.77904
 40
4
 50
300.00001
 51
359.99999
  0
ARC
  8
0
  6
CONTINUOUS
 62
     7
 10
-48.142319
 20
-178.77904
 40
4
 50
179.99999
 51
239.99998
  0
ARC
  8
0
  6
CONTINUOUS
 62
     7
 10
-46.142349
 20
-178.24315
 40
6
 50
90.000016
 51
180.00001
  0
ARC
  8
0
  6
CONTINUOUS
 62
     7
 10
-42.015732
 20
-178.24315
 40
6
 50
35.685303
 51
89.999975
  0
ARC
  8
0
  6
CONTINUOUS
 62
     7
 10
-77.142319
 20
-129.24315
 40
3
 50
306.00832
 51
53.991676
  0
ARC
  8
0
  6
CONTINUOUS
 62
     7
 10
-77.142319
 20
-129.24315
 40
4.5
 50
306.00832
 51
53.991676
  0
ARC
  8
0
  6
CONTINUOUS
 62
     7
 10
-83.142319
 20
-129.24315
 40
3
 50
126.00833
 51
233.99168
  0
ARC
  8
0
  6
CONTINUOUS
 62
     7
 10
-83.142319
 20
-129.24315
 40
4.5
 50
126.00833
 51
233.99168
  0
ARC
  8
0
  6
CONTINUOUS
 62
     7
 10
-80.142319
 20
-133.37103
 40
9.6028843
 50
53.991676
 51
85.520553
  0
ARC
  8
0
  6
CONTINUOUS
 62
     7
 10
-80.142319
 20
-133.37103
 40
8.1028843
 50
53.991676
 51
84.689121
  0
ARC
  8
0
  6
CONTINUOUS
 62
     7
 10
-80.142319
 20
-125.11526
 40
8.1028843
 50
233.99167
 51
306.00832
  0
ARC
  8
0
  6
CONTINUOUS
 62
     7
 10
-80.142319
 20
-125.11526
 40
9.6028843
 50
233.99167
 51
265.52055
  0
ARC
  8
0
  6
CONTINUOUS
 62
     7
 10
-80.142319
 20
-122.30564
 40
0.9375
 50
36.869897
 51
143.1301
  0
ARC
  8
0
  6
CONTINUOUS
 62
     7
 10
-80.142319
 20
-128.68065
 40
0.9375
 50
216.8699
 51
323.1301
  0
ARC
  8
0
  6
CONTINUOUS
 62
     7
 10
-80.142319
 20
-136.18065
 40
0.9375
 50
216.8699
 51
323.1301
  0
ARC
  8
0
  6
CONTINUOUS
 62
     7
 10
-80.142319
 20
-133.37103
 40
9.6028843
 50
94.479452
 51
126.00833
  0
ARC
  8
0
  6
CONTINUOUS
 62
     7
 10
-80.142319
 20
-133.37103
 40
8.1028843
 50
95.310878
 51
126.00833
  0
ARC
  8
0
  6
CONTINUOUS
 62
     7
 10
-80.142319
 20
-125.11526
 40
9.6028843
 50
274.47945
 51
306.00832
  0
ARC
  8
0
  6
CONTINUOUS
 62
     7
 10
112.87134
 20
-79.199188
 40
6
 50
269.99996
 51
324.31463
  0
ARC
  8
0
  6
CONTINUOUS
 62
     7
 10
26.618151
 20
-79.199188
 40
6
 50
215.68533
 51
270
  0
ARC
  8
0
  6
CONTINUOUS
 62
     7
 10
26.618151
 20
-177.19919
 40
6
 50
89.999996
 51
144.31467
  0
ARC
  8
0
  6
CONTINUOUS
 62
     7
 10
29.244738
 20
-177.19919
 40
6
 50
359.99998
 51
90.000016
  0
ARC
  8
0
  6
CONTINUOUS
 62
     7
 10
31.244753
 20
-178.73508
 40
4
 50
300.00001
 51
359.99999
  0
ARC
  8
0
  6
CONTINUOUS
 62
     7
 10
108.24475
 20
-178.73508
 40
4
 50
179.99999
 51
239.99998
  0
ARC
  8
0
  6
CONTINUOUS
 62
     7
 10
110.24472
 20
-177.19919
 40
6
 50
90.000016
 51
180.00001
  0
ARC
  8
0
  6
CONTINUOUS
 62
     7
 10
112.87134
 20
-177.19919
 40
6
 50
35.685303
 51
89.999975
  0
ARC
  8
0
  6
CONTINUOUS
 62
     7
 10
72.744751
 20
-128.19919
 40
3
 50
306.00832
 51
53.991676
  0
ARC
  8
0
  6
CONTINUOUS
 62
     7
 10
72.744751
 20
-128.19919
 40
4.5
 50
306.00832
 51
53.991676
  0
ARC
  8
0
  6
CONTINUOUS
 62
     7
 10
66.744751
 20
-128.19919
 40
3
 50
126.00833
 51
233.99168
  0
ARC
  8
0
  6
CONTINUOUS
 62
     7
 10
66.744751
 20
-128.19919
 40
4.5
 50
126.00833
 51
233.99168
  0
ARC
  8
0
  6
CONTINUOUS
 62
     7
 10
69.744751
 20
-132.32707
 40
9.6028843
 50
53.991676
 51
85.520553
  0
ARC
  8
0
  6
CONTINUOUS
 62
     7
 10
69.744751
 20
-132.32707
 40
8.1028843
 50
53.991676
 51
84.689121
  0
ARC
  8
0
  6
CONTINUOUS
 62
     7
 10
69.744751
 20
-124.0713
 40
8.1028843
 50
233.99167
 51
306.00832
  0
ARC
  8
0
  6
CONTINUOUS
 62
     7
 10
69.744751
 20
-124.0713
 40
9.6028843
 50
233.99167
 51
265.52055
  0
ARC
  8
0
  6
CONTINUOUS
 62
     7
 10
69.744751
 20
-121.26169
 40
0.9375
 50
36.869897
 51
143.1301
  0
ARC
  8
0
  6
CONTINUOUS
 62
     7
 10
69.744751
 20
-127.63669
 40
0.9375
 50
216.8699
 51
323.1301
  0
ARC
  8
0
  6
CONTINUOUS
 62
     7
 10
69.744751
 20
-135.13669
 40
0.9375
 50
216.8699
 51
323.1301
  0
ARC
  8
0
  6
CONTINUOUS
 62
     7
 10
69.744751
 20
-132.32707
 40
9.6028843
 50
94.479452
 51
126.00833
  0
ARC
  8
0
  6
CONTINUOUS
 62
     7
 10
69.744751
 20
-132.32707
 40
8.1028843
 50
95.310878
 51
126.00833
  0
ARC
  8
0
  6
CONTINUOUS
 62
     7
 10
69.744751
 20
-124.0713
 40
9.6028843
 50
274.47945
 51
306.00832
  0
ARC
  8
0
  6
CONTINUOUS
 62
     7
 10
-315.60852
 20
-361.17612
 40
10
 50
269.99996
 51
315.57296
  0
ARC
  8
0
  6
CONTINUOUS
 62
     7
 10
-367.32565
 20
-361.17612
 40
10
 50
224.427
 51
270
  0
ARC
  8
0
  6
CONTINUOUS
 62
     7
 10
-367.32565
 20
-480.17615
 40
10
 50
89.999996
 51
135.57298
  0
ARC
  8
0
  6
CONTINUOUS
 62
     7
 10
-363.9671
 20
-476.17615
 40
6
 50
359.99998
 51
90.000016
  0
ARC
  8
0
  6
CONTINUOUS
 62
     7
 10
-360.9671
 20
-478.07806
 40
3
 50
300.00001
 51
359.99999
  0
ARC
  8
0
  6
CONTINUOUS
 62
     7
 10
-321.9671
 20
-478.07806
 40
3
 50
179.99999
 51
239.99998
  0
ARC
  8
0
  6
CONTINUOUS
 62
     7
 10
-318.96713
 20
-476.17615
 40
6
 50
90.000016
 51
180.00001
  0
ARC
  8
0
  6
CONTINUOUS
 62
     7
 10
-315.60852
 20
-480.17615
 40
10
 50
44.426989
 51
89.999975
  0
ARC
  8
0
  6
CONTINUOUS
 62
     7
 10
-337.8671
 20
-420.67612
 40
3.5999999
 50
306.00832
 51
53.991676
  0
ARC
  8
0
  6
CONTINUOUS
 62
     7
 10
-337.8671
 20
-420.67612
 40
5.4000001
 50
306.00832
 51
53.991676
  0
ARC
  8
0
  6
CONTINUOUS
 62
     7
 10
-345.06708
 20
-420.67612
 40
3.5999999
 50
126.00833
 51
233.99168
  0
ARC
  8
0
  6
CONTINUOUS
 62
     7
 10
-345.06708
 20
-420.67612
 40
5.4000001
 50
126.00833
 51
233.99168
  0
ARC
  8
0
  6
CONTINUOUS
 62
     7
 10
-341.4671
 20
-425.62958
 40
11.523461
 50
53.991676
 51
85.520553
  0
ARC
  8
0
  6
CONTINUOUS
 62
     7
 10
-341.4671
 20
-425.62958
 40
9.7234612
 50
53.991676
 51
84.689121
  0
ARC
  8
0
  6
CONTINUOUS
 62
     7
 10
-341.4671
 20
-415.72266
 40
9.7234612
 50
233.99167
 51
306.00832
  0
ARC
  8
0
  6
CONTINUOUS
 62
     7
 10
-341.4671
 20
-415.72266
 40
11.523461
 50
233.99167
 51
265.52055
  0
ARC
  8
0
  6
CONTINUOUS
 62
     7
 10
-341.4671
 20
-412.35114
 40
1.125
 50
36.869897
 51
143.1301
  0
ARC
  8
0
  6
CONTINUOUS
 62
     7
 10
-341.4671
 20
-420.00113
 40
1.125
 50
216.8699
 51
323.1301
  0
ARC
  8
0
  6
CONTINUOUS
 62
     7
 10
-341.4671
 20
-429.00113
 40
1.125
 50
216.8699
 51
323.1301
  0
ARC
  8
0
  6
CONTINUOUS
 62
     7
 10
-341.4671
 20
-425.62958
 40
11.523461
 50
94.479452
 51
126.00833
  0
ARC
  8
0
  6
CONTINUOUS
 62
     7
 10
-341.4671
 20
-425.62958
 40
9.7234612
 50
95.310878
 51
126.00833
  0
ARC
  8
0
  6
CONTINUOUS
 62
     7
 10
-341.4671
 20
-415.72266
 40
11.523461
 50
274.47945
 51
306.00832
  0
ARC
  8
0
  6
CONTINUOUS
 62
     7
 10
-170.47377
 20
-360.68469
 40
10
 50
269.99996
 51
315.57296
  0
ARC
  8
0
  6
CONTINUOUS
 62
     7
 10
-230.19092
 20
-360.68469
 40
10
 50
224.427
 51
270
  0
ARC
  8
0
  6
CONTINUOUS
 62
     7
 10
-170.47377
 20
-479.68472
 40
10
 50
44.426989
 51
89.999975
  0
ARC
  8
0
  6
CONTINUOUS
 62
     7
 10
-171.83238
 20
-477.68472
 40
8
 50
90.000016
 51
180.00001
  0
ARC
  8
0
  6
CONTINUOUS
 62
     7
 10
-176.83235
 20
-478.58664
 40
3
 50
179.99999
 51
239.99998
  0
ARC
  8
0
  6
CONTINUOUS
 62
     7
 10
-223.83235
 20
-478.58664
 40
3
 50
300.00001
 51
359.99999
  0
ARC
  8
0
  6
CONTINUOUS
 62
     7
 10
-228.83237
 20
-477.68472
 40
8
 50
359.99998
 51
90.000016
  0
ARC
  8
0
  6
CONTINUOUS
 62
     7
 10
-230.19092
 20
-479.68472
 40
10
 50
89.999996
 51
135.57298
  0
ARC
  8
0
  6
CONTINUOUS
 62
     7
 10
-196.73235
 20
-420.18469
 40
3.5999999
 50
306.00832
 51
53.991676
  0
ARC
  8
0
  6
CONTINUOUS
 62
     7
 10
-196.73235
 20
-420.18469
 40
5.4000001
 50
306.00832
 51
53.991676
  0
ARC
  8
0
  6
CONTINUOUS
 62
     7
 10
-203.93236
 20
-420.18469
 40
3.5999999
 50
126.00833
 51
233.99168
  0
ARC
  8
0
  6
CONTINUOUS
 62
     7
 10
-203.93236
 20
-420.18469
 40
5.4000001
 50
126.00833
 51
233.99168
  0
ARC
  8
0
  6
CONTINUOUS
 62
     7
 10
-200.33235
 20
-425.13815
 40
11.523461
 50
53.991676
 51
85.520553
  0
ARC
  8
0
  6
CONTINUOUS
 62
     7
 10
-200.33235
 20
-425.13815
 40
9.7234612
 50
53.991676
 51
84.689121
  0
ARC
  8
0
  6
CONTINUOUS
 62
     7
 10
-200.33235
 20
-415.23123
 40
9.7234612
 50
233.99167
 51
306.00832
  0
ARC
  8
0
  6
CONTINUOUS
 62
     7
 10
-200.33235
 20
-415.23123
 40
11.523461
 50
233.99167
 51
265.52055
  0
ARC
  8
0
  6
CONTINUOUS
 62
     7
 10
-200.33235
 20
-411.85971
 40
1.125
 50
36.869897
 51
143.1301
  0
ARC
  8
0
  6
CONTINUOUS
 62
     7
 10
-200.33235
 20
-419.5097
 40
1.125
 50
216.8699
 51
323.1301
  0
ARC
  8
0
  6
CONTINUOUS
 62
     7
 10
-200.33235
 20
-428.5097
 40
1.125
 50
216.8699
 51
323.1301
  0
ARC
  8
0
  6
CONTINUOUS
 62
     7
 10
-200.33235
 20
-425.13815
 40
11.523461
 50
94.479452
 51
126.00833
  0
ARC
  8
0
  6
CONTINUOUS
 62
     7
 10
-200.33235
 20
-425.13815
 40
9.7234612
 50
95.310878
 51
126.00833
  0
ARC
  8
0
  6
CONTINUOUS
 62
     7
 10
-200.33235
 20
-415.23123
 40
11.523461
 50
274.47945
 51
306.00832
  0
ARC
  8
0
  6
CONTINUOUS
 62
     7
 10
2.2848048
 20
-358.49286
 40
10
 50
269.99996
 51
315.57296
  0
ARC
  8
0
  6
CONTINUOUS
 62
     7
 10
-73.432327
 20
-358.49286
 40
10
 50
224.427
 51
270
  0
ARC
  8
0
  6
CONTINUOUS
 62
     7
 10
-73.432327
 20
-477.49286
 40
10
 50
89.999996
 51
135.57298
  0
ARC
  8
0
  6
CONTINUOUS
 62
     7
 10
-72.573776
 20
-476.49286
 40
9
 50
359.99998
 51
90.000016
  0
ARC
  8
0
  6
CONTINUOUS
 62
     7
 10
-67.573776
 20
-477.52875
 40
4
 50
300.00001
 51
359.99999
  0
ARC
  8
0
  6
CONTINUOUS
 62
     7
 10
-3.5737767
 20
-477.52875
 40
4
 50
179.99999
 51
239.99998
  0
ARC
  8
0
  6
CONTINUOUS
 62
     7
 10
1.4262233
 20
-476.49286
 40
9
 50
90.000016
 51
180.00001
  0
ARC
  8
0
  6
CONTINUOUS
 62
     7
 10
2.2848048
 20
-477.49286
 40
10
 50
44.426989
 51
89.999975
  0
ARC
  8
0
  6
CONTINUOUS
 62
     7
 10
171.3062
 20
-358.49286
 40
10
 50
269.99996
 51
315.57296
  0
ARC
  8
0
  6
CONTINUOUS
 62
     7
 10
87.589096
 20
-358.49286
 40
10
 50
224.427
 51
270
  0
ARC
  8
0
  6
CONTINUOUS
 62
     7
 10
87.589096
 20
-477.49286
 40
10
 50
89.999996
 51
135.57298
  0
ARC
  8
0
  6
CONTINUOUS
 62
     7
 10
89.947617
 20
-472.49286
 40
5
 50
359.99998
 51
90.000016
  0
ARC
  8
0
  6
CONTINUOUS
 62
     7
 10
90.947617
 20
-475.52875
 40
4
 50
300.00001
 51
359.99999
  0
ARC
  8
0
  6
CONTINUOUS
 62
     7
 10
167.94762
 20
-475.52875
 40
4
 50
179.99999
 51
239.99998
  0
ARC
  8
0
  6
CONTINUOUS
 62
     7
 10
168.94762
 20
-472.49286
 40
5
 50
90.000016
 51
180.00001
  0
ARC
  8
0
  6
CONTINUOUS
 62
     7
 10
171.3062
 20
-477.49286
 40
10
 50
44.426989
 51
89.999975
  0
ARC
  8
0
  6
CONTINUOUS
 62
     7
 10
361.0856
 20
-478.8345
 40
10
 50
44.426989
 51
89.999975
  0
ARC
  8
0
  6
CONTINUOUS
 62
     7
 10
360.22696
 20
-476.8345
 40
8
 50
90.000016
 51
180.00001
  0
ARC
  8
0
  6
CONTINUOUS
 62
     7
 10
358.22702
 20
-477.46109
 40
6
 50
179.99999
 51
234.31467
  0
ARC
  8
0
  6
CONTINUOUS
 62
     7
 10
260.22702
 20
-477.46109
 40
6
 50
305.68533
 51
359.99999
  0
ARC
  8
0
  6
CONTINUOUS
 62
     7
 10
258.22702
 20
-476.8345
 40
8
 50
359.99998
 51
90.000016
  0
ARC
  8
0
  6
CONTINUOUS
 62
     7
 10
257.36844
 20
-478.8345
 40
10
 50
89.999996
 51
135.57298
  0
ARC
  8
0
  6
CONTINUOUS
 62
     7
 10
257.36844
 20
-359.8345
 40
10
 50
224.427
 51
270
  0
ARC
  8
0
  6
CONTINUOUS
 62
     7
 10
361.0856
 20
-359.8345
 40
10
 50
269.99996
 51
315.57296
  0
ARC
  8
0
  6
CONTINUOUS
 62
     7
 10
-31.973801
 20
-417.99286
 40
3.5999999
 50
306.00832
 51
53.991676
  0
ARC
  8
0
  6
CONTINUOUS
 62
     7
 10
-31.973801
 20
-417.99286
 40
5.4000001
 50
306.00832
 51
53.991676
  0
ARC
  8
0
  6
CONTINUOUS
 62
     7
 10
-39.173752
 20
-417.99286
 40
3.5999999
 50
126.00833
 51
233.99168
  0
ARC
  8
0
  6
CONTINUOUS
 62
     7
 10
-39.173752
 20
-417.99286
 40
5.4000001
 50
126.00833
 51
233.99168
  0
ARC
  8
0
  6
CONTINUOUS
 62
     7
 10
-35.573776
 20
-422.94632
 40
11.523461
 50
53.991676
 51
85.520553
  0
ARC
  8
0
  6
CONTINUOUS
 62
     7
 10
-35.573776
 20
-422.94632
 40
9.7234612
 50
53.991676
 51
84.689121
  0
ARC
  8
0
  6
CONTINUOUS
 62
     7
 10
-35.573776
 20
-413.0394
 40
9.7234612
 50
233.99167
 51
306.00832
  0
ARC
  8
0
  6
CONTINUOUS
 62
     7
 10
-35.573776
 20
-413.0394
 40
11.523461
 50
233.99167
 51
265.52055
  0
ARC
  8
0
  6
CONTINUOUS
 62
     7
 10
-35.573776
 20
-409.66785
 40
1.125
 50
36.869897
 51
143.1301
  0
ARC
  8
0
  6
CONTINUOUS
 62
     7
 10
-35.573776
 20
-417.31784
 40
1.125
 50
216.8699
 51
323.1301
  0
ARC
  8
0
  6
CONTINUOUS
 62
     7
 10
-35.573776
 20
-426.31784
 40
1.125
 50
216.8699
 51
323.1301
  0
ARC
  8
0
  6
CONTINUOUS
 62
     7
 10
-35.573776
 20
-422.94632
 40
11.523461
 50
94.479452
 51
126.00833
  0
ARC
  8
0
  6
CONTINUOUS
 62
     7
 10
-35.573776
 20
-422.94632
 40
9.7234612
 50
95.310878
 51
126.00833
  0
ARC
  8
0
  6
CONTINUOUS
 62
     7
 10
-35.573776
 20
-413.0394
 40
11.523461
 50
274.47945
 51
306.00832
  0
ARC
  8
0
  6
CONTINUOUS
 62
     7
 10
133.04759
 20
-417.99286
 40
3.5999999
 50
306.00832
 51
53.991676
  0
ARC
  8
0
  6
CONTINUOUS
 62
     7
 10
133.04759
 20
-417.99286
 40
5.4000001
 50
306.00832
 51
53.991676
  0
ARC
  8
0
  6
CONTINUOUS
 62
     7
 10
125.84764
 20
-417.99286
 40
3.5999999
 50
126.00833
 51
233.99168
  0
ARC
  8
0
  6
CONTINUOUS
 62
     7
 10
125.84764
 20
-417.99286
 40
5.4000001
 50
126.00833
 51
233.99168
  0
ARC
  8
0
  6
CONTINUOUS
 62
     7
 10
129.44762
 20
-422.94632
 40
11.523461
 50
53.991676
 51
85.520553
  0
ARC
  8
0
  6
CONTINUOUS
 62
     7
 10
129.44762
 20
-422.94632
 40
9.7234612
 50
53.991676
 51
84.689121
  0
ARC
  8
0
  6
CONTINUOUS
 62
     7
 10
129.44762
 20
-413.0394
 40
9.7234612
 50
233.99167
 51
306.00832
  0
ARC
  8
0
  6
CONTINUOUS
 62
     7
 10
129.44762
 20
-413.0394
 40
11.523461
 50
233.99167
 51
265.52055
  0
ARC
  8
0
  6
CONTINUOUS
 62
     7
 10
129.44762
 20
-409.66785
 40
1.125
 50
36.869897
 51
143.1301
  0
ARC
  8
0
  6
CONTINUOUS
 62
     7
 10
129.44762
 20
-417.31784
 40
1.125
 50
216.8699
 51
323.1301
  0
ARC
  8
0
  6
CONTINUOUS
 62
     7
 10
129.44762
 20
-426.31784
 40
1.125
 50
216.8699
 51
323.1301
  0
ARC
  8
0
  6
CONTINUOUS
 62
     7
 10
129.44762
 20
-422.94632
 40
11.523461
 50
94.479452
 51
126.00833
  0
ARC
  8
0
  6
CONTINUOUS
 62
     7
 10
129.44762
 20
-422.94632
 40
9.7234612
 50
95.310878
 51
126.00833
  0
ARC
  8
0
  6
CONTINUOUS
 62
     7
 10
129.44762
 20
-413.0394
 40
11.523461
 50
274.47945
 51
306.00832
  0
ARC
  8
0
  6
CONTINUOUS
 62
     7
 10
312.827
 20
-419.3345
 40
3.5999999
 50
306.00832
 51
53.991676
  0
ARC
  8
0
  6
CONTINUOUS
 62
     7
 10
312.827
 20
-419.3345
 40
5.4000001
 50
306.00832
 51
53.991676
  0
ARC
  8
0
  6
CONTINUOUS
 62
     7
 10
305.62704
 20
-419.3345
 40
3.5999999
 50
126.00833
 51
233.99168
  0
ARC
  8
0
  6
CONTINUOUS
 62
     7
 10
305.62704
 20
-419.3345
 40
5.4000001
 50
126.00833
 51
233.99168
  0
ARC
  8
0
  6
CONTINUOUS
 62
     7
 10
309.22702
 20
-424.28796
 40
11.523461
 50
53.991676
 51
85.520553
  0
ARC
  8
0
  6
CONTINUOUS
 62
     7
 10
309.22702
 20
-424.28796
 40
9.7234612
 50
53.991676
 51
84.689121
  0
ARC
  8
0
  6
CONTINUOUS
 62
     7
 10
309.22702
 20
-414.38104
 40
9.7234612
 50
233.99167
 51
306.00832
  0
ARC
  8
0
  6
CONTINUOUS
 62
     7
 10
309.22702
 20
-414.38104
 40
11.523461
 50
233.99167
 51
265.52055
  0
ARC
  8
0
  6
CONTINUOUS
 62
     7
 10
309.22702
 20
-411.00949
 40
1.125
 50
36.869897
 51
143.1301
  0
ARC
  8
0
  6
CONTINUOUS
 62
     7
 10
309.22702
 20
-418.65948
 40
1.125
 50
216.8699
 51
323.1301
  0
ARC
  8
0
  6
CONTINUOUS
 62
     7
 10
309.22702
 20
-427.65948
 40
1.125
 50
216.8699
 51
323.1301
  0
ARC
  8
0
  6
CONTINUOUS
 62
     7
 10
309.22702
 20
-424.28796
 40
11.523461
 50
94.479452
 51
126.00833
  0
ARC
  8
0
  6
CONTINUOUS
 62
     7
 10
309.22702
 20
-424.28796
 40
9.7234612
 50
95.310878
 51
126.00833
  0
ARC
  8
0
  6
CONTINUOUS
 62
     7
 10
309.22702
 20
-414.38104
 40
11.523461
 50
274.47945
 51
306.00832
  0
ARC
  8
0
  6
CONTINUOUS
 62
     7
 10
-359.14682
 20
-705.49646
 40
8
 50
359.99998
 51
90.000016
  0
ARC
  8
0
  6
CONTINUOUS
 62
     7
 10
-362.50537
 20
-707.49646
 40
10
 50
89.999996
 51
135.57298
  0
ARC
  8
0
  6
CONTINUOUS
 62
     7
 10
-355.14679
 20
-706.53235
 40
4
 50
300.00001
 51
359.99999
  0
ARC
  8
0
  6
CONTINUOUS
 62
     7
 10
-278.14679
 20
-706.53235
 40
4
 50
179.99999
 51
239.99998
  0
ARC
  8
0
  6
CONTINUOUS
 62
     7
 10
-274.14682
 20
-705.49646
 40
8
 50
90.000016
 51
180.00001
  0
ARC
  8
0
  6
CONTINUOUS
 62
     7
 10
-270.78821
 20
-707.49646
 40
10
 50
44.426989
 51
89.999975
  0
ARC
  8
0
  6
CONTINUOUS
 62
     7
 10
-270.78821
 20
-560.49646
 40
10
 50
269.99996
 51
315.57296
  0
ARC
  8
0
  6
CONTINUOUS
 62
     7
 10
-362.50537
 20
-560.49646
 40
10
 50
224.427
 51
270
  0
ARC
  8
0
  6
CONTINUOUS
 62
     7
 10
-313.04678
 20
-633.99646
 40
3.5999999
 50
306.00832
 51
53.991676
  0
ARC
  8
0
  6
CONTINUOUS
 62
     7
 10
-313.04678
 20
-633.99646
 40
5.4000001
 50
306.00832
 51
53.991676
  0
ARC
  8
0
  6
CONTINUOUS
 62
     7
 10
-320.2468
 20
-633.99646
 40
3.5999999
 50
126.00833
 51
233.99168
  0
ARC
  8
0
  6
CONTINUOUS
 62
     7
 10
-320.2468
 20
-633.99646
 40
5.4000001
 50
126.00833
 51
233.99168
  0
ARC
  8
0
  6
CONTINUOUS
 62
     7
 10
-316.64679
 20
-638.94995
 40
11.523461
 50
53.991676
 51
85.520553
  0
ARC
  8
0
  6
CONTINUOUS
 62
     7
 10
-316.64679
 20
-638.94995
 40
9.7234612
 50
53.991676
 51
84.689121
  0
ARC
  8
0
  6
CONTINUOUS
 62
     7
 10
-316.64679
 20
-629.04303
 40
9.7234612
 50
233.99167
 51
306.00832
  0
ARC
  8
0
  6
CONTINUOUS
 62
     7
 10
-316.64679
 20
-629.04303
 40
11.523461
 50
233.99167
 51
265.52055
  0
ARC
  8
0
  6
CONTINUOUS
 62
     7
 10
-316.64679
 20
-625.67145
 40
1.125
 50
36.869897
 51
143.1301
  0
ARC
  8
0
  6
CONTINUOUS
 62
     7
 10
-316.64679
 20
-633.32147
 40
1.125
 50
216.8699
 51
323.1301
  0
ARC
  8
0
  6
CONTINUOUS
 62
     7
 10
-316.64679
 20
-642.32147
 40
1.125
 50
216.8699
 51
323.1301
  0
ARC
  8
0
  6
CONTINUOUS
 62
     7
 10
-316.64679
 20
-638.94995
 40
11.523461
 50
94.479452
 51
126.00833
  0
ARC
  8
0
  6
CONTINUOUS
 62
     7
 10
-316.64679
 20
-638.94995
 40
9.7234612
 50
95.310878
 51
126.00833
  0
ARC
  8
0
  6
CONTINUOUS
 62
     7
 10
-316.64679
 20
-629.04303
 40
11.523461
 50
274.47945
 51
306.00832
  0
ARC
  8
0
  6
CONTINUOUS
 62
     7
 10
-56.996181
 20
-561.4798
 40
10
 50
269.99996
 51
315.57296
  0
ARC
  8
0
  6
CONTINUOUS
 62
     7
 10
-176.71333
 20
-561.4798
 40
10
 50
224.427
 51
270
  0
ARC
  8
0
  6
CONTINUOUS
 62
     7
 10
-176.71333
 20
-708.4798
 40
10
 50
89.999996
 51
135.57298
  0
ARC
  8
0
  6
CONTINUOUS
 62
     7
 10
-175.3548
 20
-707.4798
 40
9
 50
5.0924746
 51
90.000016
  0
ARC
  8
0
  6
CONTINUOUS
 62
     7
 10
-176.35477
 20
-705.83838
 40
10
 50
314.427
 51
355.16687
  0
ARC
  8
0
  6
CONTINUOUS
 62
     7
 10
-57.354763
 20
-705.83838
 40
10
 50
184.83114
 51
225.57298
  0
ARC
  8
0
  6
CONTINUOUS
 62
     7
 10
-58.354794
 20
-707.4798
 40
9
 50
90.000016
 51
174.90527
  0
ARC
  8
0
  6
CONTINUOUS
 62
     7
 10
-56.996181
 20
-708.4798
 40
10
 50
44.426989
 51
89.999975
  0
ARC
  8
0
  6
CONTINUOUS
 62
     7
 10
-113.25475
 20
-634.9798
 40
3.5999999
 50
306.00832
 51
53.991676
  0
ARC
  8
0
  6
CONTINUOUS
 62
     7
 10
-113.25475
 20
-634.9798
 40
5.4000001
 50
306.00832
 51
53.991676
  0
ARC
  8
0
  6
CONTINUOUS
 62
     7
 10
-120.45477
 20
-634.9798
 40
3.5999999
 50
126.00833
 51
233.99168
  0
ARC
  8
0
  6
CONTINUOUS
 62
     7
 10
-120.45477
 20
-634.9798
 40
5.4000001
 50
126.00833
 51
233.99168
  0
ARC
  8
0
  6
CONTINUOUS
 62
     7
 10
-116.85476
 20
-639.93329
 40
11.523461
 50
53.991676
 51
85.520553
  0
ARC
  8
0
  6
CONTINUOUS
 62
     7
 10
-116.85476
 20
-639.93329
 40
9.7234612
 50
53.991676
 51
84.689121
  0
ARC
  8
0
  6
CONTINUOUS
 62
     7
 10
-116.85476
 20
-630.02631
 40
9.7234612
 50
233.99167
 51
306.00832
  0
ARC
  8
0
  6
CONTINUOUS
 62
     7
 10
-116.85476
 20
-630.02631
 40
11.523461
 50
233.99167
 51
265.52055
  0
ARC
  8
0
  6
CONTINUOUS
 62
     7
 10
-116.85476
 20
-626.65479
 40
1.125
 50
36.869897
 51
143.1301
  0
ARC
  8
0
  6
CONTINUOUS
 62
     7
 10
-116.85476
 20
-634.30481
 40
1.125
 50
216.8699
 51
323.1301
  0
ARC
  8
0
  6
CONTINUOUS
 62
     7
 10
-116.85476
 20
-643.30481
 40
1.125
 50
216.8699
 51
323.1301
  0
ARC
  8
0
  6
CONTINUOUS
 62
     7
 10
-116.85476
 20
-639.93329
 40
11.523461
 50
94.479452
 51
126.00833
  0
ARC
  8
0
  6
CONTINUOUS
 62
     7
 10
-116.85476
 20
-639.93329
 40
9.7234612
 50
95.310878
 51
126.00833
  0
ARC
  8
0
  6
CONTINUOUS
 62
     7
 10
-116.85476
 20
-630.02631
 40
11.523461
 50
274.47945
 51
306.00832
  0
TEXT
  8
0
  6
CONTINUOUS
 62
     7
 10
-379.08815
 20
266.396
 40
12
 41
0.84289036
  1
ＲＣＦ－Ｋ　ＲＴ（径違いチーズ）
  0
TEXT
  8
0
  6
CONTINUOUS
 62
     7
 10
-378.33755
 20
231.30495
 40
8
 41
1.0071429
  1
3/4X1/2
  0
TEXT
  8
0
  6
CONTINUOUS
 62
     7
 10
-284.30691
 20
233.17296
 40
8
 41
1.0102041
  1
1X1/2
  0
TEXT
  8
0
  6
CONTINUOUS
 62
     7
 10
-196.01233
 20
237.43692
 40
8
 41
1.0102041
  1
1X3/4
  0
TEXT
  8
0
  6
CONTINUOUS
 62
     7
 10
-110.66188
 20
238.04099
 40
8
 41
1.0062112
  1
11/4X3/4
  0
TEXT
  8
0
  6
CONTINUOUS
 62
     7
 10
7.1403782
 20
235.51305
 40
8
 41
1.0084034
  1
11/4X1
  0
TEXT
  8
0
  6
CONTINUOUS
 62
     7
 10
108.94263
 20
230.51305
 40
8
 41
1.0062112
  1
11/2X1/2
  0
TEXT
  8
0
  6
CONTINUOUS
 62
     7
 10
224.40479
 20
231.24908
 40
8
 41
1.0062112
  1
11/2X3/4
  0
TEXT
  8
0
  6
CONTINUOUS
 62
     7
 10
-369.80963
 20
93.883316
 40
8
 41
1.0084034
  1
11/2X1
  0
TEXT
  8
0
  6
CONTINUOUS
 62
     7
 10
-274.23433
 20
91.756683
 40
8
 41
1.0054945
  1
11/2X11/4
  0
TEXT
  8
0
  6
CONTINUOUS
 62
     7
 10
-141.67719
 20
88.223412
 40
8
 41
1.0102041
  1
2X3/4
  0
TEXT
  8
0
  6
CONTINUOUS
 62
     7
 10
-14.819081
 20
93.091438
 40
8
 41
1.0178573
  1
2X1
  0
TEXT
  8
0
  6
CONTINUOUS
 62
     7
 10
96.566959
 20
95.22345
 40
8
 41
1.0084034
  1
2X11/4
  0
TEXT
  8
0
  6
CONTINUOUS
 62
     7
 10
238.0647
 20
95.827484
 40
8
 41
1.0084034
  1
2X11/2
  0
TEXT
  8
0
  6
CONTINUOUS
 62
     7
 10
-372.72699
 20
-79.635544
 40
8
 41
1.0062112
  1
21/2X3/4
  0
TEXT
  8
0
  6
CONTINUOUS
 62
     7
 10
-241.40419
 20
-79.344025
 40
8
 41
1.0084034
  1
21/2X1
  0
TEXT
  8
0
  6
CONTINUOUS
 62
     7
 10
-114.99946
 20
-75.243141
 40
8
 41
1.0054945
  1
21/2X11/2
  0
TEXT
  8
0
  6
CONTINUOUS
 62
     7
 10
46.887607
 20
-74.199188
 40
8
 41
1.0084034
  1
21/2X2
  0
TEXT
  8
0
  6
CONTINUOUS
 62
     7
 10
-360.32425
 20
-360.17612
 40
8
 41
1.0102041
  1
3X3/4
  0
TEXT
  8
0
  6
CONTINUOUS
 62
     7
 10
-211.1895
 20
-359.68469
 40
8
 41
1.0178573
  1
3X1
  0
TEXT
  8
0
  6
CONTINUOUS
 62
     7
 10
-58.43092
 20
-357.49286
 40
8
 41
1.0084034
  1
3X11/2
  0
TEXT
  8
0
  6
CONTINUOUS
 62
     7
 10
118.59047
 20
-357.49286
 40
8
 41
1.0178573
  1
3X2
  0
TEXT
  8
0
  6
CONTINUOUS
 62
     7
 10
286.36988
 20
-358.8345
 40
8
 41
1.0084034
  1
3X21/2
  0
TEXT
  8
0
  6
CONTINUOUS
 62
     7
 10
-327.50393
 20
-559.49646
 40
8
 41
1.0178573
  1
4X2
  0
TEXT
  8
0
  6
CONTINUOUS
 62
     7
 10
-127.7119
 20
-560.4798
 40
8
 41
1.0178573
  1
4X3
  0
POINT
  8
1
  6
CONTINUOUS
 62
     7
 10
410
 20
-297.5
  0
POINT
  8
1
  6
CONTINUOUS
 62
     7
 10
410
 20
-317.5
  0
POINT
  8
1
  6
CONTINUOUS
 62
     7
 10
410
 20
-317.5
  0
POINT
  8
1
  6
CONTINUOUS
 62
     7
 10
410
 20
297.5
  0
LINE
  8
1
  6
CONTINUOUS
 62
     7
 10
-429
 20
-912.5
 11
410
 21
-912.5
  0
LINE
  8
1
  6
CONTINUOUS
 62
     7
 10
-429
 20
-317.5
 11
-429
 21
-912.5
  0
LINE
  8
1
  6
CONTINUOUS
 62
     7
 10
410
 20
-317.5
 11
410
 21
-912.5
  0
LINE
  8
1
  6
CONTINUOUS
 62
     7
 10
-429
 20
-317.5
 11
410
 21
-317.5
  0
LINE
  8
1
  6
CONTINUOUS
 62
     7
 10
-429
 20
-297.5
 11
410
 21
-297.5
  0
LINE
  8
1
  6
CONTINUOUS
 62
     7
 10
410
 20
297.5
 11
410
 21
-297.5
  0
LINE
  8
1
  6
CONTINUOUS
 62
     7
 10
-429
 20
297.5
 11
410
 21
297.5
  0
LINE
  8
1
  6
CONTINUOUS
 62
     7
 10
-429
 20
297.5
 11
-429
 21
-297.5
  0
ENDSEC
  0
EOF
