  0
SECTION
  2
HEADER
  9
$EXTMAX
 10
1259
 20
-913.5
  9
$EXTMIN
 10
417
 20
-1507.5
  0
ENDSEC
  0
SECTION
  2
TABLES
  0
TABLE
  2
LTYPE
 70
    22
  0
LTYPE
  2
CONTINUOUS
 70
    64
  3
Solid line
 72
    65
 73
     0
 40
0.000000
  0
LTYPE
  2
DASHED
 70
    64
  3
__ __ __ __ __ __ __ __ __ __ __ __ __ __ __
 72
    65
 73
     2
 40
3.500000
 49
2.000000
 49
-1.500000
  0
LTYPE
  2
CENTER
 70
    64
  3
____ _ ____ _ ____ _ ____ _ ____ _ ____ _ ____
 72
    65
 73
     4
 40
17.500000
 49
13.000000
 49
-1.500000
 49
1.500000
 49
-1.500000
  0
LTYPE
  2
PHANTOM
 70
    64
  3
_____ _ _ _____ _ _ _____ _ _ _____ _ _ ____  
 72
    65
 73
     6
 40
15.500000
 49
8.000000
 49
-1.500000
 49
1.500000
 49
-1.500000
 49
1.500000
 49
-1.500000
  0
LTYPE
  2
DOT
 70
    64
  3
. . . . . . . . . . . . . . . . . . . . . . . .
 72
    65
 73
     2
 40
0.25
 49
0.0
 49
-0.25
  0
ENDTAB
  0
TABLE
  2
LAYER
 70
     2
  0
LAYER
  2
0
 70
     0
 62
     7
  6
CONTINUOUS
  0
LAYER
  2
1
 70
     0
 62
     7
  6
CONTINUOUS
  0
ENDTAB
  0
TABLE
  2
STYLE
 70
     1
  0
STYLE
  2
STANDARD
 70
     0
 40
0.000000
 41
1.000000
 50
0.000000
 71
     0
 42
0.200000
  3
txt
  4
BIGFONT
  0
ENDTAB
  0
TABLE
  2
VIEW
 70
     0
  0
ENDTAB
  0
ENDSEC
  0
SECTION
  2
BLOCKS
  0
ENDSEC
  0
SECTION
  2
ENTITIES
  0
POINT
  8
0
  6
CONTINUOUS
 62
     7
 10
-363.27036
 20
189.48831
  0
POINT
  8
0
  6
CONTINUOUS
 62
     7
 10
-363.27036
 20
189.48831
  0
POINT
  8
0
  6
CONTINUOUS
 62
     7
 10
-284.23245
 20
188.47501
  0
POINT
  8
0
  6
CONTINUOUS
 62
     7
 10
-215.11133
 20
188.47501
  0
POINT
  8
0
  6
CONTINUOUS
 62
     7
 10
-284.23245
 20
188.47501
  0
POINT
  8
0
  6
CONTINUOUS
 62
     7
 10
-215.11133
 20
188.47501
  0
POINT
  8
0
  6
CONTINUOUS
 62
     7
 10
-126.15665
 20
189.48831
  0
POINT
  8
0
  6
CONTINUOUS
 62
     7
 10
-39.755257
 20
189.48831
  0
POINT
  8
0
  6
CONTINUOUS
 62
     7
 10
-126.15665
 20
189.48831
  0
POINT
  8
0
  6
CONTINUOUS
 62
     7
 10
-39.755257
 20
189.48831
  0
POINT
  8
0
  6
CONTINUOUS
 62
     7
 10
40.742554
 20
190.79878
  0
POINT
  8
0
  6
CONTINUOUS
 62
     7
 10
127.14395
 20
190.79878
  0
POINT
  8
0
  6
CONTINUOUS
 62
     7
 10
213.54535
 20
190.79878
  0
POINT
  8
0
  6
CONTINUOUS
 62
     7
 10
40.742554
 20
190.79878
  0
POINT
  8
0
  6
CONTINUOUS
 62
     7
 10
127.14395
 20
190.79878
  0
POINT
  8
0
  6
CONTINUOUS
 62
     7
 10
213.54535
 20
190.79878
  0
POINT
  8
0
  6
CONTINUOUS
 62
     7
 10
-360.86652
 20
35.281487
  0
POINT
  8
0
  6
CONTINUOUS
 62
     7
 10
-274.46512
 20
35.281487
  0
POINT
  8
0
  6
CONTINUOUS
 62
     7
 10
-360.86652
 20
35.281487
  0
POINT
  8
0
  6
CONTINUOUS
 62
     7
 10
-274.46512
 20
35.281487
  0
POINT
  8
0
  6
CONTINUOUS
 62
     7
 10
-178.1906
 20
33.706696
  0
POINT
  8
0
  6
CONTINUOUS
 62
     7
 10
-79.446136
 20
33.706696
  0
POINT
  8
0
  6
CONTINUOUS
 62
     7
 10
-178.1906
 20
33.706696
  0
POINT
  8
0
  6
CONTINUOUS
 62
     7
 10
-79.446136
 20
33.706696
  0
POINT
  8
0
  6
CONTINUOUS
 62
     7
 10
44.642509
 20
35.281487
  0
POINT
  8
0
  6
CONTINUOUS
 62
     7
 10
44.642509
 20
35.281487
  0
POINT
  8
0
  6
CONTINUOUS
 62
     7
 10
143.38698
 20
35.281487
  0
POINT
  8
0
  6
CONTINUOUS
 62
     7
 10
143.38698
 20
35.281487
  0
POINT
  8
0
  6
CONTINUOUS
 62
     7
 10
-92.364418
 20
-130.0717
  0
POINT
  8
0
  6
CONTINUOUS
 62
     7
 10
-92.364418
 20
-130.0717
  0
POINT
  8
0
  6
CONTINUOUS
 62
     7
 10
21.61747
 20
-130.0717
  0
POINT
  8
0
  6
CONTINUOUS
 62
     7
 10
21.61747
 20
-130.0717
  0
POINT
  8
0
  6
CONTINUOUS
 62
     7
 10
142.27963
 20
-130.0717
  0
POINT
  8
0
  6
CONTINUOUS
 62
     7
 10
142.27963
 20
-130.0717
  0
LINE
  8
0
  6
CENTER
 62
     7
 10
-340.07037
 20
189.48831
 11
-386.47037
 21
189.48831
  0
LINE
  8
0
  6
CONTINUOUS
 62
     7
 10
-368.27036
 20
172.98831
 11
-382.27036
 21
172.98831
  0
LINE
  8
0
  6
CONTINUOUS
 62
     7
 10
-366.98636
 20
171.48831
 11
-375.27036
 21
171.48831
  0
LINE
  8
0
  6
CONTINUOUS
 62
     7
 10
-375.27036
 20
171.48831
 11
-375.27036
 21
172.98831
  0
LINE
  8
0
  6
CONTINUOUS
 62
     7
 10
-357.59329
 20
175.98831
 11
-344.27036
 21
175.98831
  0
LINE
  8
0
  6
CONTINUOUS
 62
     7
 10
-357.59329
 20
202.98831
 11
-344.27036
 21
202.98831
  0
LINE
  8
0
  6
CONTINUOUS
 62
     7
 10
-368.27036
 20
205.98831
 11
-382.27036
 21
205.98831
  0
LINE
  8
0
  6
CONTINUOUS
 62
     7
 10
-366.98636
 20
207.48831
 11
-375.27036
 21
207.48831
  0
LINE
  8
0
  6
CONTINUOUS
 62
     7
 10
-375.27036
 20
207.48831
 11
-375.27036
 21
205.98831
  0
LINE
  8
0
  6
CONTINUOUS
 62
     7
 10
-344.27036
 20
202.98831
 11
-344.27036
 21
175.98831
  0
LINE
  8
0
  6
CONTINUOUS
 62
     7
 10
-382.27036
 20
205.98831
 11
-382.27036
 21
172.98831
  0
LINE
  8
0
  6
CONTINUOUS
 62
     7
 10
-375.83344
 20
192.42694
 11
-375.83344
 21
191.60521
  0
LINE
  8
0
  6
CONTINUOUS
 62
     7
 10
-376.43344
 20
192.42694
 11
-376.43344
 21
191.60521
  0
LINE
  8
0
  6
CONTINUOUS
 62
     7
 10
-376.43344
 20
187.24867
 11
-376.43344
 21
186.42694
  0
LINE
  8
0
  6
CONTINUOUS
 62
     7
 10
-375.83344
 20
187.24867
 11
-375.83344
 21
186.42694
  0
LINE
  8
0
  6
CONTINUOUS
 62
     7
 10
-376.43344
 20
191.00302
 11
-376.43344
 21
189.42694
  0
LINE
  8
0
  6
CONTINUOUS
 62
     7
 10
-375.83344
 20
191.00302
 11
-375.83344
 21
189.42694
  0
LINE
  8
0
  6
CONTINUOUS
 62
     7
 10
-288.46121
 20
167.97501
 11
-305.23245
 21
167.97501
  0
LINE
  8
0
  6
CONTINUOUS
 62
     7
 10
-290.0882
 20
166.47501
 11
-298.23245
 21
166.47501
  0
LINE
  8
0
  6
CONTINUOUS
 62
     7
 10
-298.23245
 20
166.47501
 11
-298.23245
 21
167.97501
  0
LINE
  8
0
  6
CONTINUOUS
 62
     7
 10
-275.23245
 20
174.97501
 11
-263.23245
 21
174.97501
  0
LINE
  8
0
  6
CONTINUOUS
 62
     7
 10
-275.23245
 20
201.97501
 11
-263.23245
 21
201.97501
  0
LINE
  8
0
  6
CONTINUOUS
 62
     7
 10
-288.46121
 20
208.97501
 11
-305.23245
 21
208.97501
  0
LINE
  8
0
  6
CONTINUOUS
 62
     7
 10
-290.0882
 20
210.47501
 11
-298.23245
 21
210.47501
  0
LINE
  8
0
  6
CONTINUOUS
 62
     7
 10
-298.23245
 20
210.47501
 11
-298.23245
 21
208.97501
  0
LINE
  8
0
  6
CENTER
 62
     7
 10
-259.03247
 20
188.47501
 11
-309.43246
 21
188.47501
  0
LINE
  8
0
  6
CONTINUOUS
 62
     7
 10
-263.23245
 20
201.97501
 11
-263.23245
 21
174.97501
  0
LINE
  8
0
  6
CONTINUOUS
 62
     7
 10
-305.23245
 20
208.97501
 11
-305.23245
 21
167.97501
  0
LINE
  8
0
  6
CENTER
 62
     7
 10
-189.91135
 20
188.47501
 11
-240.31133
 21
188.47501
  0
LINE
  8
0
  6
CONTINUOUS
 62
     7
 10
-229.11133
 20
166.47501
 11
-229.11133
 21
167.97501
  0
LINE
  8
0
  6
CONTINUOUS
 62
     7
 10
-220.11133
 20
167.97501
 11
-236.11133
 21
167.97501
  0
LINE
  8
0
  6
CONTINUOUS
 62
     7
 10
-219.03665
 20
166.47501
 11
-229.11133
 21
166.47501
  0
LINE
  8
0
  6
CONTINUOUS
 62
     7
 10
-208.11133
 20
171.97501
 11
-194.11133
 21
171.97501
  0
LINE
  8
0
  6
CONTINUOUS
 62
     7
 10
-208.11133
 20
204.97501
 11
-194.11133
 21
204.97501
  0
LINE
  8
0
  6
CONTINUOUS
 62
     7
 10
-219.03665
 20
210.47501
 11
-229.11133
 21
210.47501
  0
LINE
  8
0
  6
CONTINUOUS
 62
     7
 10
-220.11133
 20
208.97501
 11
-236.11133
 21
208.97501
  0
LINE
  8
0
  6
CONTINUOUS
 62
     7
 10
-229.11133
 20
210.47501
 11
-229.11133
 21
208.97501
  0
LINE
  8
0
  6
CONTINUOUS
 62
     7
 10
-194.11133
 20
204.97501
 11
-194.11133
 21
171.97501
  0
LINE
  8
0
  6
CONTINUOUS
 62
     7
 10
-236.11133
 20
208.97501
 11
-236.11133
 21
167.97501
  0
LINE
  8
0
  6
CONTINUOUS
 62
     7
 10
-297.3569
 20
193.10228
 11
-297.3569
 21
191.86967
  0
LINE
  8
0
  6
CONTINUOUS
 62
     7
 10
-298.2569
 20
193.10228
 11
-298.2569
 21
191.86967
  0
LINE
  8
0
  6
CONTINUOUS
 62
     7
 10
-298.2569
 20
185.33488
 11
-298.2569
 21
184.10228
  0
LINE
  8
0
  6
CONTINUOUS
 62
     7
 10
-297.3569
 20
185.33488
 11
-297.3569
 21
184.10228
  0
LINE
  8
0
  6
CONTINUOUS
 62
     7
 10
-298.2569
 20
190.96642
 11
-298.2569
 21
188.60228
  0
LINE
  8
0
  6
CONTINUOUS
 62
     7
 10
-297.3569
 20
190.96642
 11
-297.3569
 21
188.60228
  0
LINE
  8
0
  6
CONTINUOUS
 62
     7
 10
-228.07666
 20
193.04659
 11
-228.07666
 21
191.81398
  0
LINE
  8
0
  6
CONTINUOUS
 62
     7
 10
-228.97668
 20
193.04659
 11
-228.97668
 21
191.81398
  0
LINE
  8
0
  6
CONTINUOUS
 62
     7
 10
-228.97668
 20
185.27919
 11
-228.97668
 21
184.04659
  0
LINE
  8
0
  6
CONTINUOUS
 62
     7
 10
-228.07666
 20
185.27919
 11
-228.07666
 21
184.04659
  0
LINE
  8
0
  6
CONTINUOUS
 62
     7
 10
-228.97668
 20
190.91072
 11
-228.97668
 21
188.54659
  0
LINE
  8
0
  6
CONTINUOUS
 62
     7
 10
-228.07666
 20
190.91072
 11
-228.07666
 21
188.54659
  0
LINE
  8
0
  6
CENTER
 62
     7
 10
-97.956673
 20
189.48831
 11
-154.55664
 21
189.48831
  0
LINE
  8
0
  6
CONTINUOUS
 62
     7
 10
-131.71063
 20
164.48831
 11
-150.15665
 21
164.48831
  0
LINE
  8
0
  6
CONTINUOUS
 62
     7
 10
-142.15665
 20
162.98831
 11
-142.15665
 21
164.48831
  0
LINE
  8
0
  6
CONTINUOUS
 62
     7
 10
-133.41678
 20
162.98831
 11
-142.15665
 21
162.98831
  0
LINE
  8
0
  6
CONTINUOUS
 62
     7
 10
-113.15665
 20
172.98831
 11
-102.15665
 21
172.98831
  0
LINE
  8
0
  6
CONTINUOUS
 62
     7
 10
-113.15665
 20
205.98831
 11
-102.15665
 21
205.98831
  0
LINE
  8
0
  6
CONTINUOUS
 62
     7
 10
-131.71063
 20
214.4883
 11
-150.15665
 21
214.4883
  0
LINE
  8
0
  6
CONTINUOUS
 62
     7
 10
-133.41678
 20
215.9883
 11
-142.15665
 21
215.9883
  0
LINE
  8
0
  6
CONTINUOUS
 62
     7
 10
-142.15665
 20
215.9883
 11
-142.15665
 21
214.4883
  0
LINE
  8
0
  6
CONTINUOUS
 62
     7
 10
-102.15665
 20
205.98831
 11
-102.15665
 21
172.98831
  0
LINE
  8
0
  6
CONTINUOUS
 62
     7
 10
-150.15665
 20
214.4883
 11
-150.15665
 21
164.48831
  0
LINE
  8
0
  6
CENTER
 62
     7
 10
-11.555259
 20
189.48831
 11
-68.155251
 21
189.48831
  0
LINE
  8
0
  6
CONTINUOUS
 62
     7
 10
-45.584572
 20
164.48831
 11
-63.755257
 21
164.48831
  0
LINE
  8
0
  6
CONTINUOUS
 62
     7
 10
-55.755257
 20
162.98831
 11
-55.755257
 21
164.48831
  0
LINE
  8
0
  6
CONTINUOUS
 62
     7
 10
-45.867836
 20
162.98831
 11
-55.755257
 21
162.98831
  0
LINE
  8
0
  6
CONTINUOUS
 62
     7
 10
-31.755255
 20
168.98831
 11
-15.755256
 21
168.98831
  0
LINE
  8
0
  6
CONTINUOUS
 62
     7
 10
-31.755255
 20
209.9883
 11
-15.755256
 21
209.9883
  0
LINE
  8
0
  6
CONTINUOUS
 62
     7
 10
-45.867836
 20
215.9883
 11
-55.755257
 21
215.9883
  0
LINE
  8
0
  6
CONTINUOUS
 62
     7
 10
-45.584572
 20
214.4883
 11
-63.755257
 21
214.4883
  0
LINE
  8
0
  6
CONTINUOUS
 62
     7
 10
-55.755257
 20
215.9883
 11
-55.755257
 21
214.4883
  0
LINE
  8
0
  6
CONTINUOUS
 62
     7
 10
-15.755256
 20
209.9883
 11
-15.755256
 21
168.98831
  0
LINE
  8
0
  6
CONTINUOUS
 62
     7
 10
-63.755257
 20
214.4883
 11
-63.755257
 21
164.48831
  0
LINE
  8
0
  6
CONTINUOUS
 62
     7
 10
-141.32397
 20
194.03717
 11
-141.32397
 21
192.80457
  0
LINE
  8
0
  6
CONTINUOUS
 62
     7
 10
-142.224
 20
194.03717
 11
-142.224
 21
192.80457
  0
LINE
  8
0
  6
CONTINUOUS
 62
     7
 10
-142.224
 20
186.26976
 11
-142.224
 21
185.03717
  0
LINE
  8
0
  6
CONTINUOUS
 62
     7
 10
-141.32397
 20
186.26976
 11
-141.32397
 21
185.03717
  0
LINE
  8
0
  6
CONTINUOUS
 62
     7
 10
-142.224
 20
191.90129
 11
-142.224
 21
189.53717
  0
LINE
  8
0
  6
CONTINUOUS
 62
     7
 10
-141.32397
 20
191.90129
 11
-141.32397
 21
189.53717
  0
LINE
  8
0
  6
CONTINUOUS
 62
     7
 10
-55.10807
 20
194.15535
 11
-55.10807
 21
192.92276
  0
LINE
  8
0
  6
CONTINUOUS
 62
     7
 10
-56.008095
 20
194.15535
 11
-56.008095
 21
192.92276
  0
LINE
  8
0
  6
CONTINUOUS
 62
     7
 10
-56.008095
 20
186.38795
 11
-56.008095
 21
185.15535
  0
LINE
  8
0
  6
CONTINUOUS
 62
     7
 10
-55.10807
 20
186.38795
 11
-55.10807
 21
185.15535
  0
LINE
  8
0
  6
CONTINUOUS
 62
     7
 10
-56.008095
 20
192.01949
 11
-56.008095
 21
189.65535
  0
LINE
  8
0
  6
CONTINUOUS
 62
     7
 10
-55.10807
 20
192.01949
 11
-55.10807
 21
189.65535
  0
LINE
  8
0
  6
CENTER
 62
     7
 10
70.942551
 20
190.79878
 11
10.342551
 21
190.79878
  0
LINE
  8
0
  6
CONTINUOUS
 62
     7
 10
33.742554
 20
162.79878
 11
14.742553
 21
162.79878
  0
LINE
  8
0
  6
CONTINUOUS
 62
     7
 10
23.742552
 20
160.79878
 11
23.742552
 21
162.79878
  0
LINE
  8
0
  6
CONTINUOUS
 62
     7
 10
32.885544
 20
160.79878
 11
23.742552
 21
160.79878
  0
LINE
  8
0
  6
CONTINUOUS
 62
     7
 10
59.232742
 20
174.29878
 11
66.742554
 21
174.29878
  0
LINE
  8
0
  6
CONTINUOUS
 62
     7
 10
59.232742
 20
207.29878
 11
66.742554
 21
207.29878
  0
LINE
  8
0
  6
CONTINUOUS
 62
     7
 10
33.742554
 20
218.79877
 11
14.742553
 21
218.79877
  0
LINE
  8
0
  6
CONTINUOUS
 62
     7
 10
32.885544
 20
220.79877
 11
23.742552
 21
220.79877
  0
LINE
  8
0
  6
CONTINUOUS
 62
     7
 10
23.742552
 20
220.79877
 11
23.742552
 21
218.79877
  0
LINE
  8
0
  6
CONTINUOUS
 62
     7
 10
66.742554
 20
207.29878
 11
66.742554
 21
174.29878
  0
LINE
  8
0
  6
CONTINUOUS
 62
     7
 10
14.742553
 20
218.79877
 11
14.742553
 21
162.79878
  0
LINE
  8
0
  6
CONTINUOUS
 62
     7
 10
120.14395
 20
162.79878
 11
101.14395
 21
162.79878
  0
LINE
  8
0
  6
CONTINUOUS
 62
     7
 10
110.14395
 20
160.79878
 11
110.14395
 21
162.79878
  0
LINE
  8
0
  6
CONTINUOUS
 62
     7
 10
118.93367
 20
160.79878
 11
110.14395
 21
160.79878
  0
LINE
  8
0
  6
CONTINUOUS
 62
     7
 10
139.98709
 20
170.29878
 11
153.14395
 21
170.29878
  0
LINE
  8
0
  6
CONTINUOUS
 62
     7
 10
139.98709
 20
211.29877
 11
153.14395
 21
211.29877
  0
LINE
  8
0
  6
CONTINUOUS
 62
     7
 10
118.93367
 20
220.79877
 11
110.14395
 21
220.79877
  0
LINE
  8
0
  6
CONTINUOUS
 62
     7
 10
120.14395
 20
218.79877
 11
101.14395
 21
218.79877
  0
LINE
  8
0
  6
CONTINUOUS
 62
     7
 10
110.14395
 20
220.79877
 11
110.14395
 21
218.79877
  0
LINE
  8
0
  6
CENTER
 62
     7
 10
157.34395
 20
190.79878
 11
96.74395
 21
190.79878
  0
LINE
  8
0
  6
CONTINUOUS
 62
     7
 10
153.14395
 20
211.29877
 11
153.14395
 21
170.29878
  0
LINE
  8
0
  6
CONTINUOUS
 62
     7
 10
101.14395
 20
218.79877
 11
101.14395
 21
162.79878
  0
LINE
  8
0
  6
CENTER
 62
     7
 10
243.94534
 20
190.79878
 11
183.14536
 21
190.79878
  0
LINE
  8
0
  6
CONTINUOUS
 62
     7
 10
208.92641
 20
162.79878
 11
187.54535
 21
162.79878
  0
LINE
  8
0
  6
CONTINUOUS
 62
     7
 10
196.54535
 20
160.79878
 11
196.54535
 21
162.79878
  0
LINE
  8
0
  6
CONTINUOUS
 62
     7
 10
206.41866
 20
160.79878
 11
196.54535
 21
160.79878
  0
LINE
  8
0
  6
CONTINUOUS
 62
     7
 10
220.54535
 20
165.79878
 11
239.54535
 21
165.79878
  0
LINE
  8
0
  6
CONTINUOUS
 62
     7
 10
220.54535
 20
215.79877
 11
239.54535
 21
215.79877
  0
LINE
  8
0
  6
CONTINUOUS
 62
     7
 10
208.92641
 20
218.79877
 11
187.54535
 21
218.79877
  0
LINE
  8
0
  6
CONTINUOUS
 62
     7
 10
206.41866
 20
220.79877
 11
196.54535
 21
220.79877
  0
LINE
  8
0
  6
CONTINUOUS
 62
     7
 10
196.54535
 20
220.79877
 11
196.54535
 21
218.79877
  0
LINE
  8
0
  6
CONTINUOUS
 62
     7
 10
239.54535
 20
215.79877
 11
239.54535
 21
165.79878
  0
LINE
  8
0
  6
CONTINUOUS
 62
     7
 10
187.54535
 20
218.79877
 11
187.54535
 21
162.79878
  0
LINE
  8
0
  6
CONTINUOUS
 62
     7
 10
23.67465
 20
195.31241
 11
23.67465
 21
194.07982
  0
LINE
  8
0
  6
CONTINUOUS
 62
     7
 10
22.774656
 20
195.31241
 11
22.774656
 21
194.07982
  0
LINE
  8
0
  6
CONTINUOUS
 62
     7
 10
22.774656
 20
187.54501
 11
22.774656
 21
186.31241
  0
LINE
  8
0
  6
CONTINUOUS
 62
     7
 10
23.67465
 20
187.54501
 11
23.67465
 21
186.31241
  0
LINE
  8
0
  6
CONTINUOUS
 62
     7
 10
22.774656
 20
193.17654
 11
22.774656
 21
190.81241
  0
LINE
  8
0
  6
CONTINUOUS
 62
     7
 10
23.67465
 20
193.17654
 11
23.67465
 21
190.81241
  0
LINE
  8
0
  6
CONTINUOUS
 62
     7
 10
110.05958
 20
195.51753
 11
110.05958
 21
194.28493
  0
LINE
  8
0
  6
CONTINUOUS
 62
     7
 10
109.15958
 20
195.51753
 11
109.15958
 21
194.28493
  0
LINE
  8
0
  6
CONTINUOUS
 62
     7
 10
109.15958
 20
187.75012
 11
109.15958
 21
186.51753
  0
LINE
  8
0
  6
CONTINUOUS
 62
     7
 10
110.05958
 20
187.75012
 11
110.05958
 21
186.51753
  0
LINE
  8
0
  6
CONTINUOUS
 62
     7
 10
109.15958
 20
193.38165
 11
109.15958
 21
191.01753
  0
LINE
  8
0
  6
CONTINUOUS
 62
     7
 10
110.05958
 20
193.38165
 11
110.05958
 21
191.01753
  0
LINE
  8
0
  6
CONTINUOUS
 62
     7
 10
196.39961
 20
195.5482
 11
196.39961
 21
194.31561
  0
LINE
  8
0
  6
CONTINUOUS
 62
     7
 10
195.49962
 20
195.5482
 11
195.49962
 21
194.31561
  0
LINE
  8
0
  6
CONTINUOUS
 62
     7
 10
195.49962
 20
187.78081
 11
195.49962
 21
186.5482
  0
LINE
  8
0
  6
CONTINUOUS
 62
     7
 10
196.39961
 20
187.78081
 11
196.39961
 21
186.5482
  0
LINE
  8
0
  6
CONTINUOUS
 62
     7
 10
195.49962
 20
193.41234
 11
195.49962
 21
191.0482
  0
LINE
  8
0
  6
CONTINUOUS
 62
     7
 10
196.39961
 20
193.41234
 11
196.39961
 21
191.0482
  0
LINE
  8
0
  6
CENTER
 62
     7
 10
-327.66653
 20
35.281487
 11
-394.46652
 21
35.281487
  0
LINE
  8
0
  6
CONTINUOUS
 62
     7
 10
-368.86652
 20
0.7814883
 11
-389.86652
 21
0.7814883
  0
LINE
  8
0
  6
CONTINUOUS
 62
     7
 10
-378.86652
 20
-1.2185117
 11
-378.86652
 21
0.7814883
  0
LINE
  8
0
  6
CONTINUOUS
 62
     7
 10
-367.55112
 20
-1.2185117
 11
-378.86652
 21
-1.2185117
  0
LINE
  8
0
  6
CONTINUOUS
 62
     7
 10
-344.1279
 20
18.781488
 11
-331.86652
 21
18.781488
  0
LINE
  8
0
  6
CONTINUOUS
 62
     7
 10
-344.1279
 20
51.781487
 11
-331.86652
 21
51.781487
  0
LINE
  8
0
  6
CONTINUOUS
 62
     7
 10
-367.55112
 20
71.781479
 11
-378.86652
 21
71.781479
  0
LINE
  8
0
  6
CONTINUOUS
 62
     7
 10
-368.86652
 20
69.781479
 11
-389.86652
 21
69.781479
  0
LINE
  8
0
  6
CONTINUOUS
 62
     7
 10
-378.86652
 20
71.781479
 11
-378.86652
 21
69.781479
  0
LINE
  8
0
  6
CONTINUOUS
 62
     7
 10
-331.86652
 20
51.781487
 11
-331.86652
 21
18.781488
  0
LINE
  8
0
  6
CONTINUOUS
 62
     7
 10
-389.86652
 20
69.781479
 11
-389.86652
 21
0.7814883
  0
LINE
  8
0
  6
CENTER
 62
     7
 10
-241.26512
 20
35.281487
 11
-308.06512
 21
35.281487
  0
LINE
  8
0
  6
CONTINUOUS
 62
     7
 10
-282.46512
 20
0.7814883
 11
-303.46512
 21
0.7814883
  0
LINE
  8
0
  6
CONTINUOUS
 62
     7
 10
-292.46512
 20
-1.2185117
 11
-292.46512
 21
0.7814883
  0
LINE
  8
0
  6
CONTINUOUS
 62
     7
 10
-281.14972
 20
-1.2185117
 11
-292.46512
 21
-1.2185117
  0
LINE
  8
0
  6
CONTINUOUS
 62
     7
 10
-259.09848
 20
14.781488
 11
-245.4651
 21
14.781488
  0
LINE
  8
0
  6
CONTINUOUS
 62
     7
 10
-259.09848
 20
55.781479
 11
-245.4651
 21
55.781479
  0
LINE
  8
0
  6
CONTINUOUS
 62
     7
 10
-281.14972
 20
71.781479
 11
-292.46512
 21
71.781479
  0
LINE
  8
0
  6
CONTINUOUS
 62
     7
 10
-292.46512
 20
71.781479
 11
-292.46512
 21
69.781479
  0
LINE
  8
0
  6
CONTINUOUS
 62
     7
 10
-282.46512
 20
69.781479
 11
-303.46512
 21
69.781479
  0
LINE
  8
0
  6
CONTINUOUS
 62
     7
 10
-245.4651
 20
55.781479
 11
-245.4651
 21
14.781488
  0
LINE
  8
0
  6
CONTINUOUS
 62
     7
 10
-303.46512
 20
69.781479
 11
-303.46512
 21
0.7814883
  0
LINE
  8
0
  6
CONTINUOUS
 62
     7
 10
-378.51083
 20
41.51104
 11
-378.51083
 21
39.867577
  0
LINE
  8
0
  6
CONTINUOUS
 62
     7
 10
-379.71085
 20
41.51104
 11
-379.71085
 21
39.867577
  0
LINE
  8
0
  6
CONTINUOUS
 62
     7
 10
-379.71085
 20
31.154505
 11
-379.71085
 21
29.511042
  0
LINE
  8
0
  6
CONTINUOUS
 62
     7
 10
-378.51083
 20
31.154505
 11
-378.51083
 21
29.511042
  0
LINE
  8
0
  6
CONTINUOUS
 62
     7
 10
-379.71085
 20
38.663216
 11
-379.71085
 21
35.51104
  0
LINE
  8
0
  6
CONTINUOUS
 62
     7
 10
-378.51083
 20
38.663216
 11
-378.51083
 21
35.51104
  0
LINE
  8
0
  6
CONTINUOUS
 62
     7
 10
-292.03671
 20
41.474663
 11
-292.03671
 21
39.8312
  0
LINE
  8
0
  6
CONTINUOUS
 62
     7
 10
-293.23672
 20
41.474663
 11
-293.23672
 21
39.8312
  0
LINE
  8
0
  6
CONTINUOUS
 62
     7
 10
-293.23672
 20
31.118128
 11
-293.23672
 21
29.474665
  0
LINE
  8
0
  6
CONTINUOUS
 62
     7
 10
-292.03671
 20
31.118128
 11
-292.03671
 21
29.474665
  0
LINE
  8
0
  6
CONTINUOUS
 62
     7
 10
-293.23672
 20
38.626839
 11
-293.23672
 21
35.474663
  0
LINE
  8
0
  6
CONTINUOUS
 62
     7
 10
-292.03671
 20
38.626839
 11
-292.03671
 21
35.474663
  0
LINE
  8
0
  6
CENTER
 62
     7
 10
-144.7906
 20
33.706696
 11
-211.7906
 21
33.706696
  0
LINE
  8
0
  6
CONTINUOUS
 62
     7
 10
-186.1906
 20
-0.79330403
 11
-207.1906
 21
-0.79330403
  0
LINE
  8
0
  6
CONTINUOUS
 62
     7
 10
-196.1906
 20
-2.793304
 11
-196.1906
 21
-0.79330403
  0
LINE
  8
0
  6
CONTINUOUS
 62
     7
 10
-184.73799
 20
-2.793304
 11
-196.1906
 21
-2.793304
  0
LINE
  8
0
  6
CONTINUOUS
 62
     7
 10
-161.05595
 20
8.7066956
 11
-149.1906
 21
8.7066956
  0
LINE
  8
0
  6
CONTINUOUS
 62
     7
 10
-161.05595
 20
58.706696
 11
-149.1906
 21
58.706696
  0
LINE
  8
0
  6
CONTINUOUS
 62
     7
 10
-184.73799
 20
70.206696
 11
-196.1906
 21
70.206696
  0
LINE
  8
0
  6
CONTINUOUS
 62
     7
 10
-186.1906
 20
68.206696
 11
-207.1906
 21
68.206696
  0
LINE
  8
0
  6
CONTINUOUS
 62
     7
 10
-196.1906
 20
70.206696
 11
-196.1906
 21
68.206696
  0
LINE
  8
0
  6
CONTINUOUS
 62
     7
 10
-149.1906
 20
58.706696
 11
-149.1906
 21
8.7066956
  0
LINE
  8
0
  6
CONTINUOUS
 62
     7
 10
-207.1906
 20
68.206696
 11
-207.1906
 21
-0.79330403
  0
LINE
  8
0
  6
CENTER
 62
     7
 10
-46.046143
 20
33.706696
 11
-113.04613
 21
33.706696
  0
LINE
  8
0
  6
CONTINUOUS
 62
     7
 10
-87.446152
 20
-0.79330403
 11
-108.44615
 21
-0.79330403
  0
LINE
  8
0
  6
CONTINUOUS
 62
     7
 10
-97.446152
 20
-2.793304
 11
-97.446152
 21
-0.79330403
  0
LINE
  8
0
  6
CONTINUOUS
 62
     7
 10
-70.248749
 20
5.706696
 11
-50.446136
 21
5.706696
  0
LINE
  8
0
  6
CONTINUOUS
 62
     7
 10
-70.248749
 20
61.706696
 11
-50.446136
 21
61.706696
  0
LINE
  8
0
  6
CONTINUOUS
 62
     7
 10
-86.936783
 20
70.206696
 11
-97.446152
 21
70.206696
  0
LINE
  8
0
  6
CONTINUOUS
 62
     7
 10
-97.446152
 20
70.206696
 11
-97.446152
 21
68.206696
  0
LINE
  8
0
  6
CONTINUOUS
 62
     7
 10
-87.446152
 20
68.206696
 11
-108.44615
 21
68.206696
  0
LINE
  8
0
  6
CONTINUOUS
 62
     7
 10
-50.446136
 20
61.706696
 11
-50.446136
 21
5.706696
  0
LINE
  8
0
  6
CONTINUOUS
 62
     7
 10
-108.44615
 20
68.206696
 11
-108.44615
 21
-0.79330403
  0
LINE
  8
0
  6
CONTINUOUS
 62
     7
 10
-97.446152
 20
-2.793304
 11
-86.936783
 21
-2.793304
  0
LINE
  8
0
  6
CONTINUOUS
 62
     7
 10
-195.64003
 20
39.578285
 11
-195.64003
 21
37.934818
  0
LINE
  8
0
  6
CONTINUOUS
 62
     7
 10
-196.84004
 20
39.578285
 11
-196.84004
 21
37.934818
  0
LINE
  8
0
  6
CONTINUOUS
 62
     7
 10
-196.84004
 20
29.221752
 11
-196.84004
 21
27.578285
  0
LINE
  8
0
  6
CONTINUOUS
 62
     7
 10
-195.64003
 20
29.221752
 11
-195.64003
 21
27.578285
  0
LINE
  8
0
  6
CONTINUOUS
 62
     7
 10
-196.84004
 20
36.730457
 11
-196.84004
 21
33.578285
  0
LINE
  8
0
  6
CONTINUOUS
 62
     7
 10
-195.64003
 20
36.730457
 11
-195.64003
 21
33.578285
  0
LINE
  8
0
  6
CONTINUOUS
 62
     7
 10
-96.96376
 20
39.724876
 11
-96.96376
 21
38.081409
  0
LINE
  8
0
  6
CONTINUOUS
 62
     7
 10
-98.163773
 20
39.724876
 11
-98.163773
 21
38.081409
  0
LINE
  8
0
  6
CONTINUOUS
 62
     7
 10
-98.163773
 20
29.368343
 11
-98.163773
 21
27.724876
  0
LINE
  8
0
  6
CONTINUOUS
 62
     7
 10
-96.96376
 20
29.368343
 11
-96.96376
 21
27.724876
  0
LINE
  8
0
  6
CONTINUOUS
 62
     7
 10
-98.163773
 20
36.877048
 11
-98.163773
 21
33.724876
  0
LINE
  8
0
  6
CONTINUOUS
 62
     7
 10
-96.96376
 20
36.877048
 11
-96.96376
 21
33.724876
  0
LINE
  8
0
  6
CENTER
 62
     7
 10
81.742531
 20
35.281487
 11
7.1425099
 21
35.281487
  0
LINE
  8
0
  6
CONTINUOUS
 62
     7
 10
68.142494
 20
5.2814884
 11
77.142494
 21
5.2814884
  0
LINE
  8
0
  6
CONTINUOUS
 62
     7
 10
37.923592
 20
80.781487
 11
12.142509
 21
80.781487
  0
LINE
  8
0
  6
CONTINUOUS
 62
     7
 10
68.142494
 20
65.281487
 11
68.142494
 21
5.2814884
  0
LINE
  8
0
  6
CONTINUOUS
 62
     7
 10
24.142509
 20
80.781487
 11
24.142509
 21
-10.218512
  0
LINE
  8
0
  6
CONTINUOUS
 62
     7
 10
37.923592
 20
-10.218512
 11
12.142509
 21
-10.218512
  0
LINE
  8
0
  6
CONTINUOUS
 62
     7
 10
36.142509
 20
-7.7185116
 11
29.015907
 21
-7.7185116
  0
LINE
  8
0
  6
CONTINUOUS
 62
     7
 10
62.410378
 20
7.2814884
 11
64.678413
 21
7.2814884
  0
LINE
  8
0
  6
CONTINUOUS
 62
     7
 10
62.410378
 20
63.281487
 11
64.678413
 21
63.281487
  0
LINE
  8
0
  6
CONTINUOUS
 62
     7
 10
68.142494
 20
65.281487
 11
77.142494
 21
65.281487
  0
LINE
  8
0
  6
CONTINUOUS
 62
     7
 10
36.142509
 20
78.281487
 11
29.015907
 21
78.281487
  0
LINE
  8
0
  6
CONTINUOUS
 62
     7
 10
77.142494
 20
65.281487
 11
77.142494
 21
5.2814884
  0
LINE
  8
0
  6
CONTINUOUS
 62
     7
 10
12.142509
 20
80.781487
 11
12.142509
 21
-10.218512
  0
LINE
  8
0
  6
CONTINUOUS
 62
     7
 10
36.978584
 20
43.163876
 11
36.978584
 21
41.109543
  0
LINE
  8
0
  6
CONTINUOUS
 62
     7
 10
35.478584
 20
43.163876
 11
35.478584
 21
41.109543
  0
LINE
  8
0
  6
CONTINUOUS
 62
     7
 10
35.478584
 20
30.21821
 11
35.478584
 21
28.163874
  0
LINE
  8
0
  6
CONTINUOUS
 62
     7
 10
36.978584
 20
30.21821
 11
36.978584
 21
28.163874
  0
LINE
  8
0
  6
CONTINUOUS
 62
     7
 10
35.478584
 20
39.604092
 11
35.478584
 21
35.663876
  0
LINE
  8
0
  6
CONTINUOUS
 62
     7
 10
36.978584
 20
39.604092
 11
36.978584
 21
35.663876
  0
LINE
  8
0
  6
CENTER
 62
     7
 10
180.48698
 20
35.281487
 11
105.88697
 21
35.281487
  0
LINE
  8
0
  6
CONTINUOUS
 62
     7
 10
136.98338
 20
-10.218512
 11
110.88697
 21
-10.218512
  0
LINE
  8
0
  6
CONTINUOUS
 62
     7
 10
134.88698
 20
-7.7185116
 11
127.76035
 21
-7.7185116
  0
LINE
  8
0
  6
CONTINUOUS
 62
     7
 10
157.37587
 20
0.7814883
 11
161.4229
 21
0.7814883
  0
LINE
  8
0
  6
CONTINUOUS
 62
     7
 10
164.88698
 20
-1.2185117
 11
175.88698
 21
-1.2185117
  0
LINE
  8
0
  6
CONTINUOUS
 62
     7
 10
164.88698
 20
71.781487
 11
175.88698
 21
71.781487
  0
LINE
  8
0
  6
CONTINUOUS
 62
     7
 10
157.37587
 20
69.781487
 11
161.4229
 21
69.781487
  0
LINE
  8
0
  6
CONTINUOUS
 62
     7
 10
136.98338
 20
80.781487
 11
110.88697
 21
80.781487
  0
LINE
  8
0
  6
CONTINUOUS
 62
     7
 10
134.88698
 20
78.281487
 11
127.76035
 21
78.281487
  0
LINE
  8
0
  6
CONTINUOUS
 62
     7
 10
175.88698
 20
71.781487
 11
175.88698
 21
-1.2185117
  0
LINE
  8
0
  6
CONTINUOUS
 62
     7
 10
110.88697
 20
80.781487
 11
110.88697
 21
-10.218512
  0
LINE
  8
0
  6
CONTINUOUS
 62
     7
 10
164.88698
 20
71.781487
 11
164.88698
 21
-1.2185117
  0
LINE
  8
0
  6
CONTINUOUS
 62
     7
 10
122.88697
 20
80.781487
 11
122.88697
 21
-10.218512
  0
LINE
  8
0
  6
CONTINUOUS
 62
     7
 10
136.14806
 20
42.857056
 11
136.14806
 21
40.802723
  0
LINE
  8
0
  6
CONTINUOUS
 62
     7
 10
134.64806
 20
42.857056
 11
134.64806
 21
40.802723
  0
LINE
  8
0
  6
CONTINUOUS
 62
     7
 10
134.64806
 20
29.911386
 11
134.64806
 21
27.857058
  0
LINE
  8
0
  6
CONTINUOUS
 62
     7
 10
136.14806
 20
29.911386
 11
136.14806
 21
27.857058
  0
LINE
  8
0
  6
CONTINUOUS
 62
     7
 10
134.64806
 20
39.297272
 11
134.64806
 21
35.357056
  0
LINE
  8
0
  6
CONTINUOUS
 62
     7
 10
136.14806
 20
39.297272
 11
136.14806
 21
35.357056
  0
LINE
  8
0
  6
CENTER
 62
     7
 10
-51.764397
 20
-130.0717
 11
-133.76443
 21
-130.0717
  0
LINE
  8
0
  6
CONTINUOUS
 62
     7
 10
-103.03139
 20
-182.5717
 11
-128.36443
 21
-182.5717
  0
LINE
  8
0
  6
CONTINUOUS
 62
     7
 10
-102.31875
 20
-179.5717
 11
-108.22298
 21
-179.5717
  0
LINE
  8
0
  6
CONTINUOUS
 62
     7
 10
-73.59594
 20
-164.5717
 11
-70.828514
 21
-164.5717
  0
LINE
  8
0
  6
CONTINUOUS
 62
     7
 10
-67.364418
 20
-166.5717
 11
-56.364433
 21
-166.5717
  0
LINE
  8
0
  6
CONTINUOUS
 62
     7
 10
-67.364418
 20
-93.571701
 11
-56.364433
 21
-93.571701
  0
LINE
  8
0
  6
CONTINUOUS
 62
     7
 10
-73.59594
 20
-95.571701
 11
-70.828514
 21
-95.571701
  0
LINE
  8
0
  6
CONTINUOUS
 62
     7
 10
-103.03139
 20
-77.571701
 11
-128.36443
 21
-77.571701
  0
LINE
  8
0
  6
CONTINUOUS
 62
     7
 10
-102.31875
 20
-80.571701
 11
-108.22298
 21
-80.571701
  0
LINE
  8
0
  6
CONTINUOUS
 62
     7
 10
-56.364433
 20
-93.571701
 11
-56.364433
 21
-166.5717
  0
LINE
  8
0
  6
CONTINUOUS
 62
     7
 10
-128.36443
 20
-77.571701
 11
-128.36443
 21
-182.5717
  0
LINE
  8
0
  6
CONTINUOUS
 62
     7
 10
-67.364418
 20
-93.571701
 11
-67.364418
 21
-166.5717
  0
LINE
  8
0
  6
CONTINUOUS
 62
     7
 10
-115.36442
 20
-77.571701
 11
-115.36442
 21
-182.5717
  0
LINE
  8
0
  6
CONTINUOUS
 62
     7
 10
-99.678337
 20
-120.91432
 11
-99.678337
 21
-123.37952
  0
LINE
  8
0
  6
CONTINUOUS
 62
     7
 10
-101.47832
 20
-120.91432
 11
-101.47832
 21
-123.37952
  0
LINE
  8
0
  6
CONTINUOUS
 62
     7
 10
-101.47832
 20
-136.44913
 11
-101.47832
 21
-138.91432
  0
LINE
  8
0
  6
CONTINUOUS
 62
     7
 10
-99.678337
 20
-136.44913
 11
-99.678337
 21
-138.91432
  0
LINE
  8
0
  6
CONTINUOUS
 62
     7
 10
-101.47832
 20
-125.18607
 11
-101.47832
 21
-129.91432
  0
LINE
  8
0
  6
CONTINUOUS
 62
     7
 10
-99.678337
 20
-125.18607
 11
-99.678337
 21
-129.91432
  0
LINE
  8
0
  6
CENTER
 62
     7
 10
62.61747
 20
-130.0717
 11
-19.782524
 21
-130.0717
  0
LINE
  8
0
  6
CONTINUOUS
 62
     7
 10
12.005562
 20
-182.5717
 11
-14.38253
 21
-182.5717
  0
LINE
  8
0
  6
CONTINUOUS
 62
     7
 10
11.61747
 20
-179.5717
 11
5.7588878
 21
-179.5717
  0
LINE
  8
0
  6
CONTINUOUS
 62
     7
 10
38.29612
 20
-173.0717
 11
40.744087
 21
-173.0717
  0
LINE
  8
0
  6
CONTINUOUS
 62
     7
 10
45.61747
 20
-175.5717
 11
57.61747
 21
-175.5717
  0
LINE
  8
0
  6
CONTINUOUS
 62
     7
 10
45.61747
 20
-84.571701
 11
57.61747
 21
-84.571701
  0
LINE
  8
0
  6
CONTINUOUS
 62
     7
 10
38.29612
 20
-87.071701
 11
40.744087
 21
-87.071701
  0
LINE
  8
0
  6
CONTINUOUS
 62
     7
 10
12.005562
 20
-77.571701
 11
-14.38253
 21
-77.571701
  0
LINE
  8
0
  6
CONTINUOUS
 62
     7
 10
11.61747
 20
-80.571701
 11
5.7588878
 21
-80.571701
  0
LINE
  8
0
  6
CONTINUOUS
 62
     7
 10
57.61747
 20
-84.571701
 11
57.61747
 21
-175.5717
  0
LINE
  8
0
  6
CONTINUOUS
 62
     7
 10
-14.38253
 20
-77.571701
 11
-14.38253
 21
-182.5717
  0
LINE
  8
0
  6
CONTINUOUS
 62
     7
 10
45.61747
 20
-84.571701
 11
45.61747
 21
-175.5717
  0
LINE
  8
0
  6
CONTINUOUS
 62
     7
 10
-1.3825306
 20
-77.571701
 11
-1.3825306
 21
-182.5717
  0
LINE
  8
0
  6
CONTINUOUS
 62
     7
 10
13.995888
 20
-120.98306
 11
13.995888
 21
-123.44826
  0
LINE
  8
0
  6
CONTINUOUS
 62
     7
 10
12.1959
 20
-120.98306
 11
12.1959
 21
-123.44826
  0
LINE
  8
0
  6
CONTINUOUS
 62
     7
 10
12.1959
 20
-136.51787
 11
12.1959
 21
-138.98306
  0
LINE
  8
0
  6
CONTINUOUS
 62
     7
 10
13.995888
 20
-136.51787
 11
13.995888
 21
-138.98306
  0
LINE
  8
0
  6
CONTINUOUS
 62
     7
 10
12.1959
 20
-125.25481
 11
12.1959
 21
-129.98306
  0
LINE
  8
0
  6
CONTINUOUS
 62
     7
 10
13.995888
 20
-125.25481
 11
13.995888
 21
-129.98306
  0
LINE
  8
0
  6
CENTER
 62
     7
 10
192.17966
 20
-130.0717
 11
91.579681
 21
-130.0717
  0
LINE
  8
0
  6
CONTINUOUS
 62
     7
 10
99.779633
 20
-63.571701
 11
99.779633
 21
-196.5717
  0
LINE
  8
0
  6
CONTINUOUS
 62
     7
 10
136.77963
 20
-134.0717
 11
118.77963
 21
-134.0717
  0
LINE
  8
0
  6
CONTINUOUS
 62
     7
 10
115.77963
 20
-137.0717
 11
115.77963
 21
-196.5717
  0
LINE
  8
0
  6
CONTINUOUS
 62
     7
 10
129.34518
 20
-136.68704
 11
129.34518
 21
-139.15224
  0
LINE
  8
0
  6
CONTINUOUS
 62
     7
 10
129.66049
 20
-196.5717
 11
99.779633
 21
-196.5717
  0
LINE
  8
0
  6
CONTINUOUS
 62
     7
 10
128.77963
 20
-193.5717
 11
122.92111
 21
-193.5717
  0
LINE
  8
0
  6
CONTINUOUS
 62
     7
 10
160.52866
 20
-179.5717
 11
164.63815
 21
-179.5717
  0
LINE
  8
0
  6
CONTINUOUS
 62
     7
 10
171.77963
 20
-182.5717
 11
184.77963
 21
-182.5717
  0
LINE
  8
0
  6
CONTINUOUS
 62
     7
 10
171.77963
 20
-77.571701
 11
184.77963
 21
-77.571701
  0
LINE
  8
0
  6
CONTINUOUS
 62
     7
 10
160.52866
 20
-80.571701
 11
164.63815
 21
-80.571701
  0
LINE
  8
0
  6
CONTINUOUS
 62
     7
 10
128.77963
 20
-66.571701
 11
122.92111
 21
-66.571701
  0
LINE
  8
0
  6
CONTINUOUS
 62
     7
 10
129.66049
 20
-63.571701
 11
99.779633
 21
-63.571701
  0
LINE
  8
0
  6
CONTINUOUS
 62
     7
 10
184.77963
 20
-77.571701
 11
184.77963
 21
-182.5717
  0
LINE
  8
0
  6
CONTINUOUS
 62
     7
 10
171.77963
 20
-77.571701
 11
171.77963
 21
-182.5717
  0
LINE
  8
0
  6
CONTINUOUS
 62
     7
 10
115.77963
 20
-63.571701
 11
115.77963
 21
-123.0717
  0
LINE
  8
0
  6
CONTINUOUS
 62
     7
 10
136.77963
 20
-126.0717
 11
118.77963
 21
-126.0717
  0
LINE
  8
0
  6
CONTINUOUS
 62
     7
 10
131.14523
 20
-136.68704
 11
131.14523
 21
-139.15224
  0
LINE
  8
0
  6
CONTINUOUS
 62
     7
 10
129.34518
 20
-152.22185
 11
129.34518
 21
-154.68704
  0
LINE
  8
0
  6
CONTINUOUS
 62
     7
 10
131.14523
 20
-152.22185
 11
131.14523
 21
-154.68704
  0
LINE
  8
0
  6
CONTINUOUS
 62
     7
 10
129.34518
 20
-140.95879
 11
129.34518
 21
-145.68704
  0
LINE
  8
0
  6
CONTINUOUS
 62
     7
 10
131.14523
 20
-140.95879
 11
131.14523
 21
-145.68704
  0
ARC
  8
0
  6
CONTINUOUS
 62
     7
 10
-368.27036
 20
183.48831
 40
10.5
 50
269.99998
 51
301.3882
  0
ARC
  8
0
  6
CONTINUOUS
 62
     7
 10
-357.59329
 20
165.98831
 40
10
 50
90.000016
 51
121.38812
  0
ARC
  8
0
  6
CONTINUOUS
 62
     7
 10
-366.98636
 20
176.48831
 40
5
 50
269.99998
 51
340.59567
  0
ARC
  8
0
  6
CONTINUOUS
 62
     7
 10
-357.59329
 20
212.98831
 40
10
 50
238.61182
 51
269.99992
  0
ARC
  8
0
  6
CONTINUOUS
 62
     7
 10
-366.98636
 20
202.48831
 40
5
 50
19.404275
 51
89.999962
  0
ARC
  8
0
  6
CONTINUOUS
 62
     7
 10
-368.27036
 20
195.48831
 40
10.5
 50
58.611745
 51
89.999962
  0
ARC
  8
0
  6
CONTINUOUS
 62
     7
 10
-374.93344
 20
189.42694
 40
1.2
 50
306.00832
 51
53.991676
  0
ARC
  8
0
  6
CONTINUOUS
 62
     7
 10
-374.93344
 20
189.42694
 40
1.8
 50
306.00832
 51
53.991676
  0
ARC
  8
0
  6
CONTINUOUS
 62
     7
 10
-377.33344
 20
189.42694
 40
1.2
 50
126.00833
 51
233.99168
  0
ARC
  8
0
  6
CONTINUOUS
 62
     7
 10
-377.33344
 20
189.42694
 40
1.8
 50
126.00833
 51
233.99168
  0
ARC
  8
0
  6
CONTINUOUS
 62
     7
 10
-376.13342
 20
187.77579
 40
3.8411539
 50
53.991676
 51
85.520553
  0
ARC
  8
0
  6
CONTINUOUS
 62
     7
 10
-376.13342
 20
187.77579
 40
3.241154
 50
53.991676
 51
84.689121
  0
ARC
  8
0
  6
CONTINUOUS
 62
     7
 10
-376.13342
 20
191.07809
 40
3.241154
 50
233.99167
 51
306.00832
  0
ARC
  8
0
  6
CONTINUOUS
 62
     7
 10
-376.13342
 20
191.07809
 40
3.8411539
 50
233.99167
 51
265.52055
  0
ARC
  8
0
  6
CONTINUOUS
 62
     7
 10
-376.13342
 20
192.20193
 40
0.375
 50
36.869897
 51
143.1301
  0
ARC
  8
0
  6
CONTINUOUS
 62
     7
 10
-376.13342
 20
189.65195
 40
0.375
 50
216.8699
 51
323.1301
  0
ARC
  8
0
  6
CONTINUOUS
 62
     7
 10
-376.13342
 20
186.65195
 40
0.375
 50
216.8699
 51
323.1301
  0
ARC
  8
0
  6
CONTINUOUS
 62
     7
 10
-376.13342
 20
191.07809
 40
3.8411539
 50
274.47945
 51
306.00832
  0
ARC
  8
0
  6
CONTINUOUS
 62
     7
 10
-376.13342
 20
187.77579
 40
3.241154
 50
95.310878
 51
126.00833
  0
ARC
  8
0
  6
CONTINUOUS
 62
     7
 10
-376.13342
 20
187.77579
 40
3.8411539
 50
94.479452
 51
126.00833
  0
ARC
  8
0
  6
CONTINUOUS
 62
     7
 10
-290.0882
 20
171.47501
 40
5
 50
269.99998
 51
320.45718
  0
ARC
  8
0
  6
CONTINUOUS
 62
     7
 10
-288.46121
 20
175.97501
 40
8
 50
269.99993
 51
325.77115
  0
ARC
  8
0
  6
CONTINUOUS
 62
     7
 10
-275.23245
 20
166.97501
 40
8
 50
90.000016
 51
145.77114
  0
ARC
  8
0
  6
CONTINUOUS
 62
     7
 10
-275.23245
 20
209.97501
 40
8
 50
214.22886
 51
269.99998
  0
ARC
  8
0
  6
CONTINUOUS
 62
     7
 10
-288.46121
 20
200.97501
 40
8
 50
34.228848
 51
90.000016
  0
ARC
  8
0
  6
CONTINUOUS
 62
     7
 10
-290.0882
 20
205.47501
 40
5
 50
39.542762
 51
89.999962
  0
ARC
  8
0
  6
CONTINUOUS
 62
     7
 10
-219.03665
 20
169.47501
 40
3
 50
269.99998
 51
347.1902
  0
ARC
  8
0
  6
CONTINUOUS
 62
     7
 10
-220.11133
 20
177.97501
 40
10
 50
269.99993
 51
306.86986
  0
ARC
  8
0
  6
CONTINUOUS
 62
     7
 10
-208.11133
 20
161.97501
 40
10
 50
89.999962
 51
126.86985
  0
ARC
  8
0
  6
CONTINUOUS
 62
     7
 10
-208.11133
 20
214.97501
 40
10
 50
233.1301
 51
269.99998
  0
ARC
  8
0
  6
CONTINUOUS
 62
     7
 10
-220.11133
 20
198.97501
 40
10
 50
53.130085
 51
90.000016
  0
ARC
  8
0
  6
CONTINUOUS
 62
     7
 10
-219.03665
 20
207.47501
 40
3
 50
12.809741
 51
89.999962
  0
ARC
  8
0
  6
CONTINUOUS
 62
     7
 10
-296.0069
 20
188.60228
 40
1.8
 50
306.00832
 51
53.991676
  0
ARC
  8
0
  6
CONTINUOUS
 62
     7
 10
-296.0069
 20
188.60228
 40
2.7
 50
306.00832
 51
53.991676
  0
ARC
  8
0
  6
CONTINUOUS
 62
     7
 10
-299.6069
 20
188.60228
 40
1.8
 50
126.00833
 51
233.99168
  0
ARC
  8
0
  6
CONTINUOUS
 62
     7
 10
-299.6069
 20
188.60228
 40
2.7
 50
126.00833
 51
233.99168
  0
ARC
  8
0
  6
CONTINUOUS
 62
     7
 10
-297.80688
 20
186.12555
 40
5.7617307
 50
53.991676
 51
85.520553
  0
ARC
  8
0
  6
CONTINUOUS
 62
     7
 10
-297.80688
 20
186.12555
 40
4.8617306
 50
53.991676
 51
84.689121
  0
ARC
  8
0
  6
CONTINUOUS
 62
     7
 10
-297.80688
 20
191.07901
 40
4.8617306
 50
233.99167
 51
306.00832
  0
ARC
  8
0
  6
CONTINUOUS
 62
     7
 10
-297.80688
 20
191.07901
 40
5.7617307
 50
233.99167
 51
265.52055
  0
ARC
  8
0
  6
CONTINUOUS
 62
     7
 10
-297.80688
 20
192.76479
 40
0.5625
 50
36.869897
 51
143.1301
  0
ARC
  8
0
  6
CONTINUOUS
 62
     7
 10
-297.80688
 20
188.93977
 40
0.5625
 50
216.8699
 51
323.1301
  0
ARC
  8
0
  6
CONTINUOUS
 62
     7
 10
-297.80688
 20
184.43977
 40
0.5625
 50
216.8699
 51
323.1301
  0
ARC
  8
0
  6
CONTINUOUS
 62
     7
 10
-297.80688
 20
186.12555
 40
5.7617307
 50
94.479452
 51
126.00833
  0
ARC
  8
0
  6
CONTINUOUS
 62
     7
 10
-297.80688
 20
186.12555
 40
4.8617306
 50
95.310878
 51
126.00833
  0
ARC
  8
0
  6
CONTINUOUS
 62
     7
 10
-297.80688
 20
191.07901
 40
5.7617307
 50
274.47945
 51
306.00832
  0
ARC
  8
0
  6
CONTINUOUS
 62
     7
 10
-226.72668
 20
188.54659
 40
1.8
 50
306.00832
 51
53.991676
  0
ARC
  8
0
  6
CONTINUOUS
 62
     7
 10
-226.72668
 20
188.54659
 40
2.7
 50
306.00832
 51
53.991676
  0
ARC
  8
0
  6
CONTINUOUS
 62
     7
 10
-230.32666
 20
188.54659
 40
1.8
 50
126.00833
 51
233.99168
  0
ARC
  8
0
  6
CONTINUOUS
 62
     7
 10
-230.32666
 20
188.54659
 40
2.7
 50
126.00833
 51
233.99168
  0
ARC
  8
0
  6
CONTINUOUS
 62
     7
 10
-228.52667
 20
186.06985
 40
5.7617307
 50
53.991676
 51
85.520553
  0
ARC
  8
0
  6
CONTINUOUS
 62
     7
 10
-228.52667
 20
186.06985
 40
4.8617306
 50
53.991676
 51
84.689121
  0
ARC
  8
0
  6
CONTINUOUS
 62
     7
 10
-228.52667
 20
191.02332
 40
4.8617306
 50
233.99167
 51
306.00832
  0
ARC
  8
0
  6
CONTINUOUS
 62
     7
 10
-228.52667
 20
191.02332
 40
5.7617307
 50
233.99167
 51
265.52055
  0
ARC
  8
0
  6
CONTINUOUS
 62
     7
 10
-228.52667
 20
192.70909
 40
0.5625
 50
36.869897
 51
143.1301
  0
ARC
  8
0
  6
CONTINUOUS
 62
     7
 10
-228.52667
 20
188.88408
 40
0.5625
 50
216.8699
 51
323.1301
  0
ARC
  8
0
  6
CONTINUOUS
 62
     7
 10
-228.52667
 20
184.38408
 40
0.5625
 50
216.8699
 51
323.1301
  0
ARC
  8
0
  6
CONTINUOUS
 62
     7
 10
-228.52667
 20
186.06985
 40
5.7617307
 50
94.479452
 51
126.00833
  0
ARC
  8
0
  6
CONTINUOUS
 62
     7
 10
-228.52667
 20
186.06985
 40
4.8617306
 50
95.310878
 51
126.00833
  0
ARC
  8
0
  6
CONTINUOUS
 62
     7
 10
-228.52667
 20
191.02332
 40
5.7617307
 50
274.47945
 51
306.00832
  0
ARC
  8
0
  6
CONTINUOUS
 62
     7
 10
-133.41678
 20
168.98831
 40
5.9999986
 50
269.99998
 51
315.23684
  0
ARC
  8
0
  6
CONTINUOUS
 62
     7
 10
-131.71063
 20
176.48831
 40
12
 50
269.99998
 51
319.22723
  0
ARC
  8
0
  6
CONTINUOUS
 62
     7
 10
-113.15665
 20
160.48831
 40
12.5
 50
90.000016
 51
139.22716
  0
ARC
  8
0
  6
CONTINUOUS
 62
     7
 10
-113.15665
 20
218.4883
 40
12.5
 50
220.77278
 51
269.99994
  0
ARC
  8
0
  6
CONTINUOUS
 62
     7
 10
-131.71063
 20
202.48831
 40
12
 50
40.772715
 51
89.999962
  0
ARC
  8
0
  6
CONTINUOUS
 62
     7
 10
-133.41678
 20
209.9883
 40
5.9999986
 50
44.763103
 51
89.999962
  0
ARC
  8
0
  6
CONTINUOUS
 62
     7
 10
-45.867836
 20
167.98831
 40
5
 50
269.99998
 51
325.33733
  0
ARC
  8
0
  6
CONTINUOUS
 62
     7
 10
-45.584572
 20
175.98831
 40
11.5
 50
269.99998
 51
306.04936
  0
ARC
  8
0
  6
CONTINUOUS
 62
     7
 10
-31.755255
 20
156.98831
 40
12
 50
90.000016
 51
126.0493
  0
ARC
  8
0
  6
CONTINUOUS
 62
     7
 10
-31.755255
 20
221.9883
 40
12
 50
233.95065
 51
269.99994
  0
ARC
  8
0
  6
CONTINUOUS
 62
     7
 10
-45.584572
 20
202.98831
 40
11.5
 50
53.950582
 51
89.999962
  0
ARC
  8
0
  6
CONTINUOUS
 62
     7
 10
-45.867836
 20
210.9883
 40
5
 50
34.662619
 51
89.999962
  0
ARC
  8
0
  6
CONTINUOUS
 62
     7
 10
-139.974
 20
189.53717
 40
1.8
 50
306.00832
 51
53.991676
  0
ARC
  8
0
  6
CONTINUOUS
 62
     7
 10
-139.974
 20
189.53717
 40
2.7
 50
306.00832
 51
53.991676
  0
ARC
  8
0
  6
CONTINUOUS
 62
     7
 10
-143.57397
 20
189.53717
 40
1.8
 50
126.00833
 51
233.99168
  0
ARC
  8
0
  6
CONTINUOUS
 62
     7
 10
-143.57397
 20
189.53717
 40
2.7
 50
126.00833
 51
233.99168
  0
ARC
  8
0
  6
CONTINUOUS
 62
     7
 10
-141.77399
 20
187.06044
 40
5.7617307
 50
53.991676
 51
85.520553
  0
ARC
  8
0
  6
CONTINUOUS
 62
     7
 10
-141.77399
 20
187.06044
 40
4.8617306
 50
53.991676
 51
84.689121
  0
ARC
  8
0
  6
CONTINUOUS
 62
     7
 10
-141.77399
 20
192.0139
 40
4.8617306
 50
233.99167
 51
306.00832
  0
ARC
  8
0
  6
CONTINUOUS
 62
     7
 10
-141.77399
 20
192.0139
 40
5.7617307
 50
233.99167
 51
265.52055
  0
ARC
  8
0
  6
CONTINUOUS
 62
     7
 10
-141.77399
 20
193.69966
 40
0.5625
 50
36.869897
 51
143.1301
  0
ARC
  8
0
  6
CONTINUOUS
 62
     7
 10
-141.77399
 20
189.87466
 40
0.5625
 50
216.8699
 51
323.1301
  0
ARC
  8
0
  6
CONTINUOUS
 62
     7
 10
-141.77399
 20
185.37466
 40
0.5625
 50
216.8699
 51
323.1301
  0
ARC
  8
0
  6
CONTINUOUS
 62
     7
 10
-141.77399
 20
187.06044
 40
5.7617307
 50
94.479452
 51
126.00833
  0
ARC
  8
0
  6
CONTINUOUS
 62
     7
 10
-141.77399
 20
187.06044
 40
4.8617306
 50
95.310878
 51
126.00833
  0
ARC
  8
0
  6
CONTINUOUS
 62
     7
 10
-141.77399
 20
192.0139
 40
5.7617307
 50
274.47945
 51
306.00832
  0
ARC
  8
0
  6
CONTINUOUS
 62
     7
 10
-53.758095
 20
189.65535
 40
1.8
 50
306.00832
 51
53.991676
  0
ARC
  8
0
  6
CONTINUOUS
 62
     7
 10
-53.758095
 20
189.65535
 40
2.7
 50
306.00832
 51
53.991676
  0
ARC
  8
0
  6
CONTINUOUS
 62
     7
 10
-57.35807
 20
189.65535
 40
1.8
 50
126.00833
 51
233.99168
  0
ARC
  8
0
  6
CONTINUOUS
 62
     7
 10
-57.35807
 20
189.65535
 40
2.7
 50
126.00833
 51
233.99168
  0
ARC
  8
0
  6
CONTINUOUS
 62
     7
 10
-55.558083
 20
187.17862
 40
5.7617307
 50
53.991676
 51
85.520553
  0
ARC
  8
0
  6
CONTINUOUS
 62
     7
 10
-55.558083
 20
187.17862
 40
4.8617306
 50
53.991676
 51
84.689121
  0
ARC
  8
0
  6
CONTINUOUS
 62
     7
 10
-55.558083
 20
192.13208
 40
4.8617306
 50
233.99167
 51
306.00832
  0
ARC
  8
0
  6
CONTINUOUS
 62
     7
 10
-55.558083
 20
192.13208
 40
5.7617307
 50
233.99167
 51
265.52055
  0
ARC
  8
0
  6
CONTINUOUS
 62
     7
 10
-55.558083
 20
193.81786
 40
0.5625
 50
36.869897
 51
143.1301
  0
ARC
  8
0
  6
CONTINUOUS
 62
     7
 10
-55.558083
 20
189.99286
 40
0.5625
 50
216.8699
 51
323.1301
  0
ARC
  8
0
  6
CONTINUOUS
 62
     7
 10
-55.558083
 20
185.49286
 40
0.5625
 50
216.8699
 51
323.1301
  0
ARC
  8
0
  6
CONTINUOUS
 62
     7
 10
-55.558083
 20
187.17862
 40
5.7617307
 50
94.479452
 51
126.00833
  0
ARC
  8
0
  6
CONTINUOUS
 62
     7
 10
-55.558083
 20
187.17862
 40
4.8617306
 50
95.310878
 51
126.00833
  0
ARC
  8
0
  6
CONTINUOUS
 62
     7
 10
-55.558083
 20
192.13208
 40
5.7617307
 50
274.47945
 51
306.00832
  0
ARC
  8
0
  6
CONTINUOUS
 62
     7
 10
32.885544
 20
166.79878
 40
6
 50
269.99998
 51
324.04725
  0
ARC
  8
0
  6
CONTINUOUS
 62
     7
 10
33.742554
 20
179.79878
 40
17
 50
269.99998
 51
318.56543
  0
ARC
  8
0
  6
CONTINUOUS
 62
     7
 10
59.232742
 20
157.29878
 40
17
 50
90.000016
 51
138.56537
  0
ARC
  8
0
  6
CONTINUOUS
 62
     7
 10
59.232742
 20
224.29877
 40
17
 50
221.43457
 51
269.99994
  0
ARC
  8
0
  6
CONTINUOUS
 62
     7
 10
33.742554
 20
201.79878
 40
17
 50
41.43452
 51
89.999962
  0
ARC
  8
0
  6
CONTINUOUS
 62
     7
 10
32.885544
 20
214.79877
 40
6
 50
35.952692
 51
89.999962
  0
ARC
  8
0
  6
CONTINUOUS
 62
     7
 10
118.93367
 20
165.79878
 40
5
 50
269.99998
 51
327.35809
  0
ARC
  8
0
  6
CONTINUOUS
 62
     7
 10
120.14395
 20
177.79878
 40
15
 50
269.99998
 51
311.40964
  0
ARC
  8
0
  6
CONTINUOUS
 62
     7
 10
139.98709
 20
155.29878
 40
15
 50
90.000016
 51
131.40963
  0
ARC
  8
0
  6
CONTINUOUS
 62
     7
 10
139.98709
 20
226.29877
 40
15
 50
228.59032
 51
269.99993
  0
ARC
  8
0
  6
CONTINUOUS
 62
     7
 10
120.14395
 20
203.79878
 40
15
 50
48.590304
 51
89.999962
  0
ARC
  8
0
  6
CONTINUOUS
 62
     7
 10
118.93367
 20
215.79877
 40
5
 50
32.641853
 51
89.999962
  0
ARC
  8
0
  6
CONTINUOUS
 62
     7
 10
206.41866
 20
165.79878
 40
5
 50
269.99998
 51
325.62299
  0
ARC
  8
0
  6
CONTINUOUS
 62
     7
 10
208.92641
 20
170.29878
 40
7.5
 50
269.99998
 51
298.95504
  0
ARC
  8
0
  6
CONTINUOUS
 62
     7
 10
220.54535
 20
149.29878
 40
16.5
 50
90.000016
 51
118.95503
  0
ARC
  8
0
  6
CONTINUOUS
 62
     7
 10
220.54535
 20
232.29877
 40
16.5
 50
241.04492
 51
269.99994
  0
ARC
  8
0
  6
CONTINUOUS
 62
     7
 10
206.41866
 20
215.79877
 40
5
 50
34.376953
 51
89.999962
  0
ARC
  8
0
  6
CONTINUOUS
 62
     7
 10
208.92641
 20
211.29877
 40
7.5
 50
61.044904
 51
89.999962
  0
ARC
  8
0
  6
CONTINUOUS
 62
     7
 10
25.024656
 20
190.81241
 40
1.8
 50
306.00832
 51
53.991676
  0
ARC
  8
0
  6
CONTINUOUS
 62
     7
 10
25.024656
 20
190.81241
 40
2.7
 50
306.00832
 51
53.991676
  0
ARC
  8
0
  6
CONTINUOUS
 62
     7
 10
21.42465
 20
190.81241
 40
1.8
 50
126.00833
 51
233.99168
  0
ARC
  8
0
  6
CONTINUOUS
 62
     7
 10
21.42465
 20
190.81241
 40
2.7
 50
126.00833
 51
233.99168
  0
ARC
  8
0
  6
CONTINUOUS
 62
     7
 10
23.224653
 20
188.33568
 40
5.7617307
 50
53.991676
 51
85.520553
  0
ARC
  8
0
  6
CONTINUOUS
 62
     7
 10
23.224653
 20
188.33568
 40
4.8617306
 50
53.991676
 51
84.689121
  0
ARC
  8
0
  6
CONTINUOUS
 62
     7
 10
23.224653
 20
193.28914
 40
4.8617306
 50
233.99167
 51
306.00832
  0
ARC
  8
0
  6
CONTINUOUS
 62
     7
 10
23.224653
 20
193.28914
 40
5.7617307
 50
233.99167
 51
265.52055
  0
ARC
  8
0
  6
CONTINUOUS
 62
     7
 10
23.224653
 20
194.97491
 40
0.5625
 50
36.869897
 51
143.1301
  0
ARC
  8
0
  6
CONTINUOUS
 62
     7
 10
23.224653
 20
191.14992
 40
0.5625
 50
216.8699
 51
323.1301
  0
ARC
  8
0
  6
CONTINUOUS
 62
     7
 10
23.224653
 20
186.64992
 40
0.5625
 50
216.8699
 51
323.1301
  0
ARC
  8
0
  6
CONTINUOUS
 62
     7
 10
23.224653
 20
188.33568
 40
5.7617307
 50
94.479452
 51
126.00833
  0
ARC
  8
0
  6
CONTINUOUS
 62
     7
 10
23.224653
 20
188.33568
 40
4.8617306
 50
95.310878
 51
126.00833
  0
ARC
  8
0
  6
CONTINUOUS
 62
     7
 10
23.224653
 20
193.28914
 40
5.7617307
 50
274.47945
 51
306.00832
  0
ARC
  8
0
  6
CONTINUOUS
 62
     7
 10
111.40958
 20
191.01753
 40
1.8
 50
306.00832
 51
53.991676
  0
ARC
  8
0
  6
CONTINUOUS
 62
     7
 10
111.40958
 20
191.01753
 40
2.7
 50
306.00832
 51
53.991676
  0
ARC
  8
0
  6
CONTINUOUS
 62
     7
 10
107.80958
 20
191.01753
 40
1.8
 50
126.00833
 51
233.99168
  0
ARC
  8
0
  6
CONTINUOUS
 62
     7
 10
107.80958
 20
191.01753
 40
2.7
 50
126.00833
 51
233.99168
  0
ARC
  8
0
  6
CONTINUOUS
 62
     7
 10
109.60957
 20
188.5408
 40
5.7617307
 50
53.991676
 51
85.520553
  0
ARC
  8
0
  6
CONTINUOUS
 62
     7
 10
109.60957
 20
188.5408
 40
4.8617306
 50
53.991676
 51
84.689121
  0
ARC
  8
0
  6
CONTINUOUS
 62
     7
 10
109.60957
 20
193.49426
 40
4.8617306
 50
233.99167
 51
306.00832
  0
ARC
  8
0
  6
CONTINUOUS
 62
     7
 10
109.60957
 20
193.49426
 40
5.7617307
 50
233.99167
 51
265.52055
  0
ARC
  8
0
  6
CONTINUOUS
 62
     7
 10
109.60957
 20
195.18002
 40
0.5625
 50
36.869897
 51
143.1301
  0
ARC
  8
0
  6
CONTINUOUS
 62
     7
 10
109.60957
 20
191.35503
 40
0.5625
 50
216.8699
 51
323.1301
  0
ARC
  8
0
  6
CONTINUOUS
 62
     7
 10
109.60957
 20
186.85503
 40
0.5625
 50
216.8699
 51
323.1301
  0
ARC
  8
0
  6
CONTINUOUS
 62
     7
 10
109.60957
 20
188.5408
 40
5.7617307
 50
94.479452
 51
126.00833
  0
ARC
  8
0
  6
CONTINUOUS
 62
     7
 10
109.60957
 20
188.5408
 40
4.8617306
 50
95.310878
 51
126.00833
  0
ARC
  8
0
  6
CONTINUOUS
 62
     7
 10
109.60957
 20
193.49426
 40
5.7617307
 50
274.47945
 51
306.00832
  0
ARC
  8
0
  6
CONTINUOUS
 62
     7
 10
197.74962
 20
191.0482
 40
1.8
 50
306.00832
 51
53.991676
  0
ARC
  8
0
  6
CONTINUOUS
 62
     7
 10
197.74962
 20
191.0482
 40
2.7
 50
306.00832
 51
53.991676
  0
ARC
  8
0
  6
CONTINUOUS
 62
     7
 10
194.14961
 20
191.0482
 40
1.8
 50
126.00833
 51
233.99168
  0
ARC
  8
0
  6
CONTINUOUS
 62
     7
 10
194.14961
 20
191.0482
 40
2.7
 50
126.00833
 51
233.99168
  0
ARC
  8
0
  6
CONTINUOUS
 62
     7
 10
195.94962
 20
188.57147
 40
5.7617307
 50
53.991676
 51
85.520553
  0
ARC
  8
0
  6
CONTINUOUS
 62
     7
 10
195.94962
 20
188.57147
 40
4.8617306
 50
53.991676
 51
84.689121
  0
ARC
  8
0
  6
CONTINUOUS
 62
     7
 10
195.94962
 20
193.52493
 40
4.8617306
 50
233.99167
 51
306.00832
  0
ARC
  8
0
  6
CONTINUOUS
 62
     7
 10
195.94962
 20
193.52493
 40
5.7617307
 50
233.99167
 51
265.52055
  0
ARC
  8
0
  6
CONTINUOUS
 62
     7
 10
195.94962
 20
195.21071
 40
0.5625
 50
36.869897
 51
143.1301
  0
ARC
  8
0
  6
CONTINUOUS
 62
     7
 10
195.94962
 20
191.38571
 40
0.5625
 50
216.8699
 51
323.1301
  0
ARC
  8
0
  6
CONTINUOUS
 62
     7
 10
195.94962
 20
186.88571
 40
0.5625
 50
216.8699
 51
323.1301
  0
ARC
  8
0
  6
CONTINUOUS
 62
     7
 10
195.94962
 20
188.57147
 40
5.7617307
 50
94.479452
 51
126.00833
  0
ARC
  8
0
  6
CONTINUOUS
 62
     7
 10
195.94962
 20
188.57147
 40
4.8617306
 50
95.310878
 51
126.00833
  0
ARC
  8
0
  6
CONTINUOUS
 62
     7
 10
195.94962
 20
193.52493
 40
5.7617307
 50
274.47945
 51
306.00832
  0
ARC
  8
0
  6
CONTINUOUS
 62
     7
 10
-367.55112
 20
3.7814882
 40
5.0000033
 50
269.99998
 51
339.54053
  0
ARC
  8
0
  6
CONTINUOUS
 62
     7
 10
-368.86652
 20
15.781488
 40
15
 50
269.99993
 51
342.07975
  0
ARC
  8
0
  6
CONTINUOUS
 62
     7
 10
-344.1279
 20
7.7814884
 40
11
 50
90.000016
 51
162.07973
  0
ARC
  8
0
  6
CONTINUOUS
 62
     7
 10
-344.1279
 20
62.781479
 40
11
 50
197.92021
 51
269.99998
  0
ARC
  8
0
  6
CONTINUOUS
 62
     7
 10
-368.86652
 20
54.781487
 40
15
 50
17.920198
 51
90.000016
  0
ARC
  8
0
  6
CONTINUOUS
 62
     7
 10
-367.55112
 20
66.781479
 40
5.0000033
 50
20.459417
 51
89.999962
  0
ARC
  8
0
  6
CONTINUOUS
 62
     7
 10
-281.14972
 20
3.7814882
 40
5
 50
269.99998
 51
339.54053
  0
ARC
  8
0
  6
CONTINUOUS
 62
     7
 10
-282.46512
 20
15.781488
 40
15
 50
269.99998
 51
331.85543
  0
ARC
  8
0
  6
CONTINUOUS
 62
     7
 10
-259.09848
 20
3.2814882
 40
11.5
 50
90.000016
 51
151.85542
  0
ARC
  8
0
  6
CONTINUOUS
 62
     7
 10
-259.09848
 20
67.281479
 40
11.5
 50
208.14453
 51
269.99993
  0
ARC
  8
0
  6
CONTINUOUS
 62
     7
 10
-282.46512
 20
54.781487
 40
15
 50
28.144513
 51
89.999962
  0
ARC
  8
0
  6
CONTINUOUS
 62
     7
 10
-281.14972
 20
66.781479
 40
5
 50
20.459417
 51
89.999962
  0
ARC
  8
0
  6
CONTINUOUS
 62
     7
 10
-376.71085
 20
35.51104
 40
2.4000001
 50
306.00832
 51
53.991676
  0
ARC
  8
0
  6
CONTINUOUS
 62
     7
 10
-376.71085
 20
35.51104
 40
3.5999999
 50
306.00832
 51
53.991676
  0
ARC
  8
0
  6
CONTINUOUS
 62
     7
 10
-381.51083
 20
35.51104
 40
2.4000001
 50
126.00833
 51
233.99168
  0
ARC
  8
0
  6
CONTINUOUS
 62
     7
 10
-381.51083
 20
35.51104
 40
3.5999999
 50
126.00833
 51
233.99168
  0
ARC
  8
0
  6
CONTINUOUS
 62
     7
 10
-379.11084
 20
32.208733
 40
7.6823077
 50
53.991676
 51
85.520553
  0
ARC
  8
0
  6
CONTINUOUS
 62
     7
 10
-379.11084
 20
32.208733
 40
6.4823079
 50
53.991676
 51
84.689121
  0
ARC
  8
0
  6
CONTINUOUS
 62
     7
 10
-379.11084
 20
38.813347
 40
6.4823079
 50
233.99167
 51
306.00832
  0
ARC
  8
0
  6
CONTINUOUS
 62
     7
 10
-379.11084
 20
38.813347
 40
7.6823077
 50
233.99167
 51
265.52055
  0
ARC
  8
0
  6
CONTINUOUS
 62
     7
 10
-379.11084
 20
41.061043
 40
0.75
 50
36.869897
 51
143.1301
  0
ARC
  8
0
  6
CONTINUOUS
 62
     7
 10
-379.11084
 20
35.961037
 40
0.75
 50
216.8699
 51
323.1301
  0
ARC
  8
0
  6
CONTINUOUS
 62
     7
 10
-379.11084
 20
29.961039
 40
0.75
 50
216.8699
 51
323.1301
  0
ARC
  8
0
  6
CONTINUOUS
 62
     7
 10
-379.11084
 20
32.208733
 40
6.4823079
 50
95.310878
 51
126.00833
  0
ARC
  8
0
  6
CONTINUOUS
 62
     7
 10
-379.11084
 20
32.208733
 40
7.6823077
 50
94.479452
 51
126.00833
  0
ARC
  8
0
  6
CONTINUOUS
 62
     7
 10
-379.11084
 20
38.813347
 40
7.6823077
 50
274.47945
 51
306.00832
  0
ARC
  8
0
  6
CONTINUOUS
 62
     7
 10
-290.23672
 20
35.474663
 40
2.4000001
 50
306.00832
 51
53.991676
  0
ARC
  8
0
  6
CONTINUOUS
 62
     7
 10
-290.23672
 20
35.474663
 40
3.5999999
 50
306.00832
 51
53.991676
  0
ARC
  8
0
  6
CONTINUOUS
 62
     7
 10
-295.03671
 20
35.474663
 40
2.4000001
 50
126.00833
 51
233.99168
  0
ARC
  8
0
  6
CONTINUOUS
 62
     7
 10
-295.03671
 20
35.474663
 40
3.5999999
 50
126.00833
 51
233.99168
  0
ARC
  8
0
  6
CONTINUOUS
 62
     7
 10
-292.63672
 20
32.172356
 40
7.6823077
 50
53.991676
 51
85.520553
  0
ARC
  8
0
  6
CONTINUOUS
 62
     7
 10
-292.63672
 20
32.172356
 40
6.4823079
 50
53.991676
 51
84.689121
  0
ARC
  8
0
  6
CONTINUOUS
 62
     7
 10
-292.63672
 20
38.77697
 40
6.4823079
 50
233.99167
 51
306.00832
  0
ARC
  8
0
  6
CONTINUOUS
 62
     7
 10
-292.63672
 20
38.77697
 40
7.6823077
 50
233.99167
 51
265.52055
  0
ARC
  8
0
  6
CONTINUOUS
 62
     7
 10
-292.63672
 20
41.024666
 40
0.75
 50
36.869897
 51
143.1301
  0
ARC
  8
0
  6
CONTINUOUS
 62
     7
 10
-292.63672
 20
35.92466
 40
0.75
 50
216.8699
 51
323.1301
  0
ARC
  8
0
  6
CONTINUOUS
 62
     7
 10
-292.63672
 20
29.924662
 40
0.75
 50
216.8699
 51
323.1301
  0
ARC
  8
0
  6
CONTINUOUS
 62
     7
 10
-292.63672
 20
32.172356
 40
6.4823079
 50
95.310878
 51
126.00833
  0
ARC
  8
0
  6
CONTINUOUS
 62
     7
 10
-292.63672
 20
32.172356
 40
7.6823077
 50
94.479452
 51
126.00833
  0
ARC
  8
0
  6
CONTINUOUS
 62
     7
 10
-292.63672
 20
38.77697
 40
7.6823077
 50
274.47945
 51
306.00832
  0
ARC
  8
0
  6
CONTINUOUS
 62
     7
 10
-184.73799
 20
2.206696
 40
5
 50
269.99998
 51
335.43306
  0
ARC
  8
0
  6
CONTINUOUS
 62
     7
 10
-186.1906
 20
19.206696
 40
20
 50
269.99998
 51
311.40964
  0
ARC
  8
0
  6
CONTINUOUS
 62
     7
 10
-161.05595
 20
-9.2933044
 40
18
 50
90.000016
 51
131.40963
  0
ARC
  8
0
  6
CONTINUOUS
 62
     7
 10
-161.05595
 20
76.706696
 40
18
 50
228.59032
 51
269.99993
  0
ARC
  8
0
  6
CONTINUOUS
 62
     7
 10
-186.1906
 20
48.206696
 40
20
 50
48.590304
 51
90.000016
  0
ARC
  8
0
  6
CONTINUOUS
 62
     7
 10
-184.73799
 20
65.206696
 40
5
 50
24.566888
 51
89.999962
  0
ARC
  8
0
  6
CONTINUOUS
 62
     7
 10
-86.936783
 20
2.206696
 40
5
 50
269.99998
 51
333.91292
  0
ARC
  8
0
  6
CONTINUOUS
 62
     7
 10
-87.446152
 20
15.206696
 40
16
 50
269.99998
 51
311.40964
  0
ARC
  8
0
  6
CONTINUOUS
 62
     7
 10
-70.248749
 20
-4.293304
 40
10
 50
90.000016
 51
131.40963
  0
ARC
  8
0
  6
CONTINUOUS
 62
     7
 10
-70.248749
 20
71.706696
 40
10
 50
228.59032
 51
269.99993
  0
ARC
  8
0
  6
CONTINUOUS
 62
     7
 10
-87.446152
 20
52.206696
 40
16
 50
48.590304
 51
89.999962
  0
ARC
  8
0
  6
CONTINUOUS
 62
     7
 10
-86.936783
 20
65.206696
 40
5
 50
26.087028
 51
89.999962
  0
ARC
  8
0
  6
CONTINUOUS
 62
     7
 10
-193.84004
 20
33.578285
 40
2.4000001
 50
306.00832
 51
53.991676
  0
ARC
  8
0
  6
CONTINUOUS
 62
     7
 10
-193.84004
 20
33.578285
 40
3.5999999
 50
306.00832
 51
53.991676
  0
ARC
  8
0
  6
CONTINUOUS
 62
     7
 10
-198.64003
 20
33.578285
 40
2.4000001
 50
126.00833
 51
233.99168
  0
ARC
  8
0
  6
CONTINUOUS
 62
     7
 10
-198.64003
 20
33.578285
 40
3.5999999
 50
126.00833
 51
233.99168
  0
ARC
  8
0
  6
CONTINUOUS
 62
     7
 10
-196.24004
 20
30.275978
 40
7.6823077
 50
53.991676
 51
85.520553
  0
ARC
  8
0
  6
CONTINUOUS
 62
     7
 10
-196.24004
 20
30.275978
 40
6.4823079
 50
53.991676
 51
84.689121
  0
ARC
  8
0
  6
CONTINUOUS
 62
     7
 10
-196.24004
 20
36.880592
 40
6.4823079
 50
233.99167
 51
306.00832
  0
ARC
  8
0
  6
CONTINUOUS
 62
     7
 10
-196.24004
 20
36.880592
 40
7.6823077
 50
233.99167
 51
265.52055
  0
ARC
  8
0
  6
CONTINUOUS
 62
     7
 10
-196.24004
 20
39.128284
 40
0.75
 50
36.869897
 51
143.1301
  0
ARC
  8
0
  6
CONTINUOUS
 62
     7
 10
-196.24004
 20
34.028286
 40
0.75
 50
216.8699
 51
323.1301
  0
ARC
  8
0
  6
CONTINUOUS
 62
     7
 10
-196.24004
 20
28.028286
 40
0.75
 50
216.8699
 51
323.1301
  0
ARC
  8
0
  6
CONTINUOUS
 62
     7
 10
-196.24004
 20
30.275978
 40
6.4823079
 50
95.310878
 51
126.00833
  0
ARC
  8
0
  6
CONTINUOUS
 62
     7
 10
-196.24004
 20
30.275978
 40
7.6823077
 50
94.479452
 51
126.00833
  0
ARC
  8
0
  6
CONTINUOUS
 62
     7
 10
-196.24004
 20
36.880592
 40
7.6823077
 50
274.47945
 51
306.00832
  0
ARC
  8
0
  6
CONTINUOUS
 62
     7
 10
-95.163773
 20
33.724876
 40
2.4000001
 50
306.00832
 51
53.991676
  0
ARC
  8
0
  6
CONTINUOUS
 62
     7
 10
-95.163773
 20
33.724876
 40
3.5999999
 50
306.00832
 51
53.991676
  0
ARC
  8
0
  6
CONTINUOUS
 62
     7
 10
-99.96376
 20
33.724876
 40
2.4000001
 50
126.00833
 51
233.99168
  0
ARC
  8
0
  6
CONTINUOUS
 62
     7
 10
-99.96376
 20
33.724876
 40
3.5999999
 50
126.00833
 51
233.99168
  0
ARC
  8
0
  6
CONTINUOUS
 62
     7
 10
-97.563766
 20
30.422569
 40
7.6823077
 50
53.991676
 51
85.520553
  0
ARC
  8
0
  6
CONTINUOUS
 62
     7
 10
-97.563766
 20
30.422569
 40
6.4823079
 50
53.991676
 51
84.689121
  0
ARC
  8
0
  6
CONTINUOUS
 62
     7
 10
-97.563766
 20
37.027184
 40
6.4823079
 50
233.99167
 51
306.00832
  0
ARC
  8
0
  6
CONTINUOUS
 62
     7
 10
-97.563766
 20
37.027184
 40
7.6823077
 50
233.99167
 51
265.52055
  0
ARC
  8
0
  6
CONTINUOUS
 62
     7
 10
-97.563766
 20
39.274876
 40
0.75
 50
36.869897
 51
143.1301
  0
ARC
  8
0
  6
CONTINUOUS
 62
     7
 10
-97.563766
 20
34.174877
 40
0.75
 50
216.8699
 51
323.1301
  0
ARC
  8
0
  6
CONTINUOUS
 62
     7
 10
-97.563766
 20
28.174877
 40
0.75
 50
216.8699
 51
323.1301
  0
ARC
  8
0
  6
CONTINUOUS
 62
     7
 10
-97.563766
 20
30.422569
 40
6.4823079
 50
95.310878
 51
126.00833
  0
ARC
  8
0
  6
CONTINUOUS
 62
     7
 10
-97.563766
 20
30.422569
 40
7.6823077
 50
94.479452
 51
126.00833
  0
ARC
  8
0
  6
CONTINUOUS
 62
     7
 10
-97.563766
 20
37.027184
 40
7.6823077
 50
274.47945
 51
306.00832
  0
ARC
  8
0
  6
CONTINUOUS
 62
     7
 10
29.015907
 20
-13.718512
 40
6
 50
89.999996
 51
144.31467
  0
ARC
  8
0
  6
CONTINUOUS
 62
     7
 10
37.923592
 20
-0.21851173
 40
10
 50
269.99998
 51
337.20422
  0
ARC
  8
0
  6
CONTINUOUS
 62
     7
 10
36.142509
 20
10.781488
 40
18.5
 50
269.99998
 51
329.45623
  0
ARC
  8
0
  6
CONTINUOUS
 62
     7
 10
62.410378
 20
-4.7185116
 40
12
 50
90.000016
 51
149.45622
  0
ARC
  8
0
  6
CONTINUOUS
 62
     7
 10
64.678383
 20
3.2814882
 40
4
 50
30.000032
 51
90.000016
  0
ARC
  8
0
  6
CONTINUOUS
 62
     7
 10
64.678413
 20
67.281487
 40
4
 50
270
 51
330
  0
ARC
  8
0
  6
CONTINUOUS
 62
     7
 10
62.410378
 20
75.281487
 40
12
 50
210.54373
 51
269.99994
  0
ARC
  8
0
  6
CONTINUOUS
 62
     7
 10
36.142509
 20
59.781487
 40
18.5
 50
30.543715
 51
89.999962
  0
ARC
  8
0
  6
CONTINUOUS
 62
     7
 10
37.923592
 20
70.781487
 40
10
 50
22.795724
 51
89.999962
  0
ARC
  8
0
  6
CONTINUOUS
 62
     7
 10
29.015907
 20
84.281487
 40
6
 50
215.68533
 51
270
  0
ARC
  8
0
  6
CONTINUOUS
 62
     7
 10
39.228584
 20
35.663876
 40
3
 50
306.00832
 51
53.991676
  0
ARC
  8
0
  6
CONTINUOUS
 62
     7
 10
39.228584
 20
35.663876
 40
4.5
 50
306.00832
 51
53.991676
  0
ARC
  8
0
  6
CONTINUOUS
 62
     7
 10
33.228584
 20
35.663876
 40
3
 50
126.00833
 51
233.99168
  0
ARC
  8
0
  6
CONTINUOUS
 62
     7
 10
33.228584
 20
35.663876
 40
4.5
 50
126.00833
 51
233.99168
  0
ARC
  8
0
  6
CONTINUOUS
 62
     7
 10
36.228584
 20
31.53599
 40
9.6028843
 50
53.991676
 51
85.520553
  0
ARC
  8
0
  6
CONTINUOUS
 62
     7
 10
36.228584
 20
31.53599
 40
8.1028843
 50
53.991676
 51
84.689121
  0
ARC
  8
0
  6
CONTINUOUS
 62
     7
 10
36.228584
 20
39.791759
 40
8.1028843
 50
233.99167
 51
306.00832
  0
ARC
  8
0
  6
CONTINUOUS
 62
     7
 10
36.228584
 20
39.791759
 40
9.6028843
 50
233.99167
 51
265.52055
  0
ARC
  8
0
  6
CONTINUOUS
 62
     7
 10
36.228584
 20
42.601376
 40
0.9375
 50
36.869897
 51
143.1301
  0
ARC
  8
0
  6
CONTINUOUS
 62
     7
 10
36.228584
 20
36.226376
 40
0.9375
 50
216.8699
 51
323.1301
  0
ARC
  8
0
  6
CONTINUOUS
 62
     7
 10
36.228584
 20
28.726374
 40
0.9375
 50
216.8699
 51
323.1301
  0
ARC
  8
0
  6
CONTINUOUS
 62
     7
 10
36.228584
 20
31.53599
 40
9.6028843
 50
94.479452
 51
126.00833
  0
ARC
  8
0
  6
CONTINUOUS
 62
     7
 10
36.228584
 20
31.53599
 40
8.1028843
 50
95.310878
 51
126.00833
  0
ARC
  8
0
  6
CONTINUOUS
 62
     7
 10
36.228584
 20
39.791759
 40
9.6028843
 50
274.47945
 51
306.00832
  0
ARC
  8
0
  6
CONTINUOUS
 62
     7
 10
127.76035
 20
-13.718512
 40
6
 50
89.999996
 51
144.31467
  0
ARC
  8
0
  6
CONTINUOUS
 62
     7
 10
134.88698
 20
14.281488
 40
22
 50
269.99998
 51
311.40963
  0
ARC
  8
0
  6
CONTINUOUS
 62
     7
 10
136.98338
 20
-0.21851173
 40
10
 50
269.99998
 51
332.91856
  0
ARC
  8
0
  6
CONTINUOUS
 62
     7
 10
157.37587
 20
-11.218512
 40
12
 50
90.000016
 51
131.40963
  0
ARC
  8
0
  6
CONTINUOUS
 62
     7
 10
161.42287
 20
-3.2185118
 40
4
 50
30.000032
 51
90.000016
  0
ARC
  8
0
  6
CONTINUOUS
 62
     7
 10
161.4229
 20
73.781487
 40
4
 50
270
 51
330
  0
ARC
  8
0
  6
CONTINUOUS
 62
     7
 10
157.37587
 20
81.781487
 40
12
 50
228.59032
 51
269.99993
  0
ARC
  8
0
  6
CONTINUOUS
 62
     7
 10
134.88698
 20
56.281487
 40
22
 50
48.590318
 51
89.999962
  0
ARC
  8
0
  6
CONTINUOUS
 62
     7
 10
136.98338
 20
70.781487
 40
10
 50
27.081381
 51
89.999962
  0
ARC
  8
0
  6
CONTINUOUS
 62
     7
 10
127.76035
 20
84.281487
 40
6
 50
215.68533
 51
270
  0
ARC
  8
0
  6
CONTINUOUS
 62
     7
 10
138.39806
 20
35.357056
 40
3
 50
306.00832
 51
53.991676
  0
ARC
  8
0
  6
CONTINUOUS
 62
     7
 10
138.39806
 20
35.357056
 40
4.5
 50
306.00832
 51
53.991676
  0
ARC
  8
0
  6
CONTINUOUS
 62
     7
 10
132.39806
 20
35.357056
 40
3
 50
126.00833
 51
233.99168
  0
ARC
  8
0
  6
CONTINUOUS
 62
     7
 10
132.39806
 20
35.357056
 40
4.5
 50
126.00833
 51
233.99168
  0
ARC
  8
0
  6
CONTINUOUS
 62
     7
 10
135.39806
 20
31.22917
 40
9.6028843
 50
53.991676
 51
85.520553
  0
ARC
  8
0
  6
CONTINUOUS
 62
     7
 10
135.39806
 20
31.22917
 40
8.1028843
 50
53.991676
 51
84.689121
  0
ARC
  8
0
  6
CONTINUOUS
 62
     7
 10
135.39806
 20
39.48494
 40
8.1028843
 50
233.99167
 51
306.00832
  0
ARC
  8
0
  6
CONTINUOUS
 62
     7
 10
135.39806
 20
39.48494
 40
9.6028843
 50
233.99167
 51
265.52055
  0
ARC
  8
0
  6
CONTINUOUS
 62
     7
 10
135.39806
 20
42.294556
 40
0.9375
 50
36.869897
 51
143.1301
  0
ARC
  8
0
  6
CONTINUOUS
 62
     7
 10
135.39806
 20
35.919556
 40
0.9375
 50
216.8699
 51
323.1301
  0
ARC
  8
0
  6
CONTINUOUS
 62
     7
 10
135.39806
 20
28.419558
 40
0.9375
 50
216.8699
 51
323.1301
  0
ARC
  8
0
  6
CONTINUOUS
 62
     7
 10
135.39806
 20
31.22917
 40
9.6028843
 50
94.479452
 51
126.00833
  0
ARC
  8
0
  6
CONTINUOUS
 62
     7
 10
135.39806
 20
31.22917
 40
8.1028843
 50
95.310878
 51
126.00833
  0
ARC
  8
0
  6
CONTINUOUS
 62
     7
 10
135.39806
 20
39.48494
 40
9.6028843
 50
274.47945
 51
306.00832
  0
ARC
  8
0
  6
CONTINUOUS
 62
     7
 10
-108.22298
 20
-189.57172
 40
10
 50
89.999996
 51
135.57298
  0
ARC
  8
0
  6
CONTINUOUS
 62
     7
 10
-103.03139
 20
-167.5717
 40
15
 50
269.99998
 51
327.6147
  0
ARC
  8
0
  6
CONTINUOUS
 62
     7
 10
-102.31875
 20
-159.5717
 40
20
 50
269.99998
 51
325.1501
  0
ARC
  8
0
  6
CONTINUOUS
 62
     7
 10
-73.59594
 20
-179.5717
 40
15
 50
90.000016
 51
145.1501
  0
ARC
  8
0
  6
CONTINUOUS
 62
     7
 10
-70.828529
 20
-168.5717
 40
4
 50
30.000032
 51
90.000016
  0
ARC
  8
0
  6
CONTINUOUS
 62
     7
 10
-70.828514
 20
-91.571701
 40
4
 50
270
 51
330
  0
ARC
  8
0
  6
CONTINUOUS
 62
     7
 10
-73.59594
 20
-80.571701
 40
15
 50
214.84983
 51
269.99992
  0
ARC
  8
0
  6
CONTINUOUS
 62
     7
 10
-102.31875
 20
-100.5717
 40
20
 50
34.849848
 51
89.999962
  0
ARC
  8
0
  6
CONTINUOUS
 62
     7
 10
-103.03139
 20
-92.571701
 40
15
 50
32.385243
 51
89.999962
  0
ARC
  8
0
  6
CONTINUOUS
 62
     7
 10
-108.22298
 20
-70.571701
 40
10
 50
224.427
 51
270
  0
ARC
  8
0
  6
CONTINUOUS
 62
     7
 10
-96.978325
 20
-129.91432
 40
3.5999999
 50
306.00832
 51
53.991676
  0
ARC
  8
0
  6
CONTINUOUS
 62
     7
 10
-96.978325
 20
-129.91432
 40
5.4000001
 50
306.00832
 51
53.991676
  0
ARC
  8
0
  6
CONTINUOUS
 62
     7
 10
-104.17834
 20
-129.91432
 40
3.5999999
 50
126.00833
 51
233.99168
  0
ARC
  8
0
  6
CONTINUOUS
 62
     7
 10
-104.17834
 20
-129.91432
 40
5.4000001
 50
126.00833
 51
233.99168
  0
ARC
  8
0
  6
CONTINUOUS
 62
     7
 10
-100.57833
 20
-134.86778
 40
11.523461
 50
53.991676
 51
85.520553
  0
ARC
  8
0
  6
CONTINUOUS
 62
     7
 10
-100.57833
 20
-134.86778
 40
9.7234612
 50
53.991676
 51
84.689121
  0
ARC
  8
0
  6
CONTINUOUS
 62
     7
 10
-100.57833
 20
-124.96086
 40
9.7234612
 50
233.99167
 51
306.00832
  0
ARC
  8
0
  6
CONTINUOUS
 62
     7
 10
-100.57833
 20
-124.96086
 40
11.523461
 50
233.99167
 51
265.52055
  0
ARC
  8
0
  6
CONTINUOUS
 62
     7
 10
-100.57833
 20
-121.58932
 40
1.125
 50
36.869897
 51
143.1301
  0
ARC
  8
0
  6
CONTINUOUS
 62
     7
 10
-100.57833
 20
-129.23932
 40
1.125
 50
216.8699
 51
323.1301
  0
ARC
  8
0
  6
CONTINUOUS
 62
     7
 10
-100.57833
 20
-138.23932
 40
1.125
 50
216.8699
 51
323.1301
  0
ARC
  8
0
  6
CONTINUOUS
 62
     7
 10
-100.57833
 20
-134.86778
 40
11.523461
 50
94.479452
 51
126.00833
  0
ARC
  8
0
  6
CONTINUOUS
 62
     7
 10
-100.57833
 20
-134.86778
 40
9.7234612
 50
95.310878
 51
126.00833
  0
ARC
  8
0
  6
CONTINUOUS
 62
     7
 10
-100.57833
 20
-124.96086
 40
11.523461
 50
274.47945
 51
306.00832
  0
ARC
  8
0
  6
CONTINUOUS
 62
     7
 10
5.7588878
 20
-189.57172
 40
10
 50
89.999996
 51
135.57298
  0
ARC
  8
0
  6
CONTINUOUS
 62
     7
 10
12.005562
 20
-167.5717
 40
15
 50
269.99998
 51
320.72599
  0
ARC
  8
0
  6
CONTINUOUS
 62
     7
 10
11.61747
 20
-149.5717
 40
30
 50
269.99998
 51
297.38561
  0
ARC
  8
0
  6
CONTINUOUS
 62
     7
 10
38.29612
 20
-201.07172
 40
28
 50
90.000016
 51
117.3856
  0
ARC
  8
0
  6
CONTINUOUS
 62
     7
 10
40.744057
 20
-179.0717
 40
6
 50
35.685358
 51
90.000016
  0
ARC
  8
0
  6
CONTINUOUS
 62
     7
 10
40.744087
 20
-81.071701
 40
6
 50
270
 51
324.31468
  0
ARC
  8
0
  6
CONTINUOUS
 62
     7
 10
38.29612
 20
-59.071701
 40
28
 50
242.61433
 51
269.99992
  0
ARC
  8
0
  6
CONTINUOUS
 62
     7
 10
12.005562
 20
-92.571701
 40
15
 50
39.273953
 51
89.999962
  0
ARC
  8
0
  6
CONTINUOUS
 62
     7
 10
11.61747
 20
-110.5717
 40
30
 50
62.614332
 51
89.999962
  0
ARC
  8
0
  6
CONTINUOUS
 62
     7
 10
5.7588878
 20
-70.571701
 40
10
 50
224.427
 51
270
  0
ARC
  8
0
  6
CONTINUOUS
 62
     7
 10
16.6959
 20
-129.98306
 40
3.5999999
 50
306.00832
 51
53.991676
  0
ARC
  8
0
  6
CONTINUOUS
 62
     7
 10
16.6959
 20
-129.98306
 40
5.4000001
 50
306.00832
 51
53.991676
  0
ARC
  8
0
  6
CONTINUOUS
 62
     7
 10
9.4958878
 20
-129.98306
 40
3.5999999
 50
126.00833
 51
233.99168
  0
ARC
  8
0
  6
CONTINUOUS
 62
     7
 10
9.4958878
 20
-129.98306
 40
5.4000001
 50
126.00833
 51
233.99168
  0
ARC
  8
0
  6
CONTINUOUS
 62
     7
 10
13.095894
 20
-134.93652
 40
11.523461
 50
53.991676
 51
85.520553
  0
ARC
  8
0
  6
CONTINUOUS
 62
     7
 10
13.095894
 20
-134.93652
 40
9.7234612
 50
53.991676
 51
84.689121
  0
ARC
  8
0
  6
CONTINUOUS
 62
     7
 10
13.095894
 20
-125.0296
 40
9.7234612
 50
233.99167
 51
306.00832
  0
ARC
  8
0
  6
CONTINUOUS
 62
     7
 10
13.095894
 20
-125.0296
 40
11.523461
 50
233.99167
 51
265.52055
  0
ARC
  8
0
  6
CONTINUOUS
 62
     7
 10
13.095894
 20
-121.65807
 40
1.125
 50
36.869897
 51
143.1301
  0
ARC
  8
0
  6
CONTINUOUS
 62
     7
 10
13.095894
 20
-129.30806
 40
1.125
 50
216.8699
 51
323.1301
  0
ARC
  8
0
  6
CONTINUOUS
 62
     7
 10
13.095894
 20
-138.30806
 40
1.125
 50
216.8699
 51
323.1301
  0
ARC
  8
0
  6
CONTINUOUS
 62
     7
 10
13.095894
 20
-134.93652
 40
11.523461
 50
94.479452
 51
126.00833
  0
ARC
  8
0
  6
CONTINUOUS
 62
     7
 10
13.095894
 20
-134.93652
 40
9.7234612
 50
95.310878
 51
126.00833
  0
ARC
  8
0
  6
CONTINUOUS
 62
     7
 10
13.095894
 20
-125.0296
 40
11.523461
 50
274.47945
 51
306.00832
  0
ARC
  8
0
  6
CONTINUOUS
 62
     7
 10
164.63815
 20
-70.571701
 40
10
 50
270
 51
315.573
  0
ARC
  8
0
  6
CONTINUOUS
 62
     7
 10
136.77963
 20
-123.0717
 40
3
 50
270
 51
0
  0
ARC
  8
0
  6
CONTINUOUS
 62
     7
 10
126.64523
 20
-145.68704
 40
3.5999999
 50
126.00833
 51
233.99168
  0
ARC
  8
0
  6
CONTINUOUS
 62
     7
 10
126.64523
 20
-145.68704
 40
5.4000001
 50
126.00833
 51
233.99168
  0
ARC
  8
0
  6
CONTINUOUS
 62
     7
 10
130.24521
 20
-137.36205
 40
1.125
 50
36.869897
 51
143.1301
  0
ARC
  8
0
  6
CONTINUOUS
 62
     7
 10
130.24521
 20
-150.6405
 40
11.523461
 50
94.479452
 51
126.00833
  0
ARC
  8
0
  6
CONTINUOUS
 62
     7
 10
130.24521
 20
-150.6405
 40
9.7234612
 50
95.310878
 51
126.00833
  0
ARC
  8
0
  6
CONTINUOUS
 62
     7
 10
122.92111
 20
-203.5717
 40
10
 50
89.999996
 51
135.57298
  0
ARC
  8
0
  6
CONTINUOUS
 62
     7
 10
129.66049
 20
-184.5717
 40
12
 50
269.99998
 51
327.48676
  0
ARC
  8
0
  6
CONTINUOUS
 62
     7
 10
128.77963
 20
-168.5717
 40
25
 50
269.99998
 51
317.59102
  0
ARC
  8
0
  6
CONTINUOUS
 62
     7
 10
160.52866
 20
-197.5717
 40
18
 50
90.000016
 51
137.59096
  0
ARC
  8
0
  6
CONTINUOUS
 62
     7
 10
164.63815
 20
-189.5717
 40
10
 50
44.42703
 51
90.000016
  0
ARC
  8
0
  6
CONTINUOUS
 62
     7
 10
160.52866
 20
-62.571701
 40
18
 50
222.40897
 51
269.99992
  0
ARC
  8
0
  6
CONTINUOUS
 62
     7
 10
128.77963
 20
-91.571701
 40
25
 50
42.408928
 51
89.999962
  0
ARC
  8
0
  6
CONTINUOUS
 62
     7
 10
129.66049
 20
-75.571701
 40
12
 50
32.513186
 51
89.999962
  0
ARC
  8
0
  6
CONTINUOUS
 62
     7
 10
122.92111
 20
-56.571701
 40
10
 50
224.427
 51
270
  0
ARC
  8
0
  6
CONTINUOUS
 62
     7
 10
118.77963
 20
-123.0717
 40
3
 50
179.99999
 51
270
  0
ARC
  8
0
  6
CONTINUOUS
 62
     7
 10
118.77963
 20
-137.0717
 40
3
 50
90.000003
 51
180.00001
  0
ARC
  8
0
  6
CONTINUOUS
 62
     7
 10
136.77963
 20
-137.0717
 40
3
 50
0
 51
90.000003
  0
ARC
  8
0
  6
CONTINUOUS
 62
     7
 10
133.84518
 20
-145.68704
 40
3.5999999
 50
306.00832
 51
53.991676
  0
ARC
  8
0
  6
CONTINUOUS
 62
     7
 10
133.84518
 20
-145.68704
 40
5.4000001
 50
306.00832
 51
53.991676
  0
ARC
  8
0
  6
CONTINUOUS
 62
     7
 10
130.24521
 20
-150.6405
 40
11.523461
 50
53.991676
 51
85.520553
  0
ARC
  8
0
  6
CONTINUOUS
 62
     7
 10
130.24521
 20
-150.6405
 40
9.7234612
 50
53.991676
 51
84.689121
  0
ARC
  8
0
  6
CONTINUOUS
 62
     7
 10
130.24521
 20
-140.73358
 40
9.7234612
 50
233.99167
 51
306.00832
  0
ARC
  8
0
  6
CONTINUOUS
 62
     7
 10
130.24521
 20
-140.73358
 40
11.523461
 50
233.99167
 51
265.52055
  0
ARC
  8
0
  6
CONTINUOUS
 62
     7
 10
130.24521
 20
-145.01204
 40
1.125
 50
216.8699
 51
323.1301
  0
ARC
  8
0
  6
CONTINUOUS
 62
     7
 10
130.24521
 20
-154.01204
 40
1.125
 50
216.8699
 51
323.1301
  0
ARC
  8
0
  6
CONTINUOUS
 62
     7
 10
130.24521
 20
-140.73358
 40
11.523461
 50
274.47945
 51
306.00832
  0
TEXT
  8
0
  6
CONTINUOUS
 62
     7
 10
-379.08815
 20
266.396
 40
12
 41
0.84273711
  1
ＲＣＦ－Ｋ　ＲＳ（径違いソケット）
  0
TEXT
  8
0
  6
CONTINUOUS
 62
     7
 10
-387.48486
 20
219.01666
 40
8
 41
0.84633858
  1
３／４×１／２
  0
TEXT
  8
0
  6
CONTINUOUS
 62
     7
 10
-308.71969
 20
220.02647
 40
8
 41
0.84891105
  1
１×１／２
  0
TEXT
  8
0
  6
CONTINUOUS
 62
     7
 10
-236.01336
 20
221.03629
 40
8
 41
0.84891105
  1
１×３／４
  0
TEXT
  8
0
  6
CONTINUOUS
 62
     7
 10
-155.22856
 20
227.09515
 40
8
 41
0.84555565
  1
１１／４×３／４
  0
TEXT
  8
0
  6
CONTINUOUS
 62
     7
 10
-62.326043
 20
229.11476
 40
8
 41
0.84739783
  1
１１／４×１
  0
TEXT
  8
0
  6
CONTINUOUS
 62
     7
 10
9.3704655
 20
231.13438
 40
8
 41
0.84555565
  1
１１／２×３／４
  0
TEXT
  8
0
  6
CONTINUOUS
 62
     7
 10
104.29261
 20
232.1442
 40
8
 41
0.84739783
  1
１１／２×１
  0
TEXT
  8
0
  6
CONTINUOUS
 62
     7
 10
183.05779
 20
233.15401
 40
8
 41
0.8449534
  1
１１／２×１１／４
  0
TEXT
  8
0
  6
CONTINUOUS
 62
     7
 10
-383.44561
 20
86.73156
 40
8
 41
0.84891105
  1
２×３／４
  0
TEXT
  8
0
  6
CONTINUOUS
 62
     7
 10
-285.49405
 20
89.760994
 40
8
 41
0.85534224
  1
２×１
  0
TEXT
  8
0
  6
CONTINUOUS
 62
     7
 10
-194.61116
 20
90.770798
 40
8
 41
0.84739783
  1
２×１１／４
  0
TEXT
  8
0
  6
CONTINUOUS
 62
     7
 10
-100.69883
 20
88.751183
 40
8
 41
0.84739783
  1
２×１１／２
  0
TEXT
  8
0
  6
CONTINUOUS
 62
     7
 10
9.3704655
 20
96.829659
 40
8
 41
0.8449534
  1
２１／２×１１／２
  0
TEXT
  8
0
  6
CONTINUOUS
 62
     7
 10
122.46918
 20
94.810043
 40
8
 41
0.84739783
  1
２１／２×２
  0
TEXT
  8
0
  6
CONTINUOUS
 62
     7
 10
-100.69883
 20
-60.700699
 40
8
 41
0.85534224
  1
３×２
  0
TEXT
  8
0
  6
CONTINUOUS
 62
     7
 10
1.2919853
 20
-65.749748
 40
8
 41
0.84739783
  1
３×２１／２
  0
TEXT
  8
0
  6
CONTINUOUS
 62
     7
 10
125.49861
 20
-53.632027
 40
8
 41
0.85534224
  1
４×３
  0
POINT
  8
1
  6
CONTINUOUS
 62
     7
 10
410
 20
-297.5
  0
LINE
  8
1
  6
CONTINUOUS
 62
     7
 10
-429
 20
-297.5
 11
410
 21
-297.5
  0
LINE
  8
1
  6
CONTINUOUS
 62
     7
 10
-429
 20
297.5
 11
-429
 21
-297.5
  0
LINE
  8
1
  6
CONTINUOUS
 62
     7
 10
410
 20
297.5
 11
410
 21
-297.5
  0
LINE
  8
1
  6
CONTINUOUS
 62
     7
 10
-429
 20
297.5
 11
410
 21
297.5
  0
ENDSEC
  0
EOF
