  0
SECTION
  2
HEADER
  9
$EXTMAX
 10
1259
 20
-913.5
  9
$EXTMIN
 10
417
 20
-1507.5
  0
ENDSEC
  0
SECTION
  2
TABLES
  0
TABLE
  2
LTYPE
 70
    22
  0
LTYPE
  2
CONTINUOUS
 70
    64
  3
Solid line
 72
    65
 73
     0
 40
0.000000
  0
LTYPE
  2
DASHED
 70
    64
  3
__ __ __ __ __ __ __ __ __ __ __ __ __ __ __
 72
    65
 73
     2
 40
3.500000
 49
2.000000
 49
-1.500000
  0
LTYPE
  2
CENTER
 70
    64
  3
____ _ ____ _ ____ _ ____ _ ____ _ ____ _ ____
 72
    65
 73
     4
 40
17.500000
 49
13.000000
 49
-1.500000
 49
1.500000
 49
-1.500000
  0
LTYPE
  2
PHANTOM
 70
    64
  3
_____ _ _ _____ _ _ _____ _ _ _____ _ _ ____  
 72
    65
 73
     6
 40
15.500000
 49
8.000000
 49
-1.500000
 49
1.500000
 49
-1.500000
 49
1.500000
 49
-1.500000
  0
LTYPE
  2
DOT
 70
    64
  3
. . . . . . . . . . . . . . . . . . . . . . . .
 72
    65
 73
     2
 40
0.25
 49
0.0
 49
-0.25
  0
ENDTAB
  0
TABLE
  2
LAYER
 70
     2
  0
LAYER
  2
0
 70
     0
 62
     7
  6
CONTINUOUS
  0
LAYER
  2
1
 70
     0
 62
     7
  6
CONTINUOUS
  0
ENDTAB
  0
TABLE
  2
STYLE
 70
     1
  0
STYLE
  2
STANDARD
 70
     0
 40
0.000000
 41
1.000000
 50
0.000000
 71
     0
 42
0.200000
  3
txt
  4
BIGFONT
  0
ENDTAB
  0
TABLE
  2
VIEW
 70
     0
  0
ENDTAB
  0
ENDSEC
  0
SECTION
  2
BLOCKS
  0
ENDSEC
  0
SECTION
  2
ENTITIES
  0
POINT
  8
0
  6
CONTINUOUS
 62
     7
 10
-348.8071
 20
185.67468
  0
POINT
  8
0
  6
CONTINUOUS
 62
     7
 10
-348.93958
 20
164.69714
  0
POINT
  8
0
  6
CONTINUOUS
 62
     7
 10
-241.07063
 20
186.6541
  0
POINT
  8
0
  6
CONTINUOUS
 62
     7
 10
-240.94849
 20
164.69827
  0
POINT
  8
0
  6
CONTINUOUS
 62
     7
 10
-140.19012
 20
187.63353
  0
POINT
  8
0
  6
CONTINUOUS
 62
     7
 10
-140.00041
 20
164.48257
  0
POINT
  8
0
  6
CONTINUOUS
 62
     7
 10
-35.39193
 20
188.61295
  0
POINT
  8
0
  6
CONTINUOUS
 62
     7
 10
-35.430115
 20
160.50114
  0
POINT
  8
0
  6
CONTINUOUS
 62
     7
 10
84.097595
 20
189.59238
  0
POINT
  8
0
  6
CONTINUOUS
 62
     7
 10
84.450226
 20
160.93607
  0
POINT
  8
0
  6
CONTINUOUS
 62
     7
 10
-304.39148
 20
92.551201
  0
POINT
  8
0
  6
CONTINUOUS
 62
     7
 10
188.8958
 20
186.6541
  0
POINT
  8
0
  6
CONTINUOUS
 62
     7
 10
188.99294
 20
158.38553
  0
POINT
  8
0
  6
CONTINUOUS
 62
     7
 10
316.2207
 20
182.73642
  0
POINT
  8
0
  6
CONTINUOUS
 62
     7
 10
316.29974
 20
153.56386
  0
POINT
  8
0
  6
CONTINUOUS
 62
     7
 10
-355.66306
 20
61.28804
  0
POINT
  8
0
  6
CONTINUOUS
 62
     7
 10
-355.61533
 20
27.958496
  0
POINT
  8
0
  6
CONTINUOUS
 62
     7
 10
-218.54391
 20
59.329197
  0
POINT
  8
0
  6
CONTINUOUS
 62
     7
 10
-218.51097
 20
30.647337
  0
POINT
  8
0
  6
CONTINUOUS
 62
     7
 10
-81.424782
 20
55.411507
  0
POINT
  8
0
  6
CONTINUOUS
 62
     7
 10
-81.086037
 20
25.106834
  0
POINT
  8
0
  6
CONTINUOUS
 62
     7
 10
51.131012
 20
54.577827
  0
POINT
  8
0
  6
CONTINUOUS
 62
     7
 10
50.927544
 20
19.211906
  0
POINT
  8
0
  6
CONTINUOUS
 62
     7
 10
-355.66306
 20
-78.769356
  0
POINT
  8
0
  6
CONTINUOUS
 62
     7
 10
-355.78531
 20
-117.75082
  0
POINT
  8
0
  6
CONTINUOUS
 62
     7
 10
-214.00615
 20
-81.700356
  0
POINT
  8
0
  6
CONTINUOUS
 62
     7
 10
-60.36071
 20
-78.04213
  0
POINT
  8
0
  6
CONTINUOUS
 62
     7
 10
103.14885
 20
-89.824226
  0
POINT
  8
0
  6
CONTINUOUS
 62
     7
 10
295.72443
 20
-110.09534
  0
LINE
  8
0
  6
CONTINUOUS
 62
     7
 10
-332.3071
 20
168.1747
 11
-332.3071
 21
156.6747
  0
LINE
  8
0
  6
CONTINUOUS
 62
     7
 10
-365.30707
 20
168.1747
 11
-365.30707
 21
156.6747
  0
LINE
  8
0
  6
CONTINUOUS
 62
     7
 10
-334.3071
 20
199.17468
 11
-318.8071
 21
199.17468
  0
LINE
  8
0
  6
CONTINUOUS
 62
     7
 10
-328.3071
 20
172.17468
 11
-318.8071
 21
172.17468
  0
LINE
  8
0
  6
CENTER
 62
     7
 10
-330.98886
 20
185.67468
 11
-314.60709
 21
185.67468
  0
LINE
  8
0
  6
CENTER
 62
     7
 10
-348.8071
 20
167.85646
 11
-348.8071
 21
152.4747
  0
LINE
  8
0
  6
CONTINUOUS
 62
     7
 10
-318.8071
 20
199.17468
 11
-318.8071
 21
172.17468
  0
LINE
  8
0
  6
CONTINUOUS
 62
     7
 10
-365.30707
 20
156.6747
 11
-332.3071
 21
156.6747
  0
LINE
  8
0
  6
CONTINUOUS
 62
     7
 10
-353.43958
 20
165.14714
 11
-352.20697
 21
165.14714
  0
LINE
  8
0
  6
CONTINUOUS
 62
     7
 10
-353.43958
 20
164.24715
 11
-352.20697
 21
164.24715
  0
LINE
  8
0
  6
CONTINUOUS
 62
     7
 10
-345.67218
 20
164.24715
 11
-344.43958
 21
164.24715
  0
LINE
  8
0
  6
CONTINUOUS
 62
     7
 10
-345.67218
 20
165.14714
 11
-344.43958
 21
165.14714
  0
LINE
  8
0
  6
CONTINUOUS
 62
     7
 10
-351.30371
 20
164.24715
 11
-348.93958
 21
164.24715
  0
LINE
  8
0
  6
CONTINUOUS
 62
     7
 10
-351.30371
 20
165.14714
 11
-348.93958
 21
165.14714
  0
LINE
  8
0
  6
CONTINUOUS
 62
     7
 10
-220.57063
 20
168.15411
 11
-220.57063
 21
154.65411
  0
LINE
  8
0
  6
CENTER
 62
     7
 10
-224.50005
 20
186.6541
 11
-203.87064
 21
186.6541
  0
LINE
  8
0
  6
CENTER
 62
     7
 10
-241.07063
 20
170.08347
 11
-241.07063
 21
150.45412
  0
LINE
  8
0
  6
CONTINUOUS
 62
     7
 10
-215.57063
 20
173.1541
 11
-208.07063
 21
173.1541
  0
LINE
  8
0
  6
CONTINUOUS
 62
     7
 10
-232.57063
 20
200.1541
 11
-208.07063
 21
200.1541
  0
LINE
  8
0
  6
CONTINUOUS
 62
     7
 10
-261.57062
 20
171.15411
 11
-261.57062
 21
154.65411
  0
LINE
  8
0
  6
CONTINUOUS
 62
     7
 10
-208.07063
 20
200.1541
 11
-208.07063
 21
173.1541
  0
LINE
  8
0
  6
CONTINUOUS
 62
     7
 10
-261.57062
 20
154.65411
 11
-220.57063
 21
154.65411
  0
LINE
  8
0
  6
CONTINUOUS
 62
     7
 10
-246.94849
 20
165.29828
 11
-245.30501
 21
165.29828
  0
LINE
  8
0
  6
CONTINUOUS
 62
     7
 10
-246.94849
 20
164.09827
 11
-245.30501
 21
164.09827
  0
LINE
  8
0
  6
CONTINUOUS
 62
     7
 10
-236.59195
 20
164.09827
 11
-234.94849
 21
164.09827
  0
LINE
  8
0
  6
CONTINUOUS
 62
     7
 10
-236.59195
 20
165.29828
 11
-234.94849
 21
165.29828
  0
LINE
  8
0
  6
CONTINUOUS
 62
     7
 10
-244.10065
 20
164.09827
 11
-240.94849
 21
164.09827
  0
LINE
  8
0
  6
CONTINUOUS
 62
     7
 10
-244.10065
 20
165.29828
 11
-240.94849
 21
165.29828
  0
LINE
  8
0
  6
CENTER
 62
     7
 10
-140.19012
 20
168.98354
 11
-140.19012
 21
149.43353
  0
LINE
  8
0
  6
CENTER
 62
     7
 10
-121.54007
 20
187.63353
 11
-100.99013
 21
187.63353
  0
LINE
  8
0
  6
CONTINUOUS
 62
     7
 10
-114.69012
 20
171.13353
 11
-105.19012
 21
171.13353
  0
LINE
  8
0
  6
CONTINUOUS
 62
     7
 10
-126.69012
 20
204.13353
 11
-105.19012
 21
204.13353
  0
LINE
  8
0
  6
CONTINUOUS
 62
     7
 10
-119.69012
 20
166.13353
 11
-119.69012
 21
153.63353
  0
LINE
  8
0
  6
CONTINUOUS
 62
     7
 10
-160.69014
 20
170.13353
 11
-160.69014
 21
153.63353
  0
LINE
  8
0
  6
CONTINUOUS
 62
     7
 10
-160.69014
 20
153.63353
 11
-119.69012
 21
153.63353
  0
LINE
  8
0
  6
CONTINUOUS
 62
     7
 10
-105.19012
 20
204.13353
 11
-105.19012
 21
171.13353
  0
LINE
  8
0
  6
CONTINUOUS
 62
     7
 10
-146.00041
 20
165.08257
 11
-144.35695
 21
165.08257
  0
LINE
  8
0
  6
CONTINUOUS
 62
     7
 10
-146.00041
 20
163.88257
 11
-144.35695
 21
163.88257
  0
LINE
  8
0
  6
CONTINUOUS
 62
     7
 10
-135.64389
 20
163.88257
 11
-134.00041
 21
163.88257
  0
LINE
  8
0
  6
CONTINUOUS
 62
     7
 10
-135.64389
 20
165.08257
 11
-134.00041
 21
165.08257
  0
LINE
  8
0
  6
CONTINUOUS
 62
     7
 10
-143.15259
 20
163.88257
 11
-140.00041
 21
163.88257
  0
LINE
  8
0
  6
CONTINUOUS
 62
     7
 10
-143.15259
 20
165.08257
 11
-140.00041
 21
165.08257
  0
LINE
  8
0
  6
CONTINUOUS
 62
     7
 10
-5.3919301
 20
172.11295
 11
4.6080699
 21
172.11295
  0
LINE
  8
0
  6
CENTER
 62
     7
 10
-13.108407
 20
188.61295
 11
8.8080664
 21
188.61295
  0
LINE
  8
0
  6
CENTER
 62
     7
 10
-35.39193
 20
166.32944
 11
-35.39193
 21
146.21295
  0
LINE
  8
0
  6
CONTINUOUS
 62
     7
 10
-21.39193
 20
205.11293
 11
4.6080699
 21
205.11293
  0
LINE
  8
0
  6
CONTINUOUS
 62
     7
 10
-60.391926
 20
166.11296
 11
-60.391926
 21
150.61296
  0
LINE
  8
0
  6
CONTINUOUS
 62
     7
 10
-10.391931
 20
167.11296
 11
-10.391931
 21
150.61296
  0
LINE
  8
0
  6
CONTINUOUS
 62
     7
 10
-60.391926
 20
150.61296
 11
-10.391931
 21
150.61296
  0
LINE
  8
0
  6
CONTINUOUS
 62
     7
 10
4.6080699
 20
205.11293
 11
4.6080699
 21
172.11295
  0
LINE
  8
0
  6
CONTINUOUS
 62
     7
 10
-41.430115
 20
161.10114
 11
-39.786648
 21
161.10114
  0
LINE
  8
0
  6
CONTINUOUS
 62
     7
 10
-41.430115
 20
159.90114
 11
-39.786648
 21
159.90114
  0
LINE
  8
0
  6
CONTINUOUS
 62
     7
 10
-31.073582
 20
159.90114
 11
-29.430115
 21
159.90114
  0
LINE
  8
0
  6
CONTINUOUS
 62
     7
 10
-31.073582
 20
161.10114
 11
-29.430115
 21
161.10114
  0
LINE
  8
0
  6
CONTINUOUS
 62
     7
 10
-38.582287
 20
159.90114
 11
-35.430115
 21
159.90114
  0
LINE
  8
0
  6
CONTINUOUS
 62
     7
 10
-38.582287
 20
161.10114
 11
-35.430115
 21
161.10114
  0
LINE
  8
0
  6
CENTER
 62
     7
 10
107.72108
 20
189.59238
 11
130.29759
 21
189.59238
  0
LINE
  8
0
  6
CENTER
 62
     7
 10
84.097595
 20
165.96898
 11
84.097595
 21
145.19238
  0
LINE
  8
0
  6
CONTINUOUS
 62
     7
 10
59.097599
 20
168.09239
 11
59.097599
 21
149.59239
  0
LINE
  8
0
  6
CONTINUOUS
 62
     7
 10
109.0976
 20
164.09239
 11
109.0976
 21
149.59239
  0
LINE
  8
0
  6
CONTINUOUS
 62
     7
 10
114.0976
 20
169.09238
 11
126.0976
 21
169.09238
  0
LINE
  8
0
  6
CONTINUOUS
 62
     7
 10
101.0976
 20
210.09236
 11
126.0976
 21
210.09236
  0
LINE
  8
0
  6
CONTINUOUS
 62
     7
 10
126.0976
 20
210.09236
 11
126.0976
 21
169.09238
  0
LINE
  8
0
  6
CONTINUOUS
 62
     7
 10
59.097599
 20
149.59239
 11
109.0976
 21
149.59239
  0
LINE
  8
0
  6
CONTINUOUS
 62
     7
 10
78.450226
 20
161.53606
 11
80.093689
 21
161.53606
  0
LINE
  8
0
  6
CONTINUOUS
 62
     7
 10
78.450226
 20
160.33606
 11
80.093689
 21
160.33606
  0
LINE
  8
0
  6
CONTINUOUS
 62
     7
 10
88.806763
 20
160.33606
 11
90.450226
 21
160.33606
  0
LINE
  8
0
  6
CONTINUOUS
 62
     7
 10
88.806763
 20
161.53606
 11
90.450226
 21
161.53606
  0
LINE
  8
0
  6
CONTINUOUS
 62
     7
 10
81.29805
 20
160.33606
 11
84.450226
 21
160.33606
  0
LINE
  8
0
  6
CONTINUOUS
 62
     7
 10
81.29805
 20
161.53606
 11
84.450226
 21
161.53606
  0
LINE
  8
0
  6
CENTER
 62
     7
 10
209.41037
 20
186.6541
 11
236.09579
 21
186.6541
  0
LINE
  8
0
  6
CENTER
 62
     7
 10
188.8958
 20
166.13954
 11
188.8958
 21
144.2541
  0
LINE
  8
0
  6
CONTINUOUS
 62
     7
 10
221.8958
 20
170.1541
 11
231.8958
 21
170.1541
  0
LINE
  8
0
  6
CONTINUOUS
 62
     7
 10
196.8958
 20
203.1541
 11
231.8958
 21
203.1541
  0
LINE
  8
0
  6
CONTINUOUS
 62
     7
 10
216.8958
 20
165.15411
 11
216.8958
 21
148.65411
  0
LINE
  8
0
  6
CONTINUOUS
 62
     7
 10
160.89578
 20
167.15411
 11
160.89578
 21
148.65411
  0
LINE
  8
0
  6
CONTINUOUS
 62
     7
 10
160.89578
 20
148.65411
 11
216.8958
 21
148.65411
  0
LINE
  8
0
  6
CONTINUOUS
 62
     7
 10
231.8958
 20
203.1541
 11
231.8958
 21
170.1541
  0
LINE
  8
0
  6
CENTER
 62
     7
 10
340.12231
 20
182.73642
 11
365.42068
 21
182.73642
  0
LINE
  8
0
  6
CENTER
 62
     7
 10
316.2207
 20
158.83475
 11
316.2207
 21
137.33643
  0
LINE
  8
0
  6
CONTINUOUS
 62
     7
 10
344.2207
 20
157.23643
 11
344.2207
 21
141.73643
  0
LINE
  8
0
  6
CONTINUOUS
 62
     7
 10
349.2207
 20
162.23642
 11
361.2207
 21
162.23642
  0
LINE
  8
0
  6
CONTINUOUS
 62
     7
 10
330.7207
 20
203.23642
 11
361.2207
 21
203.23642
  0
LINE
  8
0
  6
CONTINUOUS
 62
     7
 10
288.2207
 20
160.73643
 11
288.2207
 21
141.73643
  0
LINE
  8
0
  6
CONTINUOUS
 62
     7
 10
361.2207
 20
203.23642
 11
361.2207
 21
162.23642
  0
LINE
  8
0
  6
CONTINUOUS
 62
     7
 10
288.2207
 20
141.73643
 11
344.2207
 21
141.73643
  0
LINE
  8
0
  6
CONTINUOUS
 62
     7
 10
-323.66306
 20
36.288044
 11
-307.66306
 21
36.288044
  0
LINE
  8
0
  6
CENTER
 62
     7
 10
-355.66306
 20
32.497471
 11
-355.66306
 21
11.888045
  0
LINE
  8
0
  6
CENTER
 62
     7
 10
-326.87247
 20
61.28804
 11
-302.48572
 21
61.28804
  0
LINE
  8
0
  6
CONTINUOUS
 62
     7
 10
-383.66306
 20
32.288044
 11
-383.66306
 21
16.28804
  0
LINE
  8
0
  6
CONTINUOUS
 62
     7
 10
-329.66306
 20
86.28804
 11
-307.66306
 21
86.28804
  0
LINE
  8
0
  6
CONTINUOUS
 62
     7
 10
-327.66306
 20
32.288044
 11
-327.66306
 21
16.28804
  0
LINE
  8
0
  6
CONTINUOUS
 62
     7
 10
-383.66306
 20
16.28804
 11
-327.66306
 21
16.28804
  0
LINE
  8
0
  6
CONTINUOUS
 62
     7
 10
-307.66306
 20
86.28804
 11
-307.66306
 21
36.288044
  0
LINE
  8
0
  6
CONTINUOUS
 62
     7
 10
182.99294
 20
158.98553
 11
184.6364
 21
158.98553
  0
LINE
  8
0
  6
CONTINUOUS
 62
     7
 10
182.99294
 20
157.78554
 11
184.6364
 21
157.78554
  0
LINE
  8
0
  6
CONTINUOUS
 62
     7
 10
193.34947
 20
157.78554
 11
194.99294
 21
157.78554
  0
LINE
  8
0
  6
CONTINUOUS
 62
     7
 10
193.34947
 20
158.98553
 11
194.99294
 21
158.98553
  0
LINE
  8
0
  6
CONTINUOUS
 62
     7
 10
185.84076
 20
157.78554
 11
188.99294
 21
157.78554
  0
LINE
  8
0
  6
CONTINUOUS
 62
     7
 10
185.84076
 20
158.98553
 11
188.99294
 21
158.98553
  0
LINE
  8
0
  6
CONTINUOUS
 62
     7
 10
310.29974
 20
154.16386
 11
311.94321
 21
154.16386
  0
LINE
  8
0
  6
CONTINUOUS
 62
     7
 10
310.29974
 20
152.96387
 11
311.94321
 21
152.96387
  0
LINE
  8
0
  6
CONTINUOUS
 62
     7
 10
320.65628
 20
152.96387
 11
322.29974
 21
152.96387
  0
LINE
  8
0
  6
CONTINUOUS
 62
     7
 10
320.65628
 20
154.16386
 11
322.29974
 21
154.16386
  0
LINE
  8
0
  6
CONTINUOUS
 62
     7
 10
313.14758
 20
152.96387
 11
316.29974
 21
152.96387
  0
LINE
  8
0
  6
CONTINUOUS
 62
     7
 10
313.14758
 20
154.16386
 11
316.29974
 21
154.16386
  0
LINE
  8
0
  6
CONTINUOUS
 62
     7
 10
-361.61533
 20
28.558498
 11
-359.97186
 21
28.558498
  0
LINE
  8
0
  6
CONTINUOUS
 62
     7
 10
-361.61533
 20
27.358498
 11
-359.97186
 21
27.358498
  0
LINE
  8
0
  6
CONTINUOUS
 62
     7
 10
-351.25879
 20
27.358498
 11
-349.61533
 21
27.358498
  0
LINE
  8
0
  6
CONTINUOUS
 62
     7
 10
-351.25879
 20
28.558498
 11
-349.61533
 21
28.558498
  0
LINE
  8
0
  6
CONTINUOUS
 62
     7
 10
-358.76749
 20
27.358498
 11
-355.61533
 21
27.358498
  0
LINE
  8
0
  6
CONTINUOUS
 62
     7
 10
-358.76749
 20
28.558498
 11
-355.61533
 21
28.558498
  0
LINE
  8
0
  6
CENTER
 62
     7
 10
-192.67555
 20
59.329197
 11
-165.34392
 21
59.329197
  0
LINE
  8
0
  6
CENTER
 62
     7
 10
-218.54391
 20
33.460838
 11
-218.54391
 21
13.729199
  0
LINE
  8
0
  6
CONTINUOUS
 62
     7
 10
-215.04391
 20
75.829193
 11
-169.54391
 21
75.829193
  0
LINE
  8
0
  6
CONTINUOUS
 62
     7
 10
-253.04391
 20
37.829193
 11
-253.04391
 21
18.329199
  0
LINE
  8
0
  6
CONTINUOUS
 62
     7
 10
-184.04391
 20
37.829193
 11
-184.04391
 21
18.329199
  0
LINE
  8
0
  6
CONTINUOUS
 62
     7
 10
-179.04391
 20
42.829193
 11
-169.54391
 21
42.829193
  0
LINE
  8
0
  6
CONTINUOUS
 62
     7
 10
-253.04391
 20
18.329199
 11
-184.04391
 21
18.329199
  0
LINE
  8
0
  6
CONTINUOUS
 62
     7
 10
-169.54391
 20
75.829193
 11
-169.54391
 21
42.829193
  0
LINE
  8
0
  6
CONTINUOUS
 62
     7
 10
-226.01097
 20
31.397337
 11
-223.95663
 21
31.397337
  0
LINE
  8
0
  6
CONTINUOUS
 62
     7
 10
-226.01097
 20
29.897337
 11
-223.95663
 21
29.897337
  0
LINE
  8
0
  6
CONTINUOUS
 62
     7
 10
-213.06531
 20
29.897337
 11
-211.01097
 21
29.897337
  0
LINE
  8
0
  6
CONTINUOUS
 62
     7
 10
-213.06531
 20
31.397337
 11
-211.01097
 21
31.397337
  0
LINE
  8
0
  6
CONTINUOUS
 62
     7
 10
-222.45119
 20
29.897337
 11
-218.51097
 21
29.897337
  0
LINE
  8
0
  6
CONTINUOUS
 62
     7
 10
-222.45119
 20
31.397337
 11
-218.51097
 21
31.397337
  0
LINE
  8
0
  6
CENTER
 62
     7
 10
-54.083626
 20
55.411507
 11
-26.224785
 21
55.411507
  0
LINE
  8
0
  6
CENTER
 62
     7
 10
-81.424782
 20
28.070351
 11
-81.424782
 21
6.811501
  0
LINE
  8
0
  6
CONTINUOUS
 62
     7
 10
-41.924782
 20
34.911507
 11
-30.424782
 21
34.911507
  0
LINE
  8
0
  6
CONTINUOUS
 62
     7
 10
-69.924782
 20
75.911507
 11
-30.424782
 21
75.911507
  0
LINE
  8
0
  6
CONTINUOUS
 62
     7
 10
-46.924782
 20
29.911507
 11
-46.924782
 21
11.411507
  0
LINE
  8
0
  6
CONTINUOUS
 62
     7
 10
-115.92477
 20
29.911507
 11
-115.92477
 21
11.411507
  0
LINE
  8
0
  6
CONTINUOUS
 62
     7
 10
-30.424782
 20
75.911507
 11
-30.424782
 21
34.911507
  0
LINE
  8
0
  6
CONTINUOUS
 62
     7
 10
-115.92477
 20
11.411507
 11
-46.924782
 21
11.411507
  0
LINE
  8
0
  6
CENTER
 62
     7
 10
81.814499
 20
54.577827
 11
109.53101
 21
54.577827
  0
LINE
  8
0
  6
CENTER
 62
     7
 10
51.131012
 20
23.894341
 11
51.131012
 21
1.9778216
  0
LINE
  8
0
  6
CONTINUOUS
 62
     7
 10
90.631012
 20
29.577827
 11
105.13101
 21
29.577827
  0
LINE
  8
0
  6
CONTINUOUS
 62
     7
 10
71.631012
 20
79.57782
 11
105.13101
 21
79.57782
  0
LINE
  8
0
  6
CONTINUOUS
 62
     7
 10
85.631012
 20
24.577827
 11
85.631012
 21
6.5778279
  0
LINE
  8
0
  6
CONTINUOUS
 62
     7
 10
16.631004
 20
24.577827
 11
16.631004
 21
6.5778279
  0
LINE
  8
0
  6
CONTINUOUS
 62
     7
 10
16.631004
 20
6.5778279
 11
85.631012
 21
6.5778279
  0
LINE
  8
0
  6
CONTINUOUS
 62
     7
 10
105.13101
 20
79.57782
 11
105.13101
 21
29.577827
  0
LINE
  8
0
  6
CONTINUOUS
 62
     7
 10
-88.586037
 20
25.856834
 11
-86.5317
 21
25.856834
  0
LINE
  8
0
  6
CONTINUOUS
 62
     7
 10
-88.586037
 20
24.356834
 11
-86.5317
 21
24.356834
  0
LINE
  8
0
  6
CONTINUOUS
 62
     7
 10
-75.640373
 20
24.356834
 11
-73.586037
 21
24.356834
  0
LINE
  8
0
  6
CONTINUOUS
 62
     7
 10
-75.640373
 20
25.856834
 11
-73.586037
 21
25.856834
  0
LINE
  8
0
  6
CONTINUOUS
 62
     7
 10
-85.026253
 20
24.356834
 11
-81.086037
 21
24.356834
  0
LINE
  8
0
  6
CONTINUOUS
 62
     7
 10
-85.026253
 20
25.856834
 11
-81.086037
 21
25.856834
  0
LINE
  8
0
  6
CONTINUOUS
 62
     7
 10
43.427544
 20
19.961906
 11
45.481873
 21
19.961906
  0
LINE
  8
0
  6
CONTINUOUS
 62
     7
 10
43.427544
 20
18.461906
 11
45.481873
 21
18.461906
  0
LINE
  8
0
  6
CONTINUOUS
 62
     7
 10
56.373207
 20
18.461906
 11
58.427544
 21
18.461906
  0
LINE
  8
0
  6
CONTINUOUS
 62
     7
 10
56.373207
 20
19.961906
 11
58.427544
 21
19.961906
  0
LINE
  8
0
  6
CONTINUOUS
 62
     7
 10
46.987328
 20
18.461906
 11
50.927544
 21
18.461906
  0
LINE
  8
0
  6
CONTINUOUS
 62
     7
 10
46.987328
 20
19.961906
 11
50.927544
 21
19.961906
  0
LINE
  8
0
  6
CONTINUOUS
 62
     7
 10
-331.16306
 20
-50.769348
 11
-300.66306
 21
-50.769348
  0
LINE
  8
0
  6
CONTINUOUS
 62
     7
 10
-390.16306
 20
-130.76936
 11
-321.16306
 21
-130.76936
  0
LINE
  8
0
  6
CENTER
 62
     7
 10
-323.49173
 20
-78.769356
 11
-296.26306
 21
-78.769356
  0
LINE
  8
0
  6
CENTER
 62
     7
 10
-355.66306
 20
-110.94068
 11
-355.66306
 21
-135.36935
  0
LINE
  8
0
  6
CONTINUOUS
 62
     7
 10
-316.16306
 20
-106.76936
 11
-300.66306
 21
-106.76936
  0
LINE
  8
0
  6
CONTINUOUS
 62
     7
 10
-321.16306
 20
-111.76936
 11
-321.16306
 21
-130.76936
  0
LINE
  8
0
  6
CONTINUOUS
 62
     7
 10
-390.16306
 20
-109.76936
 11
-390.16306
 21
-130.76936
  0
LINE
  8
0
  6
CONTINUOUS
 62
     7
 10
-300.66306
 20
-50.769348
 11
-300.66306
 21
-106.76936
  0
LINE
  8
0
  6
CONTINUOUS
 62
     7
 10
-363.28531
 20
-117.00082
 11
-361.23096
 21
-117.00082
  0
LINE
  8
0
  6
CONTINUOUS
 62
     7
 10
-363.28531
 20
-118.50082
 11
-361.23096
 21
-118.50082
  0
LINE
  8
0
  6
CONTINUOUS
 62
     7
 10
-350.33963
 20
-118.50082
 11
-348.28531
 21
-118.50082
  0
LINE
  8
0
  6
CONTINUOUS
 62
     7
 10
-350.33963
 20
-117.00082
 11
-348.28531
 21
-117.00082
  0
LINE
  8
0
  6
CONTINUOUS
 62
     7
 10
-359.72552
 20
-118.50082
 11
-355.78531
 21
-118.50082
  0
LINE
  8
0
  6
CONTINUOUS
 62
     7
 10
-359.72552
 20
-117.00082
 11
-355.78531
 21
-117.00082
  0
LINE
  8
0
  6
CONTINUOUS
 62
     7
 10
-166.00615
 20
-102.20036
 11
-163.60423
 21
-102.20036
  0
LINE
  8
0
  6
CONTINUOUS
 62
     7
 10
-211.00615
 20
-61.200352
 11
-163.60423
 21
-61.200352
  0
LINE
  8
0
  6
CONTINUOUS
 62
     7
 10
-259.50613
 20
-117.70036
 11
-259.50613
 21
-129.70035
  0
LINE
  8
0
  6
CENTER
 62
     7
 10
-214.00615
 20
-111.74552
 11
-214.00615
 21
-134.70035
  0
LINE
  8
0
  6
CONTINUOUS
 62
     7
 10
-171.00615
 20
-107.20036
 11
-171.00615
 21
-112.82696
  0
LINE
  8
0
  6
CONTINUOUS
 62
     7
 10
-257.00613
 20
-107.20036
 11
-257.00613
 21
-112.82696
  0
LINE
  8
0
  6
CENTER
 62
     7
 10
-183.96086
 20
-81.700356
 11
-149.60619
 21
-81.700356
  0
LINE
  8
0
  6
CONTINUOUS
 62
     7
 10
-161.00615
 20
-103.70036
 11
-154.00615
 21
-103.70036
  0
LINE
  8
0
  6
CONTINUOUS
 62
     7
 10
-161.00615
 20
-59.700352
 11
-154.00615
 21
-59.700352
  0
LINE
  8
0
  6
CONTINUOUS
 62
     7
 10
-168.50615
 20
-117.70036
 11
-168.50615
 21
-129.70035
  0
LINE
  8
0
  6
CONTINUOUS
 62
     7
 10
-154.00615
 20
-59.700352
 11
-154.00615
 21
-103.70036
  0
LINE
  8
0
  6
CONTINUOUS
 62
     7
 10
-161.00615
 20
-103.70036
 11
-161.00615
 21
-59.700352
  0
LINE
  8
0
  6
CONTINUOUS
 62
     7
 10
-259.50613
 20
-129.70035
 11
-168.50615
 21
-129.70035
  0
LINE
  8
0
  6
CONTINUOUS
 62
     7
 10
-168.50615
 20
-117.70036
 11
-259.50613
 21
-117.70036
  0
LINE
  8
0
  6
CONTINUOUS
 62
     7
 10
-221.33116
 20
-107.37536
 11
-219.27684
 21
-107.37536
  0
LINE
  8
0
  6
CONTINUOUS
 62
     7
 10
-221.33116
 20
-108.87536
 11
-219.27684
 21
-108.87536
  0
LINE
  8
0
  6
CONTINUOUS
 62
     7
 10
-208.38548
 20
-108.87536
 11
-206.33116
 21
-108.87536
  0
LINE
  8
0
  6
CONTINUOUS
 62
     7
 10
-208.38548
 20
-107.37536
 11
-206.33116
 21
-107.37536
  0
LINE
  8
0
  6
CONTINUOUS
 62
     7
 10
-217.77135
 20
-108.87536
 11
-213.83116
 21
-108.87536
  0
LINE
  8
0
  6
CONTINUOUS
 62
     7
 10
-217.77135
 20
-107.37536
 11
-213.83116
 21
-107.37536
  0
LINE
  8
0
  6
CONTINUOUS
 62
     7
 10
-14.860708
 20
-126.04213
 11
-14.860708
 21
-138.04213
  0
LINE
  8
0
  6
CENTER
 62
     7
 10
-60.36071
 20
-119.53331
 11
-60.36071
 21
-143.04213
  0
LINE
  8
0
  6
CONTINUOUS
 62
     7
 10
-17.360708
 20
-118.54213
 11
-17.360708
 21
-121.16873
  0
LINE
  8
0
  6
CONTINUOUS
 62
     7
 10
-103.36071
 20
-118.54213
 11
-103.36071
 21
-121.16873
  0
LINE
  8
0
  6
CONTINUOUS
 62
     7
 10
-105.86071
 20
-126.04213
 11
-105.86071
 21
-138.04213
  0
LINE
  8
0
  6
CENTER
 62
     7
 10
-18.869558
 20
-78.04213
 11
9.2392673
 21
-78.04213
  0
LINE
  8
0
  6
CONTINUOUS
 62
     7
 10
-6.3607082
 20
-41.542126
 11
4.6392918
 21
-41.542126
  0
LINE
  8
0
  6
CONTINUOUS
 62
     7
 10
-28.360708
 20
-43.542126
 11
-9.8248196
 21
-43.542126
  0
LINE
  8
0
  6
CONTINUOUS
 62
     7
 10
-6.3607082
 20
-114.54213
 11
4.6392918
 21
-114.54213
  0
LINE
  8
0
  6
CONTINUOUS
 62
     7
 10
-11.360708
 20
-112.54213
 11
-9.8248196
 21
-112.54213
  0
LINE
  8
0
  6
CONTINUOUS
 62
     7
 10
-105.86071
 20
-138.04213
 11
-14.860708
 21
-138.04213
  0
LINE
  8
0
  6
CONTINUOUS
 62
     7
 10
-14.860708
 20
-126.04213
 11
-105.86071
 21
-126.04213
  0
LINE
  8
0
  6
CONTINUOUS
 62
     7
 10
4.6392918
 20
-41.542126
 11
4.6392918
 21
-114.54213
  0
LINE
  8
0
  6
CONTINUOUS
 62
     7
 10
-6.3607082
 20
-41.542126
 11
-6.3607082
 21
-114.54213
  0
LINE
  8
0
  6
CONTINUOUS
 62
     7
 10
-66.98571
 20
-116.31713
 11
-64.931389
 21
-116.31713
  0
LINE
  8
0
  6
CONTINUOUS
 62
     7
 10
-66.98571
 20
-117.81713
 11
-64.931389
 21
-117.81713
  0
LINE
  8
0
  6
CONTINUOUS
 62
     7
 10
-54.040031
 20
-117.81713
 11
-51.98571
 21
-117.81713
  0
LINE
  8
0
  6
CONTINUOUS
 62
     7
 10
-54.040031
 20
-116.31713
 11
-51.98571
 21
-116.31713
  0
LINE
  8
0
  6
CONTINUOUS
 62
     7
 10
-63.425957
 20
-117.81713
 11
-59.48571
 21
-117.81713
  0
LINE
  8
0
  6
CONTINUOUS
 62
     7
 10
-63.425957
 20
-116.31713
 11
-59.48571
 21
-116.31713
  0
LINE
  8
0
  6
CENTER
 62
     7
 10
103.14885
 20
-139.40431
 11
103.14885
 21
-167.22426
  0
LINE
  8
0
  6
CENTER
 62
     7
 10
152.72891
 20
-89.824226
 11
183.14885
 21
-89.824226
  0
LINE
  8
0
  6
CONTINUOUS
 62
     7
 10
155.64885
 20
-148.82423
 11
155.64885
 21
-161.82423
  0
LINE
  8
0
  6
CONTINUOUS
 62
     7
 10
53.648853
 20
-140.82423
 11
53.648853
 21
-141.68282
  0
LINE
  8
0
  6
CONTINUOUS
 62
     7
 10
166.14885
 20
-44.324226
 11
178.14885
 21
-44.324226
  0
LINE
  8
0
  6
CONTINUOUS
 62
     7
 10
147.64885
 20
-46.824226
 11
161.27545
 21
-46.824226
  0
LINE
  8
0
  6
CONTINUOUS
 62
     7
 10
159.64885
 20
-132.82423
 11
161.27545
 21
-132.82423
  0
LINE
  8
0
  6
CONTINUOUS
 62
     7
 10
152.64885
 20
-139.82423
 11
152.64885
 21
-141.68282
  0
LINE
  8
0
  6
CONTINUOUS
 62
     7
 10
50.648853
 20
-148.82423
 11
50.648853
 21
-161.82426
  0
LINE
  8
0
  6
CONTINUOUS
 62
     7
 10
166.14885
 20
-135.32423
 11
178.14885
 21
-135.32423
  0
LINE
  8
0
  6
CONTINUOUS
 62
     7
 10
178.14885
 20
-44.324226
 11
178.14885
 21
-135.32423
  0
LINE
  8
0
  6
CONTINUOUS
 62
     7
 10
166.14885
 20
-135.32423
 11
166.14885
 21
-44.324226
  0
LINE
  8
0
  6
CONTINUOUS
 62
     7
 10
50.648853
 20
-161.82426
 11
155.64885
 21
-161.82426
  0
LINE
  8
0
  6
CONTINUOUS
 62
     7
 10
155.64885
 20
-148.82423
 11
50.648853
 21
-148.82423
  0
LINE
  8
0
  6
CONTINUOUS
 62
     7
 10
94.323837
 20
-137.74925
 11
96.789047
 21
-137.74925
  0
LINE
  8
0
  6
CONTINUOUS
 62
     7
 10
94.323837
 20
-139.54924
 11
96.789047
 21
-139.54924
  0
LINE
  8
0
  6
CONTINUOUS
 62
     7
 10
109.85864
 20
-139.54924
 11
112.32384
 21
-139.54924
  0
LINE
  8
0
  6
CONTINUOUS
 62
     7
 10
109.85864
 20
-137.74925
 11
112.32384
 21
-137.74925
  0
LINE
  8
0
  6
CONTINUOUS
 62
     7
 10
98.595581
 20
-139.54924
 11
103.32384
 21
-139.54924
  0
LINE
  8
0
  6
CONTINUOUS
 62
     7
 10
98.595581
 20
-137.74925
 11
103.32384
 21
-137.74925
  0
LINE
  8
0
  6
CENTER
 62
     7
 10
295.72443
 20
-165.99658
 11
295.72443
 21
-199.29535
  0
LINE
  8
0
  6
CENTER
 62
     7
 10
351.62561
 20
-110.09534
 11
392.12442
 21
-110.09534
  0
LINE
  8
0
  6
CONTINUOUS
 62
     7
 10
373.72443
 20
-162.59534
 11
386.72443
 21
-162.59534
  0
LINE
  8
0
  6
CONTINUOUS
 62
     7
 10
335.22443
 20
-60.595341
 11
366.58298
 21
-60.595341
  0
LINE
  8
0
  6
CONTINUOUS
 62
     7
 10
373.72443
 20
-57.595341
 11
386.72443
 21
-57.595341
  0
LINE
  8
0
  6
CONTINUOUS
 62
     7
 10
232.22441
 20
-163.59534
 11
232.22441
 21
-169.95392
  0
LINE
  8
0
  6
CONTINUOUS
 62
     7
 10
359.22443
 20
-166.59534
 11
359.22443
 21
-169.95392
  0
LINE
  8
0
  6
CONTINUOUS
 62
     7
 10
229.22441
 20
-177.09534
 11
229.22441
 21
-193.09534
  0
LINE
  8
0
  6
CONTINUOUS
 62
     7
 10
362.22443
 20
-177.09534
 11
362.22443
 21
-193.09534
  0
LINE
  8
0
  6
CONTINUOUS
 62
     7
 10
386.72443
 20
-57.595341
 11
386.72443
 21
-162.59534
  0
LINE
  8
0
  6
CONTINUOUS
 62
     7
 10
373.72443
 20
-162.59534
 11
373.72443
 21
-57.595341
  0
LINE
  8
0
  6
CONTINUOUS
 62
     7
 10
229.22441
 20
-193.09534
 11
362.22443
 21
-193.09534
  0
LINE
  8
0
  6
CONTINUOUS
 62
     7
 10
362.22443
 20
-177.09534
 11
229.22441
 21
-177.09534
  0
LINE
  8
0
  6
CONTINUOUS
 62
     7
 10
286.1994
 20
-166.07031
 11
288.66461
 21
-166.07031
  0
LINE
  8
0
  6
CONTINUOUS
 62
     7
 10
286.1994
 20
-167.87036
 11
288.66461
 21
-167.87036
  0
LINE
  8
0
  6
CONTINUOUS
 62
     7
 10
301.73422
 20
-167.87036
 11
304.19943
 21
-167.87036
  0
LINE
  8
0
  6
CONTINUOUS
 62
     7
 10
301.73422
 20
-166.07031
 11
304.19943
 21
-166.07031
  0
LINE
  8
0
  6
CONTINUOUS
 62
     7
 10
290.47116
 20
-167.87036
 11
295.1994
 21
-167.87036
  0
LINE
  8
0
  6
CONTINUOUS
 62
     7
 10
290.47116
 20
-166.07031
 11
295.1994
 21
-166.07031
  0
ARC
  8
0
  6
CONTINUOUS
 62
     7
 10
-334.30707
 20
168.1747
 40
31
 50
89.999996
 51
179.99998
  0
ARC
  8
0
  6
CONTINUOUS
 62
     7
 10
-328.30707
 20
168.1747
 40
4
 50
89.999996
 51
179.99998
  0
ARC
  8
0
  6
CENTER
 62
     7
 10
-330.98883
 20
167.85646
 40
17.818237
 50
89.999996
 51
179.99998
  0
ARC
  8
0
  6
CONTINUOUS
 62
     7
 10
-348.93958
 20
166.49715
 40
1.8
 50
36.008324
 51
143.99167
  0
ARC
  8
0
  6
CONTINUOUS
 62
     7
 10
-348.93958
 20
166.49715
 40
2.7
 50
36.008324
 51
143.99167
  0
ARC
  8
0
  6
CONTINUOUS
 62
     7
 10
-348.93958
 20
162.89714
 40
1.8
 50
216.00833
 51
323.99168
  0
ARC
  8
0
  6
CONTINUOUS
 62
     7
 10
-348.93958
 20
162.89714
 40
2.7
 50
216.00833
 51
323.99168
  0
ARC
  8
0
  6
CONTINUOUS
 62
     7
 10
-346.46283
 20
164.69714
 40
5.7617307
 50
143.99167
 51
175.52055
  0
ARC
  8
0
  6
CONTINUOUS
 62
     7
 10
-346.46283
 20
164.69714
 40
4.8617306
 50
143.99167
 51
174.68912
  0
ARC
  8
0
  6
CONTINUOUS
 62
     7
 10
-351.41629
 20
164.69714
 40
4.8617306
 50
323.99167
 51
36.008324
  0
ARC
  8
0
  6
CONTINUOUS
 62
     7
 10
-351.41629
 20
164.69714
 40
5.7617307
 50
323.99167
 51
355.52055
  0
ARC
  8
0
  6
CONTINUOUS
 62
     7
 10
-353.10208
 20
164.69714
 40
0.5625
 50
126.8699
 51
233.13009
  0
ARC
  8
0
  6
CONTINUOUS
 62
     7
 10
-349.27707
 20
164.69714
 40
0.5625
 50
306.8699
 51
53.130102
  0
ARC
  8
0
  6
CONTINUOUS
 62
     7
 10
-344.77707
 20
164.69714
 40
0.5625
 50
306.8699
 51
53.130102
  0
ARC
  8
0
  6
CONTINUOUS
 62
     7
 10
-346.46283
 20
164.69714
 40
5.7617307
 50
184.47945
 51
216.00833
  0
ARC
  8
0
  6
CONTINUOUS
 62
     7
 10
-346.46283
 20
164.69714
 40
4.8617306
 50
185.31088
 51
216.00833
  0
ARC
  8
0
  6
CONTINUOUS
 62
     7
 10
-351.41629
 20
164.69714
 40
5.7617307
 50
4.4794472
 51
36.008324
  0
ARC
  8
0
  6
CONTINUOUS
 62
     7
 10
-232.57062
 20
171.15411
 40
29
 50
89.999996
 51
179.99998
  0
ARC
  8
0
  6
CONTINUOUS
 62
     7
 10
-215.57062
 20
168.15411
 40
5
 50
89.999996
 51
179.99998
  0
ARC
  8
0
  6
CENTER
 62
     7
 10
-224.50003
 20
170.08347
 40
16.570648
 50
89.999996
 51
179.99998
  0
ARC
  8
0
  6
CONTINUOUS
 62
     7
 10
-240.94849
 20
167.09827
 40
2.4000001
 50
36.008324
 51
143.99167
  0
ARC
  8
0
  6
CONTINUOUS
 62
     7
 10
-240.94849
 20
167.09827
 40
3.5999999
 50
36.008324
 51
143.99167
  0
ARC
  8
0
  6
CONTINUOUS
 62
     7
 10
-240.94849
 20
162.29828
 40
2.4000001
 50
216.00833
 51
323.99168
  0
ARC
  8
0
  6
CONTINUOUS
 62
     7
 10
-240.94849
 20
162.29828
 40
3.5999999
 50
216.00833
 51
323.99168
  0
ARC
  8
0
  6
CONTINUOUS
 62
     7
 10
-237.64618
 20
164.69827
 40
7.6823077
 50
143.99167
 51
175.52055
  0
ARC
  8
0
  6
CONTINUOUS
 62
     7
 10
-237.64618
 20
164.69827
 40
6.4823079
 50
143.99167
 51
174.68912
  0
ARC
  8
0
  6
CONTINUOUS
 62
     7
 10
-244.25079
 20
164.69827
 40
6.4823079
 50
323.99167
 51
36.008324
  0
ARC
  8
0
  6
CONTINUOUS
 62
     7
 10
-244.25079
 20
164.69827
 40
7.6823077
 50
323.99167
 51
355.52055
  0
ARC
  8
0
  6
CONTINUOUS
 62
     7
 10
-246.49847
 20
164.69827
 40
0.75
 50
126.8699
 51
233.13009
  0
ARC
  8
0
  6
CONTINUOUS
 62
     7
 10
-241.39848
 20
164.69827
 40
0.75
 50
306.8699
 51
53.130102
  0
ARC
  8
0
  6
CONTINUOUS
 62
     7
 10
-235.39848
 20
164.69827
 40
0.75
 50
306.8699
 51
53.130102
  0
ARC
  8
0
  6
CONTINUOUS
 62
     7
 10
-237.64618
 20
164.69827
 40
6.4823079
 50
185.31088
 51
216.00833
  0
ARC
  8
0
  6
CONTINUOUS
 62
     7
 10
-237.64618
 20
164.69827
 40
7.6823077
 50
184.47945
 51
216.00833
  0
ARC
  8
0
  6
CONTINUOUS
 62
     7
 10
-244.25079
 20
164.69827
 40
7.6823077
 50
4.4794472
 51
36.008324
  0
ARC
  8
0
  6
CONTINUOUS
 62
     7
 10
-126.69012
 20
170.13353
 40
34
 50
89.999982
 51
179.99996
  0
ARC
  8
0
  6
CENTER
 62
     7
 10
-121.54007
 20
168.98354
 40
18.649994
 50
89.999982
 51
179.99996
  0
ARC
  8
0
  6
CONTINUOUS
 62
     7
 10
-114.69012
 20
166.13353
 40
5
 50
89.999982
 51
179.99996
  0
ARC
  8
0
  6
CONTINUOUS
 62
     7
 10
-140.00041
 20
166.88257
 40
2.4000001
 50
36.008324
 51
143.99167
  0
ARC
  8
0
  6
CONTINUOUS
 62
     7
 10
-140.00041
 20
166.88257
 40
3.5999999
 50
36.008324
 51
143.99167
  0
ARC
  8
0
  6
CONTINUOUS
 62
     7
 10
-140.00041
 20
162.08257
 40
2.4000001
 50
216.00833
 51
323.99168
  0
ARC
  8
0
  6
CONTINUOUS
 62
     7
 10
-140.00041
 20
162.08257
 40
3.5999999
 50
216.00833
 51
323.99168
  0
ARC
  8
0
  6
CONTINUOUS
 62
     7
 10
-136.6981
 20
164.48257
 40
7.6823077
 50
143.99167
 51
175.52055
  0
ARC
  8
0
  6
CONTINUOUS
 62
     7
 10
-136.6981
 20
164.48257
 40
6.4823079
 50
143.99167
 51
174.68912
  0
ARC
  8
0
  6
CONTINUOUS
 62
     7
 10
-143.30272
 20
164.48257
 40
6.4823079
 50
323.99167
 51
36.008324
  0
ARC
  8
0
  6
CONTINUOUS
 62
     7
 10
-143.30272
 20
164.48257
 40
7.6823077
 50
323.99167
 51
355.52055
  0
ARC
  8
0
  6
CONTINUOUS
 62
     7
 10
-145.55042
 20
164.48257
 40
0.75
 50
126.8699
 51
233.13009
  0
ARC
  8
0
  6
CONTINUOUS
 62
     7
 10
-140.45042
 20
164.48257
 40
0.75
 50
306.8699
 51
53.130102
  0
ARC
  8
0
  6
CONTINUOUS
 62
     7
 10
-134.45042
 20
164.48257
 40
0.75
 50
306.8699
 51
53.130102
  0
ARC
  8
0
  6
CONTINUOUS
 62
     7
 10
-136.6981
 20
164.48257
 40
6.4823079
 50
185.31088
 51
216.00833
  0
ARC
  8
0
  6
CONTINUOUS
 62
     7
 10
-136.6981
 20
164.48257
 40
7.6823077
 50
184.47945
 51
216.00833
  0
ARC
  8
0
  6
CONTINUOUS
 62
     7
 10
-143.30272
 20
164.48257
 40
7.6823077
 50
4.4794472
 51
36.008324
  0
ARC
  8
0
  6
CONTINUOUS
 62
     7
 10
-5.3919148
 20
167.11296
 40
5
 50
89.999996
 51
179.99998
  0
ARC
  8
0
  6
CONTINUOUS
 62
     7
 10
-21.391914
 20
166.11296
 40
39
 50
89.999996
 51
179.99998
  0
ARC
  8
0
  6
CENTER
 62
     7
 10
-13.108392
 20
166.32944
 40
22.283524
 50
89.999996
 51
179.99998
  0
ARC
  8
0
  6
CONTINUOUS
 62
     7
 10
-35.430115
 20
162.90114
 40
2.4000001
 50
36.008324
 51
143.99167
  0
ARC
  8
0
  6
CONTINUOUS
 62
     7
 10
-35.430115
 20
162.90114
 40
3.5999999
 50
36.008324
 51
143.99167
  0
ARC
  8
0
  6
CONTINUOUS
 62
     7
 10
-35.430115
 20
158.10114
 40
2.4000001
 50
216.00833
 51
323.99168
  0
ARC
  8
0
  6
CONTINUOUS
 62
     7
 10
-35.430115
 20
158.10114
 40
3.5999999
 50
216.00833
 51
323.99168
  0
ARC
  8
0
  6
CONTINUOUS
 62
     7
 10
-32.127808
 20
160.50114
 40
7.6823077
 50
143.99167
 51
175.52055
  0
ARC
  8
0
  6
CONTINUOUS
 62
     7
 10
-32.127808
 20
160.50114
 40
6.4823079
 50
143.99167
 51
174.68912
  0
ARC
  8
0
  6
CONTINUOUS
 62
     7
 10
-38.732422
 20
160.50114
 40
6.4823079
 50
323.99167
 51
36.008324
  0
ARC
  8
0
  6
CONTINUOUS
 62
     7
 10
-38.732422
 20
160.50114
 40
7.6823077
 50
323.99167
 51
355.52055
  0
ARC
  8
0
  6
CONTINUOUS
 62
     7
 10
-40.980114
 20
160.50114
 40
0.75
 50
126.8699
 51
233.13009
  0
ARC
  8
0
  6
CONTINUOUS
 62
     7
 10
-35.880116
 20
160.50114
 40
0.75
 50
306.8699
 51
53.130102
  0
ARC
  8
0
  6
CONTINUOUS
 62
     7
 10
-29.880116
 20
160.50114
 40
0.75
 50
306.8699
 51
53.130102
  0
ARC
  8
0
  6
CONTINUOUS
 62
     7
 10
-32.127808
 20
160.50114
 40
6.4823079
 50
185.31088
 51
216.00833
  0
ARC
  8
0
  6
CONTINUOUS
 62
     7
 10
-32.127808
 20
160.50114
 40
7.6823077
 50
184.47945
 51
216.00833
  0
ARC
  8
0
  6
CONTINUOUS
 62
     7
 10
-38.732422
 20
160.50114
 40
7.6823077
 50
4.4794472
 51
36.008324
  0
ARC
  8
0
  6
CONTINUOUS
 62
     7
 10
114.09761
 20
164.09239
 40
5
 50
89.999996
 51
179.99998
  0
ARC
  8
0
  6
CONTINUOUS
 62
     7
 10
101.09761
 20
168.09239
 40
42
 50
89.999996
 51
179.99998
  0
ARC
  8
0
  6
CENTER
 62
     7
 10
107.7211
 20
165.96898
 40
23.623489
 50
89.999996
 51
179.99998
  0
ARC
  8
0
  6
CONTINUOUS
 62
     7
 10
84.450226
 20
163.33606
 40
2.4000001
 50
36.008324
 51
143.99167
  0
ARC
  8
0
  6
CONTINUOUS
 62
     7
 10
84.450226
 20
163.33606
 40
3.5999999
 50
36.008324
 51
143.99167
  0
ARC
  8
0
  6
CONTINUOUS
 62
     7
 10
84.450226
 20
158.53606
 40
2.4000001
 50
216.00833
 51
323.99168
  0
ARC
  8
0
  6
CONTINUOUS
 62
     7
 10
84.450226
 20
158.53606
 40
3.5999999
 50
216.00833
 51
323.99168
  0
ARC
  8
0
  6
CONTINUOUS
 62
     7
 10
87.752533
 20
160.93607
 40
7.6823077
 50
143.99167
 51
175.52055
  0
ARC
  8
0
  6
CONTINUOUS
 62
     7
 10
87.752533
 20
160.93607
 40
6.4823079
 50
143.99167
 51
174.68912
  0
ARC
  8
0
  6
CONTINUOUS
 62
     7
 10
81.147919
 20
160.93607
 40
6.4823079
 50
323.99167
 51
36.008324
  0
ARC
  8
0
  6
CONTINUOUS
 62
     7
 10
81.147919
 20
160.93607
 40
7.6823077
 50
323.99167
 51
355.52055
  0
ARC
  8
0
  6
CONTINUOUS
 62
     7
 10
78.900223
 20
160.93607
 40
0.75
 50
126.8699
 51
233.13009
  0
ARC
  8
0
  6
CONTINUOUS
 62
     7
 10
84.000229
 20
160.93607
 40
0.75
 50
306.8699
 51
53.130102
  0
ARC
  8
0
  6
CONTINUOUS
 62
     7
 10
90.000229
 20
160.93607
 40
0.75
 50
306.8699
 51
53.130102
  0
ARC
  8
0
  6
CONTINUOUS
 62
     7
 10
87.752533
 20
160.93607
 40
6.4823079
 50
185.31088
 51
216.00833
  0
ARC
  8
0
  6
CONTINUOUS
 62
     7
 10
87.752533
 20
160.93607
 40
7.6823077
 50
184.47945
 51
216.00833
  0
ARC
  8
0
  6
CONTINUOUS
 62
     7
 10
81.147919
 20
160.93607
 40
7.6823077
 50
4.4794472
 51
36.008324
  0
ARC
  8
0
  6
CONTINUOUS
 62
     7
 10
221.89581
 20
165.15411
 40
5
 50
89.999996
 51
179.99998
  0
ARC
  8
0
  6
CONTINUOUS
 62
     7
 10
196.89581
 20
167.15411
 40
36
 50
89.999996
 51
179.99998
  0
ARC
  8
0
  6
CENTER
 62
     7
 10
209.41039
 20
166.13954
 40
20.514572
 50
89.999996
 51
179.99998
  0
ARC
  8
0
  6
CENTER
 62
     7
 10
340.12234
 20
158.83473
 40
23.901695
 50
89.999996
 51
179.99998
  0
ARC
  8
0
  6
CONTINUOUS
 62
     7
 10
330.7207
 20
160.73643
 40
42.5
 50
89.999996
 51
179.99998
  0
ARC
  8
0
  6
CONTINUOUS
 62
     7
 10
349.2207
 20
157.23643
 40
5
 50
89.999996
 51
179.99998
  0
ARC
  8
0
  6
CONTINUOUS
 62
     7
 10
-323.66306
 20
32.288044
 40
4
 50
89.999982
 51
179.99996
  0
ARC
  8
0
  6
CONTINUOUS
 62
     7
 10
-329.66306
 20
32.288044
 40
54
 50
89.999982
 51
179.99996
  0
ARC
  8
0
  6
CENTER
 62
     7
 10
-326.87247
 20
32.497471
 40
28.790573
 50
89.999982
 51
179.99996
  0
ARC
  8
0
  6
CONTINUOUS
 62
     7
 10
188.99294
 20
160.78554
 40
2.4000001
 50
36.008324
 51
143.99167
  0
ARC
  8
0
  6
CONTINUOUS
 62
     7
 10
188.99294
 20
160.78554
 40
3.5999999
 50
36.008324
 51
143.99167
  0
ARC
  8
0
  6
CONTINUOUS
 62
     7
 10
188.99294
 20
155.98553
 40
2.4000001
 50
216.00833
 51
323.99168
  0
ARC
  8
0
  6
CONTINUOUS
 62
     7
 10
188.99294
 20
155.98553
 40
3.5999999
 50
216.00833
 51
323.99168
  0
ARC
  8
0
  6
CONTINUOUS
 62
     7
 10
192.29524
 20
158.38553
 40
7.6823077
 50
143.99167
 51
175.52055
  0
ARC
  8
0
  6
CONTINUOUS
 62
     7
 10
192.29524
 20
158.38553
 40
6.4823079
 50
143.99167
 51
174.68912
  0
ARC
  8
0
  6
CONTINUOUS
 62
     7
 10
185.69063
 20
158.38553
 40
6.4823079
 50
323.99167
 51
36.008324
  0
ARC
  8
0
  6
CONTINUOUS
 62
     7
 10
185.69063
 20
158.38553
 40
7.6823077
 50
323.99167
 51
355.52055
  0
ARC
  8
0
  6
CONTINUOUS
 62
     7
 10
183.44293
 20
158.38553
 40
0.75
 50
126.8699
 51
233.13009
  0
ARC
  8
0
  6
CONTINUOUS
 62
     7
 10
188.54294
 20
158.38553
 40
0.75
 50
306.8699
 51
53.130102
  0
ARC
  8
0
  6
CONTINUOUS
 62
     7
 10
194.54294
 20
158.38553
 40
0.75
 50
306.8699
 51
53.130102
  0
ARC
  8
0
  6
CONTINUOUS
 62
     7
 10
192.29524
 20
158.38553
 40
6.4823079
 50
185.31088
 51
216.00833
  0
ARC
  8
0
  6
CONTINUOUS
 62
     7
 10
192.29524
 20
158.38553
 40
7.6823077
 50
184.47945
 51
216.00833
  0
ARC
  8
0
  6
CONTINUOUS
 62
     7
 10
185.69063
 20
158.38553
 40
7.6823077
 50
4.4794472
 51
36.008324
  0
ARC
  8
0
  6
CONTINUOUS
 62
     7
 10
316.29974
 20
155.96387
 40
2.4000001
 50
36.008324
 51
143.99167
  0
ARC
  8
0
  6
CONTINUOUS
 62
     7
 10
316.29974
 20
155.96387
 40
3.5999999
 50
36.008324
 51
143.99167
  0
ARC
  8
0
  6
CONTINUOUS
 62
     7
 10
316.29974
 20
151.16386
 40
2.4000001
 50
216.00833
 51
323.99168
  0
ARC
  8
0
  6
CONTINUOUS
 62
     7
 10
316.29974
 20
151.16386
 40
3.5999999
 50
216.00833
 51
323.99168
  0
ARC
  8
0
  6
CONTINUOUS
 62
     7
 10
319.60205
 20
153.56386
 40
7.6823077
 50
143.99167
 51
175.52055
  0
ARC
  8
0
  6
CONTINUOUS
 62
     7
 10
319.60205
 20
153.56386
 40
6.4823079
 50
143.99167
 51
174.68912
  0
ARC
  8
0
  6
CONTINUOUS
 62
     7
 10
312.99744
 20
153.56386
 40
6.4823079
 50
323.99167
 51
36.008324
  0
ARC
  8
0
  6
CONTINUOUS
 62
     7
 10
312.99744
 20
153.56386
 40
7.6823077
 50
323.99167
 51
355.52055
  0
ARC
  8
0
  6
CONTINUOUS
 62
     7
 10
310.74976
 20
153.56386
 40
0.75
 50
126.8699
 51
233.13009
  0
ARC
  8
0
  6
CONTINUOUS
 62
     7
 10
315.84976
 20
153.56386
 40
0.75
 50
306.8699
 51
53.130102
  0
ARC
  8
0
  6
CONTINUOUS
 62
     7
 10
321.84976
 20
153.56386
 40
0.75
 50
306.8699
 51
53.130102
  0
ARC
  8
0
  6
CONTINUOUS
 62
     7
 10
319.60205
 20
153.56386
 40
6.4823079
 50
185.31088
 51
216.00833
  0
ARC
  8
0
  6
CONTINUOUS
 62
     7
 10
319.60205
 20
153.56386
 40
7.6823077
 50
184.47945
 51
216.00833
  0
ARC
  8
0
  6
CONTINUOUS
 62
     7
 10
312.99744
 20
153.56386
 40
7.6823077
 50
4.4794472
 51
36.008324
  0
ARC
  8
0
  6
CONTINUOUS
 62
     7
 10
-355.61533
 20
30.358498
 40
2.4000001
 50
36.008324
 51
143.99167
  0
ARC
  8
0
  6
CONTINUOUS
 62
     7
 10
-355.61533
 20
30.358498
 40
3.5999999
 50
36.008324
 51
143.99167
  0
ARC
  8
0
  6
CONTINUOUS
 62
     7
 10
-355.61533
 20
25.558495
 40
2.4000001
 50
216.00833
 51
323.99168
  0
ARC
  8
0
  6
CONTINUOUS
 62
     7
 10
-355.61533
 20
25.558495
 40
3.5999999
 50
216.00833
 51
323.99168
  0
ARC
  8
0
  6
CONTINUOUS
 62
     7
 10
-352.31302
 20
27.958496
 40
7.6823077
 50
143.99167
 51
175.52055
  0
ARC
  8
0
  6
CONTINUOUS
 62
     7
 10
-352.31302
 20
27.958496
 40
6.4823079
 50
143.99167
 51
174.68912
  0
ARC
  8
0
  6
CONTINUOUS
 62
     7
 10
-358.91763
 20
27.958496
 40
6.4823079
 50
323.99167
 51
36.008324
  0
ARC
  8
0
  6
CONTINUOUS
 62
     7
 10
-358.91763
 20
27.958496
 40
7.6823077
 50
323.99167
 51
355.52055
  0
ARC
  8
0
  6
CONTINUOUS
 62
     7
 10
-361.16531
 20
27.958496
 40
0.75
 50
126.8699
 51
233.13009
  0
ARC
  8
0
  6
CONTINUOUS
 62
     7
 10
-356.06531
 20
27.958496
 40
0.75
 50
306.8699
 51
53.130102
  0
ARC
  8
0
  6
CONTINUOUS
 62
     7
 10
-350.06531
 20
27.958496
 40
0.75
 50
306.8699
 51
53.130102
  0
ARC
  8
0
  6
CONTINUOUS
 62
     7
 10
-352.31302
 20
27.958496
 40
6.4823079
 50
185.31088
 51
216.00833
  0
ARC
  8
0
  6
CONTINUOUS
 62
     7
 10
-352.31302
 20
27.958496
 40
7.6823077
 50
184.47945
 51
216.00833
  0
ARC
  8
0
  6
CONTINUOUS
 62
     7
 10
-358.91763
 20
27.958496
 40
7.6823077
 50
4.4794472
 51
36.008324
  0
ARC
  8
0
  6
CONTINUOUS
 62
     7
 10
-215.04391
 20
37.829193
 40
38
 50
90.000037
 51
180.00002
  0
ARC
  8
0
  6
CONTINUOUS
 62
     7
 10
-179.04391
 20
37.829193
 40
5
 50
90.000037
 51
180.00002
  0
ARC
  8
0
  6
CENTER
 62
     7
 10
-192.67555
 20
33.460838
 40
25.868355
 50
90.000037
 51
180.00002
  0
ARC
  8
0
  6
CONTINUOUS
 62
     7
 10
-218.51097
 20
33.647335
 40
3
 50
36.008324
 51
143.99167
  0
ARC
  8
0
  6
CONTINUOUS
 62
     7
 10
-218.51097
 20
33.647335
 40
4.5
 50
36.008324
 51
143.99167
  0
ARC
  8
0
  6
CONTINUOUS
 62
     7
 10
-218.51097
 20
27.647337
 40
3
 50
216.00833
 51
323.99168
  0
ARC
  8
0
  6
CONTINUOUS
 62
     7
 10
-218.51097
 20
27.647337
 40
4.5
 50
216.00833
 51
323.99168
  0
ARC
  8
0
  6
CONTINUOUS
 62
     7
 10
-214.38309
 20
30.647337
 40
9.6028843
 50
143.99167
 51
175.52055
  0
ARC
  8
0
  6
CONTINUOUS
 62
     7
 10
-214.38309
 20
30.647337
 40
8.1028843
 50
143.99167
 51
174.68912
  0
ARC
  8
0
  6
CONTINUOUS
 62
     7
 10
-222.63885
 20
30.647337
 40
8.1028843
 50
323.99167
 51
36.008324
  0
ARC
  8
0
  6
CONTINUOUS
 62
     7
 10
-222.63885
 20
30.647337
 40
9.6028843
 50
323.99167
 51
355.52055
  0
ARC
  8
0
  6
CONTINUOUS
 62
     7
 10
-225.44847
 20
30.647337
 40
0.9375
 50
126.8699
 51
233.13009
  0
ARC
  8
0
  6
CONTINUOUS
 62
     7
 10
-219.07347
 20
30.647337
 40
0.9375
 50
306.8699
 51
53.130102
  0
ARC
  8
0
  6
CONTINUOUS
 62
     7
 10
-211.57347
 20
30.647337
 40
0.9375
 50
306.8699
 51
53.130102
  0
ARC
  8
0
  6
CONTINUOUS
 62
     7
 10
-214.38309
 20
30.647337
 40
9.6028843
 50
184.47945
 51
216.00833
  0
ARC
  8
0
  6
CONTINUOUS
 62
     7
 10
-214.38309
 20
30.647337
 40
8.1028843
 50
185.31088
 51
216.00833
  0
ARC
  8
0
  6
CONTINUOUS
 62
     7
 10
-222.63885
 20
30.647337
 40
9.6028843
 50
4.4794472
 51
36.008324
  0
ARC
  8
0
  6
CENTER
 62
     7
 10
-54.083626
 20
28.070351
 40
27.341156
 50
90.000037
 51
180.00002
  0
ARC
  8
0
  6
CONTINUOUS
 62
     7
 10
-41.924782
 20
29.911507
 40
5
 50
90.000037
 51
180.00002
  0
ARC
  8
0
  6
CONTINUOUS
 62
     7
 10
-69.924782
 20
29.911507
 40
46
 50
90.000037
 51
180.00002
  0
ARC
  8
0
  6
CONTINUOUS
 62
     7
 10
71.631012
 20
24.577827
 40
55
 50
90.000037
 51
180.00002
  0
ARC
  8
0
  6
CONTINUOUS
 62
     7
 10
90.631012
 20
24.577827
 40
5
 50
90.000037
 51
180.00002
  0
ARC
  8
0
  6
CENTER
 62
     7
 10
81.814499
 20
23.894341
 40
30.683479
 50
90.000037
 51
180.00002
  0
ARC
  8
0
  6
CONTINUOUS
 62
     7
 10
-81.086037
 20
28.106834
 40
3
 50
36.008324
 51
143.99167
  0
ARC
  8
0
  6
CONTINUOUS
 62
     7
 10
-81.086037
 20
28.106834
 40
4.5
 50
36.008324
 51
143.99167
  0
ARC
  8
0
  6
CONTINUOUS
 62
     7
 10
-81.086037
 20
22.106834
 40
3
 50
216.00833
 51
323.99168
  0
ARC
  8
0
  6
CONTINUOUS
 62
     7
 10
-81.086037
 20
22.106834
 40
4.5
 50
216.00833
 51
323.99168
  0
ARC
  8
0
  6
CONTINUOUS
 62
     7
 10
-76.958153
 20
25.106834
 40
9.6028843
 50
143.99167
 51
175.52055
  0
ARC
  8
0
  6
CONTINUOUS
 62
     7
 10
-76.958153
 20
25.106834
 40
8.1028843
 50
143.99167
 51
174.68912
  0
ARC
  8
0
  6
CONTINUOUS
 62
     7
 10
-85.213921
 20
25.106834
 40
8.1028843
 50
323.99167
 51
36.008324
  0
ARC
  8
0
  6
CONTINUOUS
 62
     7
 10
-85.213921
 20
25.106834
 40
9.6028843
 50
323.99167
 51
355.52055
  0
ARC
  8
0
  6
CONTINUOUS
 62
     7
 10
-88.023537
 20
25.106834
 40
0.9375
 50
126.8699
 51
233.13009
  0
ARC
  8
0
  6
CONTINUOUS
 62
     7
 10
-81.648537
 20
25.106834
 40
0.9375
 50
306.8699
 51
53.130102
  0
ARC
  8
0
  6
CONTINUOUS
 62
     7
 10
-74.148537
 20
25.106834
 40
0.9375
 50
306.8699
 51
53.130102
  0
ARC
  8
0
  6
CONTINUOUS
 62
     7
 10
-76.958153
 20
25.106834
 40
9.6028843
 50
184.47945
 51
216.00833
  0
ARC
  8
0
  6
CONTINUOUS
 62
     7
 10
-76.958153
 20
25.106834
 40
8.1028843
 50
185.31088
 51
216.00833
  0
ARC
  8
0
  6
CONTINUOUS
 62
     7
 10
-85.213921
 20
25.106834
 40
9.6028843
 50
4.4794472
 51
36.008324
  0
ARC
  8
0
  6
CONTINUOUS
 62
     7
 10
50.927544
 20
22.211906
 40
3
 50
36.008324
 51
143.99167
  0
ARC
  8
0
  6
CONTINUOUS
 62
     7
 10
50.927544
 20
22.211906
 40
4.5
 50
36.008324
 51
143.99167
  0
ARC
  8
0
  6
CONTINUOUS
 62
     7
 10
50.927544
 20
16.211906
 40
3
 50
216.00833
 51
323.99168
  0
ARC
  8
0
  6
CONTINUOUS
 62
     7
 10
50.927544
 20
16.211906
 40
4.5
 50
216.00833
 51
323.99168
  0
ARC
  8
0
  6
CONTINUOUS
 62
     7
 10
55.055428
 20
19.211906
 40
9.6028843
 50
143.99167
 51
175.52055
  0
ARC
  8
0
  6
CONTINUOUS
 62
     7
 10
55.055428
 20
19.211906
 40
8.1028843
 50
143.99167
 51
174.68912
  0
ARC
  8
0
  6
CONTINUOUS
 62
     7
 10
46.79966
 20
19.211906
 40
8.1028843
 50
323.99167
 51
36.008324
  0
ARC
  8
0
  6
CONTINUOUS
 62
     7
 10
46.79966
 20
19.211906
 40
9.6028843
 50
323.99167
 51
355.52055
  0
ARC
  8
0
  6
CONTINUOUS
 62
     7
 10
43.990044
 20
19.211906
 40
0.9375
 50
126.8699
 51
233.13009
  0
ARC
  8
0
  6
CONTINUOUS
 62
     7
 10
50.365044
 20
19.211906
 40
0.9375
 50
306.8699
 51
53.130102
  0
ARC
  8
0
  6
CONTINUOUS
 62
     7
 10
57.865044
 20
19.211906
 40
0.9375
 50
306.8699
 51
53.130102
  0
ARC
  8
0
  6
CONTINUOUS
 62
     7
 10
55.055428
 20
19.211906
 40
9.6028843
 50
184.47945
 51
216.00833
  0
ARC
  8
0
  6
CONTINUOUS
 62
     7
 10
55.055428
 20
19.211906
 40
8.1028843
 50
185.31088
 51
216.00833
  0
ARC
  8
0
  6
CONTINUOUS
 62
     7
 10
46.79966
 20
19.211906
 40
9.6028843
 50
4.4794472
 51
36.008324
  0
ARC
  8
0
  6
CONTINUOUS
 62
     7
 10
-331.16306
 20
-109.76936
 40
59
 50
90.000037
 51
180.00002
  0
ARC
  8
0
  6
CENTER
 62
     7
 10
-323.49173
 20
-110.94068
 40
32.171333
 50
90.000037
 51
180.00002
  0
ARC
  8
0
  6
CONTINUOUS
 62
     7
 10
-316.16306
 20
-111.76936
 40
5
 50
90.000037
 51
180.00002
  0
ARC
  8
0
  6
CONTINUOUS
 62
     7
 10
-355.78531
 20
-114.75082
 40
3
 50
36.008324
 51
143.99167
  0
ARC
  8
0
  6
CONTINUOUS
 62
     7
 10
-355.78531
 20
-114.75082
 40
4.5
 50
36.008324
 51
143.99167
  0
ARC
  8
0
  6
CONTINUOUS
 62
     7
 10
-355.78531
 20
-120.75082
 40
3
 50
216.00833
 51
323.99168
  0
ARC
  8
0
  6
CONTINUOUS
 62
     7
 10
-355.78531
 20
-120.75082
 40
4.5
 50
216.00833
 51
323.99168
  0
ARC
  8
0
  6
CONTINUOUS
 62
     7
 10
-351.65741
 20
-117.75082
 40
9.6028843
 50
143.99167
 51
175.52055
  0
ARC
  8
0
  6
CONTINUOUS
 62
     7
 10
-351.65741
 20
-117.75082
 40
8.1028843
 50
143.99167
 51
174.68912
  0
ARC
  8
0
  6
CONTINUOUS
 62
     7
 10
-359.91318
 20
-117.75082
 40
8.1028843
 50
323.99167
 51
36.008324
  0
ARC
  8
0
  6
CONTINUOUS
 62
     7
 10
-359.91318
 20
-117.75082
 40
9.6028843
 50
323.99167
 51
355.52055
  0
ARC
  8
0
  6
CONTINUOUS
 62
     7
 10
-362.72281
 20
-117.75082
 40
0.9375
 50
126.8699
 51
233.13009
  0
ARC
  8
0
  6
CONTINUOUS
 62
     7
 10
-356.34781
 20
-117.75082
 40
0.9375
 50
306.8699
 51
53.130102
  0
ARC
  8
0
  6
CONTINUOUS
 62
     7
 10
-348.84781
 20
-117.75082
 40
0.9375
 50
306.8699
 51
53.130102
  0
ARC
  8
0
  6
CONTINUOUS
 62
     7
 10
-351.65741
 20
-117.75082
 40
9.6028843
 50
184.47945
 51
216.00833
  0
ARC
  8
0
  6
CONTINUOUS
 62
     7
 10
-351.65741
 20
-117.75082
 40
8.1028843
 50
185.31088
 51
216.00833
  0
ARC
  8
0
  6
CONTINUOUS
 62
     7
 10
-359.91318
 20
-117.75082
 40
9.6028843
 50
4.4794472
 51
36.008324
  0
ARC
  8
0
  6
CONTINUOUS
 62
     7
 10
-163.60423
 20
-105.20036
 40
3
 50
30.000001
 51
90.000003
  0
ARC
  8
0
  6
CONTINUOUS
 62
     7
 10
-211.00615
 20
-107.20036
 40
46
 50
89.999982
 51
179.99996
  0
ARC
  8
0
  6
CONTINUOUS
 62
     7
 10
-165.00615
 20
-112.82696
 40
6
 50
180.00001
 51
234.31468
  0
ARC
  8
0
  6
CENTER
 62
     7
 10
-183.96086
 20
-111.74552
 40
30.045273
 50
89.999982
 51
179.99996
  0
ARC
  8
0
  6
CONTINUOUS
 62
     7
 10
-166.00615
 20
-107.20036
 40
5
 50
89.999982
 51
179.99996
  0
ARC
  8
0
  6
CONTINUOUS
 62
     7
 10
-263.00613
 20
-112.82696
 40
6
 50
305.68534
 51
6.8301892E-006
  0
ARC
  8
0
  6
CONTINUOUS
 62
     7
 10
-163.60423
 20
-58.200352
 40
3
 50
270
 51
329.99999
  0
ARC
  8
0
  6
CONTINUOUS
 62
     7
 10
-213.83116
 20
-105.12536
 40
3
 50
36.008324
 51
143.99167
  0
ARC
  8
0
  6
CONTINUOUS
 62
     7
 10
-213.83116
 20
-105.12536
 40
4.5
 50
36.008324
 51
143.99167
  0
ARC
  8
0
  6
CONTINUOUS
 62
     7
 10
-213.83116
 20
-111.12536
 40
3
 50
216.00833
 51
323.99168
  0
ARC
  8
0
  6
CONTINUOUS
 62
     7
 10
-213.83116
 20
-111.12536
 40
4.5
 50
216.00833
 51
323.99168
  0
ARC
  8
0
  6
CONTINUOUS
 62
     7
 10
-209.70329
 20
-108.12536
 40
9.6028843
 50
143.99167
 51
175.52055
  0
ARC
  8
0
  6
CONTINUOUS
 62
     7
 10
-209.70329
 20
-108.12536
 40
8.1028843
 50
143.99167
 51
174.68912
  0
ARC
  8
0
  6
CONTINUOUS
 62
     7
 10
-217.95903
 20
-108.12536
 40
8.1028843
 50
323.99167
 51
36.008324
  0
ARC
  8
0
  6
CONTINUOUS
 62
     7
 10
-217.95903
 20
-108.12536
 40
9.6028843
 50
323.99167
 51
355.52055
  0
ARC
  8
0
  6
CONTINUOUS
 62
     7
 10
-220.76866
 20
-108.12536
 40
0.9375
 50
126.8699
 51
233.13009
  0
ARC
  8
0
  6
CONTINUOUS
 62
     7
 10
-214.39366
 20
-108.12536
 40
0.9375
 50
306.8699
 51
53.130102
  0
ARC
  8
0
  6
CONTINUOUS
 62
     7
 10
-206.89366
 20
-108.12536
 40
0.9375
 50
306.8699
 51
53.130102
  0
ARC
  8
0
  6
CONTINUOUS
 62
     7
 10
-209.70329
 20
-108.12536
 40
9.6028843
 50
184.47945
 51
216.00833
  0
ARC
  8
0
  6
CONTINUOUS
 62
     7
 10
-209.70329
 20
-108.12536
 40
8.1028843
 50
185.31088
 51
216.00833
  0
ARC
  8
0
  6
CONTINUOUS
 62
     7
 10
-217.95903
 20
-108.12536
 40
9.6028843
 50
4.4794472
 51
36.008324
  0
ARC
  8
0
  6
CONTINUOUS
 62
     7
 10
-9.8248196
 20
-39.542126
 40
4
 50
270
 51
329.99999
  0
ARC
  8
0
  6
CONTINUOUS
 62
     7
 10
-11.360708
 20
-121.16873
 40
6
 50
180.00001
 51
234.31468
  0
ARC
  8
0
  6
CONTINUOUS
 62
     7
 10
-9.8248196
 20
-116.54213
 40
4
 50
30.000001
 51
90.000003
  0
ARC
  8
0
  6
CONTINUOUS
 62
     7
 10
-28.360708
 20
-118.54213
 40
75
 50
89.999982
 51
179.99996
  0
ARC
  8
0
  6
CONTINUOUS
 62
     7
 10
-109.36071
 20
-121.16873
 40
6
 50
305.68534
 51
6.8301892E-006
  0
ARC
  8
0
  6
CONTINUOUS
 62
     7
 10
-11.360708
 20
-118.54213
 40
6
 50
89.999982
 51
179.99996
  0
ARC
  8
0
  6
CENTER
 62
     7
 10
-18.869558
 20
-119.53331
 40
41.49118
 50
89.999982
 51
179.99996
  0
ARC
  8
0
  6
CONTINUOUS
 62
     7
 10
-59.48571
 20
-114.06713
 40
3
 50
36.008324
 51
143.99167
  0
ARC
  8
0
  6
CONTINUOUS
 62
     7
 10
-59.48571
 20
-114.06713
 40
4.5
 50
36.008324
 51
143.99167
  0
ARC
  8
0
  6
CONTINUOUS
 62
     7
 10
-59.48571
 20
-120.06713
 40
3
 50
216.00833
 51
323.99168
  0
ARC
  8
0
  6
CONTINUOUS
 62
     7
 10
-59.48571
 20
-120.06713
 40
4.5
 50
216.00833
 51
323.99168
  0
ARC
  8
0
  6
CONTINUOUS
 62
     7
 10
-55.357841
 20
-117.06713
 40
9.6028843
 50
143.99167
 51
175.52055
  0
ARC
  8
0
  6
CONTINUOUS
 62
     7
 10
-55.357841
 20
-117.06713
 40
8.1028843
 50
143.99167
 51
174.68912
  0
ARC
  8
0
  6
CONTINUOUS
 62
     7
 10
-63.613579
 20
-117.06713
 40
8.1028843
 50
323.99167
 51
36.008324
  0
ARC
  8
0
  6
CONTINUOUS
 62
     7
 10
-63.613579
 20
-117.06713
 40
9.6028843
 50
323.99167
 51
355.52055
  0
ARC
  8
0
  6
CONTINUOUS
 62
     7
 10
-66.42321
 20
-117.06713
 40
0.9375
 50
126.8699
 51
233.13009
  0
ARC
  8
0
  6
CONTINUOUS
 62
     7
 10
-60.04821
 20
-117.06713
 40
0.9375
 50
306.8699
 51
53.130102
  0
ARC
  8
0
  6
CONTINUOUS
 62
     7
 10
-52.54821
 20
-117.06713
 40
0.9375
 50
306.8699
 51
53.130102
  0
ARC
  8
0
  6
CONTINUOUS
 62
     7
 10
-55.357841
 20
-117.06713
 40
9.6028843
 50
184.47945
 51
216.00833
  0
ARC
  8
0
  6
CONTINUOUS
 62
     7
 10
-55.357841
 20
-117.06713
 40
8.1028843
 50
185.31088
 51
216.00833
  0
ARC
  8
0
  6
CONTINUOUS
 62
     7
 10
-63.613579
 20
-117.06713
 40
9.6028843
 50
4.4794472
 51
36.008324
  0
ARC
  8
0
  6
CONTINUOUS
 62
     7
 10
147.64885
 20
-140.82423
 40
94
 50
89.999982
 51
179.99996
  0
ARC
  8
0
  6
CONTINUOUS
 62
     7
 10
161.27545
 20
-40.824226
 40
6
 50
270
 51
324.31468
  0
ARC
  8
0
  6
CONTINUOUS
 62
     7
 10
43.648853
 20
-141.68282
 40
10
 50
314.42701
 51
6.8301892E-006
  0
ARC
  8
0
  6
CONTINUOUS
 62
     7
 10
159.64885
 20
-139.82423
 40
7
 50
89.999982
 51
179.99996
  0
ARC
  8
0
  6
CONTINUOUS
 62
     7
 10
161.27545
 20
-138.82423
 40
6
 50
35.685334
 51
90.000003
  0
ARC
  8
0
  6
CENTER
 62
     7
 10
152.72891
 20
-139.40431
 40
49.580063
 50
89.999982
 51
179.99996
  0
ARC
  8
0
  6
CONTINUOUS
 62
     7
 10
162.64885
 20
-141.68282
 40
10
 50
180.00001
 51
225.573
  0
ARC
  8
0
  6
CONTINUOUS
 62
     7
 10
103.32384
 20
-135.04924
 40
3.5999999
 50
36.008324
 51
143.99167
  0
ARC
  8
0
  6
CONTINUOUS
 62
     7
 10
103.32384
 20
-135.04924
 40
5.4000001
 50
36.008324
 51
143.99167
  0
ARC
  8
0
  6
CONTINUOUS
 62
     7
 10
103.32384
 20
-142.24925
 40
3.5999999
 50
216.00833
 51
323.99168
  0
ARC
  8
0
  6
CONTINUOUS
 62
     7
 10
103.32384
 20
-142.24925
 40
5.4000001
 50
216.00833
 51
323.99168
  0
ARC
  8
0
  6
CONTINUOUS
 62
     7
 10
108.27731
 20
-138.64925
 40
11.523461
 50
143.99167
 51
175.52055
  0
ARC
  8
0
  6
CONTINUOUS
 62
     7
 10
108.27731
 20
-138.64925
 40
9.7234612
 50
143.99167
 51
174.68912
  0
ARC
  8
0
  6
CONTINUOUS
 62
     7
 10
98.370377
 20
-138.64925
 40
9.7234612
 50
323.99167
 51
36.008324
  0
ARC
  8
0
  6
CONTINUOUS
 62
     7
 10
98.370377
 20
-138.64925
 40
11.523461
 50
323.99167
 51
355.52055
  0
ARC
  8
0
  6
CONTINUOUS
 62
     7
 10
94.99884
 20
-138.64925
 40
1.125
 50
126.8699
 51
233.13009
  0
ARC
  8
0
  6
CONTINUOUS
 62
     7
 10
102.64885
 20
-138.64925
 40
1.125
 50
306.8699
 51
53.130102
  0
ARC
  8
0
  6
CONTINUOUS
 62
     7
 10
111.64885
 20
-138.64925
 40
1.125
 50
306.8699
 51
53.130102
  0
ARC
  8
0
  6
CONTINUOUS
 62
     7
 10
108.27731
 20
-138.64925
 40
11.523461
 50
184.47945
 51
216.00833
  0
ARC
  8
0
  6
CONTINUOUS
 62
     7
 10
108.27731
 20
-138.64925
 40
9.7234612
 50
185.31088
 51
216.00833
  0
ARC
  8
0
  6
CONTINUOUS
 62
     7
 10
98.370377
 20
-138.64925
 40
11.523461
 50
4.4794472
 51
36.008324
  0
ARC
  8
0
  6
CONTINUOUS
 62
     7
 10
366.58298
 20
-169.59534
 40
10
 50
44.427003
 51
90.000003
  0
ARC
  8
0
  6
CONTINUOUS
 62
     7
 10
366.22443
 20
-166.59534
 40
7
 50
89.999982
 51
179.99996
  0
ARC
  8
0
  6
CONTINUOUS
 62
     7
 10
366.58298
 20
-50.595341
 40
10
 50
270
 51
315.57299
  0
ARC
  8
0
  6
CENTER
 62
     7
 10
351.62561
 20
-165.99658
 40
55.901199
 50
89.999982
 51
179.99996
  0
ARC
  8
0
  6
CONTINUOUS
 62
     7
 10
369.22443
 20
-169.95392
 40
10
 50
180.00001
 51
225.573
  0
ARC
  8
0
  6
CONTINUOUS
 62
     7
 10
222.22441
 20
-169.95392
 40
10
 50
314.42701
 51
6.8301892E-006
  0
ARC
  8
0
  6
CONTINUOUS
 62
     7
 10
335.22443
 20
-163.59534
 40
103
 50
89.999982
 51
179.99996
  0
ARC
  8
0
  6
CONTINUOUS
 62
     7
 10
295.1994
 20
-163.37036
 40
3.5999999
 50
36.008324
 51
143.99167
  0
ARC
  8
0
  6
CONTINUOUS
 62
     7
 10
295.1994
 20
-163.37036
 40
5.4000001
 50
36.008324
 51
143.99167
  0
ARC
  8
0
  6
CONTINUOUS
 62
     7
 10
295.1994
 20
-170.57031
 40
3.5999999
 50
216.00833
 51
323.99168
  0
ARC
  8
0
  6
CONTINUOUS
 62
     7
 10
295.1994
 20
-170.57031
 40
5.4000001
 50
216.00833
 51
323.99168
  0
ARC
  8
0
  6
CONTINUOUS
 62
     7
 10
300.15289
 20
-166.97034
 40
11.523461
 50
143.99167
 51
175.52055
  0
ARC
  8
0
  6
CONTINUOUS
 62
     7
 10
300.15289
 20
-166.97034
 40
9.7234612
 50
143.99167
 51
174.68912
  0
ARC
  8
0
  6
CONTINUOUS
 62
     7
 10
290.24594
 20
-166.97034
 40
9.7234612
 50
323.99167
 51
36.008324
  0
ARC
  8
0
  6
CONTINUOUS
 62
     7
 10
290.24594
 20
-166.97034
 40
11.523461
 50
323.99167
 51
355.52055
  0
ARC
  8
0
  6
CONTINUOUS
 62
     7
 10
286.87442
 20
-166.97034
 40
1.125
 50
126.8699
 51
233.13009
  0
ARC
  8
0
  6
CONTINUOUS
 62
     7
 10
294.52441
 20
-166.97034
 40
1.125
 50
306.8699
 51
53.130102
  0
ARC
  8
0
  6
CONTINUOUS
 62
     7
 10
303.52441
 20
-166.97034
 40
1.125
 50
306.8699
 51
53.130102
  0
ARC
  8
0
  6
CONTINUOUS
 62
     7
 10
300.15289
 20
-166.97034
 40
11.523461
 50
184.47945
 51
216.00833
  0
ARC
  8
0
  6
CONTINUOUS
 62
     7
 10
300.15289
 20
-166.97034
 40
9.7234612
 50
185.31088
 51
216.00833
  0
ARC
  8
0
  6
CONTINUOUS
 62
     7
 10
290.24594
 20
-166.97034
 40
11.523461
 50
4.4794472
 51
36.008324
  0
TEXT
  8
0
  6
CONTINUOUS
 62
     7
 10
-379.08815
 20
266.396
 40
12
 41
0.84289036
  1
ＲＣＦ－Ｋ　ＲＬ（径違いエルボ）
  0
TEXT
  8
0
  6
CONTINUOUS
 62
     7
 10
-366.35591
 20
211.05736
 40
8
 41
0.84634979
  1
３／４×１／２
  0
TEXT
  8
0
  6
CONTINUOUS
 62
     7
 10
-260.57829
 20
212.03677
 40
8
 41
0.84892707
  1
１×１／２
  0
TEXT
  8
0
  6
CONTINUOUS
 62
     7
 10
-152.84184
 20
215.95447
 40
8
 41
0.84892707
  1
１×３／４
  0
TEXT
  8
0
  6
CONTINUOUS
 62
     7
 10
-51.961344
 20
218.89273
 40
8
 41
0.8455654
  1
１１／４×３／４
  0
TEXT
  8
0
  6
CONTINUOUS
 62
     7
 10
66.548765
 20
219.87215
 40
8
 41
0.84741103
  1
１１／４×１
  0
TEXT
  8
0
  6
CONTINUOUS
 62
     7
 10
164.491
 20
219.87215
 40
8
 41
0.8455654
  1
１１／２×３／４
  0
TEXT
  8
0
  6
CONTINUOUS
 62
     7
 10
292.79533
 20
215.95447
 40
8
 41
0.84741103
  1
１１／２×１
  0
TEXT
  8
0
  6
CONTINUOUS
 62
     7
 10
-379.08843
 20
102.34147
 40
8
 41
0.84496203
  1
１１／２×１１／４
  0
TEXT
  8
0
  6
CONTINUOUS
 62
     7
 10
-226.29852
 20
96.464935
 40
8
 41
0.84892707
  1
２×３／４
  0
TEXT
  8
0
  6
CONTINUOUS
 62
     7
 10
-91.138239
 20
89.608978
 40
8
 41
0.85537028
  1
２×１
  0
TEXT
  8
0
  6
CONTINUOUS
 62
     7
 10
30.310137
 20
92.547249
 40
8
 41
0.84741103
  1
２×１１／４
  0
TEXT
  8
0
  6
CONTINUOUS
 62
     7
 10
-365.37651
 20
-36.736507
 40
8
 41
0.84741103
  1
２×１１／２
  0
TEXT
  8
0
  6
CONTINUOUS
 62
     7
 10
-218.46585
 20
-43.56876
 40
8
 41
0.84741103
  1
２１／２×１
  0
TEXT
  8
0
  6
CONTINUOUS
 62
     7
 10
-70.776323
 20
-31.261301
 40
8
 41
0.84741103
  1
２１／２×２
  0
TEXT
  8
0
  6
CONTINUOUS
 62
     7
 10
91.27191
 20
-34.338165
 40
8
 41
0.84741103
  1
３×２１／２
  0
TEXT
  8
0
  6
CONTINUOUS
 62
     7
 10
295.37065
 20
-37.415031
 40
8
 41
0.85537028
  1
４×３
  0
POINT
  8
1
  6
CONTINUOUS
 62
     7
 10
410
 20
-297.5
  0
LINE
  8
1
  6
CONTINUOUS
 62
     7
 10
-429
 20
-297.5
 11
410
 21
-297.5
  0
LINE
  8
1
  6
CONTINUOUS
 62
     7
 10
-429
 20
297.5
 11
-429
 21
-297.5
  0
LINE
  8
1
  6
CONTINUOUS
 62
     7
 10
410
 20
297.5
 11
410
 21
-297.5
  0
LINE
  8
1
  6
CONTINUOUS
 62
     7
 10
-429
 20
297.5
 11
410
 21
297.5
  0
ENDSEC
  0
EOF
