  0
SECTION
  2
HEADER
  9
$EXTMAX
 10
1259
 20
-913.5
  9
$EXTMIN
 10
417
 20
-1507.5
  0
ENDSEC
  0
SECTION
  2
TABLES
  0
TABLE
  2
LTYPE
 70
    22
  0
LTYPE
  2
CONTINUOUS
 70
    64
  3
Solid line
 72
    65
 73
     0
 40
0.000000
  0
LTYPE
  2
DASHED
 70
    64
  3
__ __ __ __ __ __ __ __ __ __ __ __ __ __ __
 72
    65
 73
     2
 40
3.500000
 49
2.000000
 49
-1.500000
  0
LTYPE
  2
CENTER
 70
    64
  3
____ _ ____ _ ____ _ ____ _ ____ _ ____ _ ____
 72
    65
 73
     4
 40
17.500000
 49
13.000000
 49
-1.500000
 49
1.500000
 49
-1.500000
  0
LTYPE
  2
PHANTOM
 70
    64
  3
_____ _ _ _____ _ _ _____ _ _ _____ _ _ ____  
 72
    65
 73
     6
 40
15.500000
 49
8.000000
 49
-1.500000
 49
1.500000
 49
-1.500000
 49
1.500000
 49
-1.500000
  0
LTYPE
  2
DOT
 70
    64
  3
. . . . . . . . . . . . . . . . . . . . . . . .
 72
    65
 73
     2
 40
0.25
 49
0.0
 49
-0.25
  0
ENDTAB
  0
TABLE
  2
LAYER
 70
     2
  0
LAYER
  2
0
 70
     0
 62
     7
  6
CONTINUOUS
  0
LAYER
  2
1
 70
     0
 62
     7
  6
CONTINUOUS
  0
ENDTAB
  0
TABLE
  2
STYLE
 70
     1
  0
STYLE
  2
STANDARD
 70
     0
 40
0.000000
 41
1.000000
 50
0.000000
 71
     0
 42
0.200000
  3
txt
  4
BIGFONT
  0
ENDTAB
  0
TABLE
  2
VIEW
 70
     0
  0
ENDTAB
  0
ENDSEC
  0
SECTION
  2
BLOCKS
  0
ENDSEC
  0
SECTION
  2
ENTITIES
  0
POINT
  8
0
  6
CONTINUOUS
 62
     7
 10
217.71732
 20
18.194092
  0
POINT
  8
0
  6
CONTINUOUS
 62
     7
 10
57.717319
 20
18.194092
  0
POINT
  8
0
  6
CONTINUOUS
 62
     7
 10
-207.28268
 20
18.194092
  0
POINT
  8
0
  6
CONTINUOUS
 62
     7
 10
-82.282677
 20
18.194092
  0
POINT
  8
0
  6
CONTINUOUS
 62
     7
 10
52.632908
 20
180.64133
  0
POINT
  8
0
  6
CONTINUOUS
 62
     7
 10
-47.367092
 20
180.64133
  0
POINT
  8
0
  6
CONTINUOUS
 62
     7
 10
-137.3671
 20
180.64133
  0
POINT
  8
0
  6
CONTINUOUS
 62
     7
 10
-217.3671
 20
180.64133
  0
POINT
  8
0
  6
CONTINUOUS
 62
     7
 10
-277.3671
 20
180.64133
  0
POINT
  8
0
  6
CONTINUOUS
 62
     7
 10
217.71732
 20
18.194092
  0
POINT
  8
0
  6
CONTINUOUS
 62
     7
 10
217.71732
 20
-44.405914
  0
POINT
  8
0
  6
CONTINUOUS
 62
     7
 10
57.717319
 20
18.194092
  0
POINT
  8
0
  6
CONTINUOUS
 62
     7
 10
57.717319
 20
-35.305908
  0
POINT
  8
0
  6
CONTINUOUS
 62
     7
 10
-82.282677
 20
18.194092
  0
POINT
  8
0
  6
CONTINUOUS
 62
     7
 10
-82.282677
 20
-30.305908
  0
POINT
  8
0
  6
CONTINUOUS
 62
     7
 10
-207.28268
 20
18.194092
  0
POINT
  8
0
  6
CONTINUOUS
 62
     7
 10
-207.28268
 20
-23.305908
  0
POINT
  8
0
  6
CONTINUOUS
 62
     7
 10
52.632908
 20
180.64133
  0
POINT
  8
0
  6
CONTINUOUS
 62
     7
 10
52.632908
 20
144.14133
  0
POINT
  8
0
  6
CONTINUOUS
 62
     7
 10
-47.367092
 20
180.64133
  0
POINT
  8
0
  6
CONTINUOUS
 62
     7
 10
-47.367092
 20
145.14131
  0
POINT
  8
0
  6
CONTINUOUS
 62
     7
 10
-137.3671
 20
180.64133
  0
POINT
  8
0
  6
CONTINUOUS
 62
     7
 10
-137.3671
 20
149.24133
  0
POINT
  8
0
  6
CONTINUOUS
 62
     7
 10
-217.3671
 20
180.64133
  0
POINT
  8
0
  6
CONTINUOUS
 62
     7
 10
-217.3671
 20
152.24133
  0
POINT
  8
0
  6
CONTINUOUS
 62
     7
 10
-277.3671
 20
180.64133
  0
POINT
  8
0
  6
CONTINUOUS
 62
     7
 10
-277.3671
 20
155.24133
  0
LINE
  8
0
  6
CENTER
 62
     7
 10
217.71732
 20
-49.405922
 11
217.71732
 21
23.194092
  0
LINE
  8
0
  6
CONTINUOUS
 62
     7
 10
163.37926
 20
-40.739521
 11
162.44608
 21
-10.877914
  0
LINE
  8
0
  6
CONTINUOUS
 62
     7
 10
161.85548
 20
-39.308098
 11
160.8866
 21
-8.3037043
  0
LINE
  8
0
  6
CONTINUOUS
 62
     7
 10
167.68272
 20
-44.405914
 11
267.75192
 21
-44.405914
  0
LINE
  8
0
  6
CONTINUOUS
 62
     7
 10
161.85553
 20
-39.308064
 11
166.64354
 21
-43.805885
  0
LINE
  8
0
  6
CONTINUOUS
 62
     7
 10
167.68275
 20
-44.405937
 11
166.64352
 21
-43.805939
  0
LINE
  8
0
  6
CONTINUOUS
 62
     7
 10
272.05539
 20
-40.739525
 11
272.98856
 21
-10.877913
  0
LINE
  8
0
  6
CONTINUOUS
 62
     7
 10
273.57913
 20
-39.308098
 11
274.55222
 21
-8.1695347
  0
LINE
  8
0
  6
CONTINUOUS
 62
     7
 10
273.57913
 20
-39.30814
 11
268.79114
 21
-43.805939
  0
LINE
  8
0
  6
CONTINUOUS
 62
     7
 10
267.75189
 20
-44.405891
 11
268.79111
 21
-43.805893
  0
LINE
  8
0
  6
CONTINUOUS
 62
     7
 10
190.19487
 20
18.194092
 11
245.23976
 21
18.194092
  0
LINE
  8
0
  6
CONTINUOUS
 62
     7
 10
188.78395
 20
-0.87405527
 11
189.1951
 21
17.216822
  0
LINE
  8
0
  6
CONTINUOUS
 62
     7
 10
246.65065
 20
-0.87410235
 11
246.23949
 21
17.216778
  0
LINE
  8
0
  6
CONTINUOUS
 62
     7
 10
249.64987
 20
-3.8059089
 11
270.18857
 21
-3.8059089
  0
LINE
  8
0
  6
CONTINUOUS
 62
     7
 10
160.88667
 20
-8.3037739
 11
165.11189
 21
-3.8059704
  0
LINE
  8
0
  6
CONTINUOUS
 62
     7
 10
270.18857
 20
-3.8059475
 11
274.55219
 21
-8.16957
  0
LINE
  8
0
  6
CONTINUOUS
 62
     7
 10
165.11183
 20
-3.8059089
 11
185.78474
 21
-3.8059089
  0
LINE
  8
0
  6
CONTINUOUS
 62
     7
 10
272.98856
 20
-10.877917
 11
274.55222
 21
-8.1695929
  0
LINE
  8
0
  6
CONTINUOUS
 62
     7
 10
160.96704
 20
-10.877913
 11
274.46759
 21
-10.877913
  0
LINE
  8
0
  6
CONTINUOUS
 62
     7
 10
165.11194
 20
-3.8059089
 11
270.18854
 21
-3.8059089
  0
LINE
  8
0
  6
CONTINUOUS
 62
     7
 10
163.37933
 20
-40.739521
 11
272.05539
 21
-40.739521
  0
LINE
  8
0
  6
CONTINUOUS
 62
     7
 10
161.85559
 20
-39.308125
 11
273.57913
 21
-39.308125
  0
LINE
  8
0
  6
CONTINUOUS
 62
     7
 10
162.44608
 20
-10.877918
 11
160.88243
 21
-8.1695938
  0
LINE
  8
0
  6
CENTER
 62
     7
 10
57.717319
 20
-38.305908
 11
57.717319
 21
21.194092
  0
LINE
  8
0
  6
CONTINUOUS
 62
     7
 10
14.275182
 20
-30.160769
 11
13.498401
 21
-5.3037157
  0
LINE
  8
0
  6
CONTINUOUS
 62
     7
 10
19.786335
 20
-35.305908
 11
95.648308
 21
-35.305908
  0
LINE
  8
0
  6
CONTINUOUS
 62
     7
 10
18.920324
 20
-34.805889
 11
14.275167
 21
-30.16073
  0
LINE
  8
0
  6
CONTINUOUS
 62
     7
 10
19.786335
 20
-35.305916
 11
18.920309
 21
-34.805916
  0
LINE
  8
0
  6
CONTINUOUS
 62
     7
 10
99.632767
 20
-31.6875
 11
100.37263
 21
-8.0119801
  0
LINE
  8
0
  6
CONTINUOUS
 62
     7
 10
101.15948
 20
-30.16073
 11
101.93626
 21
-5.3036928
  0
LINE
  8
0
  6
CONTINUOUS
 62
     7
 10
96.514343
 20
-34.80592
 11
101.1595
 21
-30.160763
  0
LINE
  8
0
  6
CONTINUOUS
 62
     7
 10
95.648262
 20
-35.305885
 11
96.514305
 21
-34.805878
  0
LINE
  8
0
  6
CONTINUOUS
 62
     7
 10
36.191349
 20
18.194092
 11
79.243286
 21
18.194092
  0
LINE
  8
0
  6
CONTINUOUS
 62
     7
 10
34.794178
 20
2.1151531
 11
35.191685
 21
17.220383
  0
LINE
  8
0
  6
CONTINUOUS
 62
     7
 10
80.640427
 20
2.1151295
 11
80.24292
 21
17.220358
  0
LINE
  8
0
  6
CONTINUOUS
 62
     7
 10
83.639404
 20
-0.80590898
 11
97.711052
 21
-0.80590898
  0
LINE
  8
0
  6
CONTINUOUS
 62
     7
 10
13.498434
 20
-5.3037205
 11
17.723639
 21
-0.80591846
  0
LINE
  8
0
  6
CONTINUOUS
 62
     7
 10
101.93627
 20
-5.3037109
 11
97.711044
 21
-0.80589831
  0
LINE
  8
0
  6
CONTINUOUS
 62
     7
 10
17.723591
 20
-0.80590898
 11
31.795223
 21
-0.80590898
  0
LINE
  8
0
  6
CONTINUOUS
 62
     7
 10
100.37263
 20
-8.0119791
 11
101.93626
 21
-5.3036976
  0
LINE
  8
0
  6
CONTINUOUS
 62
     7
 10
17.723648
 20
-0.80590898
 11
97.71106
 21
-0.80590898
  0
LINE
  8
0
  6
CONTINUOUS
 62
     7
 10
13.583035
 20
-8.011981
 11
101.85163
 21
-8.011981
  0
LINE
  8
0
  6
CONTINUOUS
 62
     7
 10
15.801937
 20
-31.6875
 11
99.632767
 21
-31.6875
  0
LINE
  8
0
  6
CONTINUOUS
 62
     7
 10
14.275181
 20
-30.160728
 11
101.15948
 21
-30.160728
  0
LINE
  8
0
  6
CONTINUOUS
 62
     7
 10
15.801873
 20
-31.6875
 11
15.062012
 21
-8.011981
  0
LINE
  8
0
  6
CONTINUOUS
 62
     7
 10
15.062011
 20
-8.011981
 11
13.498383
 21
-5.3036966
  0
LINE
  8
0
  6
CENTER
 62
     7
 10
-82.282677
 20
-33.305908
 11
-82.282677
 21
21.194092
  0
LINE
  8
0
  6
CONTINUOUS
 62
     7
 10
-117.94588
 20
-26.739529
 11
-118.56236
 21
-7.0120468
  0
LINE
  8
0
  6
CONTINUOUS
 62
     7
 10
-119.4696
 20
-25.308121
 11
-120.12599
 21
-4.3037128
  0
LINE
  8
0
  6
CONTINUOUS
 62
     7
 10
-114.14939
 20
-30.305908
 11
-50.415939
 21
-30.305908
  0
LINE
  8
0
  6
CONTINUOUS
 62
     7
 10
-119.4696
 20
-25.308132
 11
-114.14939
 21
-30.30591
  0
LINE
  8
0
  6
CONTINUOUS
 62
     7
 10
-46.619476
 20
-26.739531
 11
-46.002991
 21
-7.0120468
  0
LINE
  8
0
  6
CONTINUOUS
 62
     7
 10
-45.09573
 20
-25.308132
 11
-44.439339
 21
-4.3037367
  0
LINE
  8
0
  6
CONTINUOUS
 62
     7
 10
-45.095726
 20
-25.30813
 11
-50.415939
 21
-30.305908
  0
LINE
  8
0
  6
CONTINUOUS
 62
     7
 10
-101.31007
 20
18.194092
 11
-63.255291
 21
18.194092
  0
LINE
  8
0
  6
CONTINUOUS
 62
     7
 10
-102.70167
 20
3.1108203
 11
-102.30969
 21
17.221893
  0
LINE
  8
0
  6
CONTINUOUS
 62
     7
 10
-61.863693
 20
3.1107986
 11
-62.255669
 21
17.22187
  0
LINE
  8
0
  6
CONTINUOUS
 62
     7
 10
-58.864857
 20
0.19409104
 11
-48.664547
 21
0.19409104
  0
LINE
  8
0
  6
CONTINUOUS
 62
     7
 10
-120.12599
 20
-4.3037457
 11
-115.90079
 21
0.19405928
  0
LINE
  8
0
  6
CONTINUOUS
 62
     7
 10
-44.439339
 20
-4.3037214
 11
-48.664547
 21
0.19408363
  0
LINE
  8
0
  6
CONTINUOUS
 62
     7
 10
-115.90079
 20
0.19409104
 11
-105.7005
 21
0.19409104
  0
LINE
  8
0
  6
CONTINUOUS
 62
     7
 10
-46.002991
 20
-7.0120459
 11
-44.439342
 21
-4.3037229
  0
LINE
  8
0
  6
CONTINUOUS
 62
     7
 10
-120.04135
 20
-7.0120478
 11
-44.523975
 21
-7.0120478
  0
LINE
  8
0
  6
CONTINUOUS
 62
     7
 10
-105.7005
 20
0.19409104
 11
-58.864857
 21
0.19409104
  0
LINE
  8
0
  6
CONTINUOUS
 62
     7
 10
-117.94585
 20
-26.739529
 11
-46.619476
 21
-26.739529
  0
LINE
  8
0
  6
CONTINUOUS
 62
     7
 10
-119.4696
 20
-25.308128
 11
-45.095726
 21
-25.308128
  0
LINE
  8
0
  6
CONTINUOUS
 62
     7
 10
-118.56237
 20
-7.012044
 11
-120.12601
 21
-4.3037229
  0
LINE
  8
0
  6
CENTER
 62
     7
 10
-207.28268
 20
-26.305908
 11
-207.28268
 21
21.194092
  0
LINE
  8
0
  6
CONTINUOUS
 62
     7
 10
-235.19415
 20
-20.239634
 11
-235.72058
 21
-3.393934
  0
LINE
  8
0
  6
CONTINUOUS
 62
     7
 10
-236.71837
 20
-18.807888
 11
-237.28099
 21
-0.80398053
  0
LINE
  8
0
  6
CONTINUOUS
 62
     7
 10
-231.59636
 20
-23.305908
 11
-182.96899
 21
-23.305908
  0
LINE
  8
0
  6
CONTINUOUS
 62
     7
 10
-236.71835
 20
-18.807816
 11
-232.46234
 21
-22.805874
  0
LINE
  8
0
  6
CONTINUOUS
 62
     7
 10
-231.59637
 20
-23.305939
 11
-232.4624
 21
-22.805939
  0
LINE
  8
0
  6
CONTINUOUS
 62
     7
 10
-179.37126
 20
-20.239786
 11
-178.84482
 21
-3.3939331
  0
LINE
  8
0
  6
CONTINUOUS
 62
     7
 10
-177.84702
 20
-18.807865
 11
-177.28065
 21
-0.68469262
  0
LINE
  8
0
  6
CONTINUOUS
 62
     7
 10
-177.84695
 20
-18.807878
 11
-182.10295
 21
-22.805925
  0
LINE
  8
0
  6
CONTINUOUS
 62
     7
 10
-182.96904
 20
-23.305847
 11
-182.10301
 21
-22.805847
  0
LINE
  8
0
  6
CONTINUOUS
 62
     7
 10
-222.78268
 20
18.194092
 11
-191.78268
 21
18.194092
  0
LINE
  8
0
  6
CONTINUOUS
 62
     7
 10
-223.2182
 20
5.1274514
 11
-222.78265
 21
18.194094
  0
LINE
  8
0
  6
CONTINUOUS
 62
     7
 10
-191.34711
 20
5.1274476
 11
-191.78265
 21
18.19409
  0
LINE
  8
0
  6
CONTINUOUS
 62
     7
 10
-189.34824
 20
3.1940911
 11
-181.15944
 21
3.1940911
  0
LINE
  8
0
  6
CONTINUOUS
 62
     7
 10
-237.28101
 20
-0.803927
 11
-233.52525
 21
3.1941218
  0
LINE
  8
0
  6
CONTINUOUS
 62
     7
 10
-181.15945
 20
3.1940756
 11
-177.28067
 21
-0.68470758
  0
LINE
  8
0
  6
CONTINUOUS
 62
     7
 10
-233.52524
 20
3.1940911
 11
-225.21712
 21
3.1940911
  0
LINE
  8
0
  6
CONTINUOUS
 62
     7
 10
-178.8448
 20
-3.3939362
 11
-177.28065
 21
-0.68473268
  0
LINE
  8
0
  6
CONTINUOUS
 62
     7
 10
-237.20006
 20
-3.3939331
 11
-177.36531
 21
-3.3939331
  0
LINE
  8
0
  6
CONTINUOUS
 62
     7
 10
-233.52528
 20
3.1940911
 11
-181.15947
 21
3.1940911
  0
LINE
  8
0
  6
CONTINUOUS
 62
     7
 10
-235.19398
 20
-20.239784
 11
-179.37125
 21
-20.239784
  0
LINE
  8
0
  6
CONTINUOUS
 62
     7
 10
-236.71837
 20
-18.807926
 11
-177.847
 21
-18.807926
  0
LINE
  8
0
  6
CONTINUOUS
 62
     7
 10
-235.72055
 20
-3.3939312
 11
-237.2847
 21
-0.68472761
  0
LINE
  8
0
  6
CENTER
 62
     7
 10
52.632908
 20
141.14133
 11
52.632908
 21
183.64133
  0
LINE
  8
0
  6
CONTINUOUS
 62
     7
 10
30.542084
 20
146.72748
 11
30.113731
 21
160.43477
  0
LINE
  8
0
  6
CONTINUOUS
 62
     7
 10
29.015371
 20
148.25424
 11
28.550097
 21
163.14308
  0
LINE
  8
0
  6
CONTINUOUS
 62
     7
 10
33.494282
 20
144.14133
 11
71.771515
 21
144.14133
  0
LINE
  8
0
  6
CONTINUOUS
 62
     7
 10
32.628288
 20
144.64128
 11
29.015348
 21
148.25423
  0
LINE
  8
0
  6
CONTINUOUS
 62
     7
 10
33.494297
 20
144.14133
 11
32.628338
 21
144.6413
  0
LINE
  8
0
  6
CONTINUOUS
 62
     7
 10
76.25042
 20
148.25421
 11
76.715691
 21
163.14301
  0
LINE
  8
0
  6
CONTINUOUS
 62
     7
 10
72.637558
 20
144.6412
 11
76.250496
 21
148.25415
  0
LINE
  8
0
  6
CONTINUOUS
 62
     7
 10
71.771477
 20
144.14143
 11
72.637436
 21
144.6414
  0
LINE
  8
0
  6
CONTINUOUS
 62
     7
 10
28.550016
 20
163.14311
 11
31.836302
 21
166.6414
  0
LINE
  8
0
  6
CONTINUOUS
 62
     7
 10
76.715691
 20
163.14302
 11
73.429413
 21
166.64133
  0
LINE
  8
0
  6
CONTINUOUS
 62
     7
 10
31.836374
 20
166.64133
 11
37.70306
 21
166.64133
  0
LINE
  8
0
  6
CONTINUOUS
 62
     7
 10
40.65176
 20
180.64133
 11
64.614059
 21
180.64133
  0
LINE
  8
0
  6
CONTINUOUS
 62
     7
 10
39.701725
 20
168.56996
 11
40.114998
 21
180.14166
  0
LINE
  8
0
  6
CONTINUOUS
 62
     7
 10
65.150703
 20
180.14166
 11
65.56398
 21
168.56996
  0
LINE
  8
0
  6
CONTINUOUS
 62
     7
 10
67.562752
 20
166.64133
 11
73.429436
 21
166.64133
  0
LINE
  8
0
  6
CONTINUOUS
 62
     7
 10
40.115093
 20
180.14162
 11
40.651787
 21
180.6413
  0
LINE
  8
0
  6
CONTINUOUS
 62
     7
 10
65.150749
 20
180.14162
 11
64.614059
 21
180.6413
  0
LINE
  8
0
  6
CONTINUOUS
 62
     7
 10
74.723724
 20
146.72737
 11
75.152077
 21
160.43477
  0
LINE
  8
0
  6
CONTINUOUS
 62
     7
 10
75.152077
 20
160.43475
 11
76.715691
 21
163.14302
  0
LINE
  8
0
  6
CONTINUOUS
 62
     7
 10
31.836235
 20
166.64133
 11
73.429413
 21
166.64133
  0
LINE
  8
0
  6
CONTINUOUS
 62
     7
 10
28.634729
 20
160.43477
 11
76.631065
 21
160.43477
  0
LINE
  8
0
  6
CONTINUOUS
 62
     7
 10
30.542028
 20
146.72754
 11
74.723892
 21
146.72754
  0
LINE
  8
0
  6
CONTINUOUS
 62
     7
 10
29.015371
 20
148.25421
 11
76.25042
 21
148.25421
  0
LINE
  8
0
  6
CONTINUOUS
 62
     7
 10
30.113728
 20
160.43477
 11
28.550117
 21
163.14302
  0
LINE
  8
0
  6
CENTER
 62
     7
 10
-47.367092
 20
142.14131
 11
-47.367092
 21
183.64133
  0
LINE
  8
0
  6
CONTINUOUS
 62
     7
 10
-66.511398
 20
147.72749
 11
-66.939751
 21
161.43472
  0
LINE
  8
0
  6
CONTINUOUS
 62
     7
 10
-68.038124
 20
149.2542
 11
-68.503403
 21
164.14304
  0
LINE
  8
0
  6
CONTINUOUS
 62
     7
 10
-63.5592
 20
145.14131
 11
-31.174971
 21
145.14131
  0
LINE
  8
0
  6
CONTINUOUS
 62
     7
 10
-64.425209
 20
145.64133
 11
-68.038116
 21
149.25423
  0
LINE
  8
0
  6
CONTINUOUS
 62
     7
 10
-63.559212
 20
145.14128
 11
-64.425224
 21
145.64128
  0
LINE
  8
0
  6
CONTINUOUS
 62
     7
 10
-28.22278
 20
147.72749
 11
-27.794428
 21
161.43471
  0
LINE
  8
0
  6
CONTINUOUS
 62
     7
 10
-26.696062
 20
149.2542
 11
-26.230783
 21
164.14304
  0
LINE
  8
0
  6
CONTINUOUS
 62
     7
 10
-30.308952
 20
145.64131
 11
-26.696035
 21
149.25423
  0
LINE
  8
0
  6
CONTINUOUS
 62
     7
 10
-31.174984
 20
145.1413
 11
-30.308958
 21
145.6413
  0
LINE
  8
0
  6
CONTINUOUS
 62
     7
 10
-68.503418
 20
164.14304
 11
-65.217155
 21
167.64133
  0
LINE
  8
0
  6
CONTINUOUS
 62
     7
 10
-26.230787
 20
164.14304
 11
-29.517054
 21
167.64131
  0
LINE
  8
0
  6
CONTINUOUS
 62
     7
 10
-65.217155
 20
167.64133
 11
-60.791645
 21
167.64133
  0
LINE
  8
0
  6
CONTINUOUS
 62
     7
 10
-58.367092
 20
180.64133
 11
-36.367092
 21
180.64133
  0
LINE
  8
0
  6
CONTINUOUS
 62
     7
 10
-58.793125
 20
169.56445
 11
-58.367092
 21
180.64133
  0
LINE
  8
0
  6
CONTINUOUS
 62
     7
 10
-35.941055
 20
169.56447
 11
-36.367088
 21
180.64133
  0
LINE
  8
0
  6
CONTINUOUS
 62
     7
 10
-33.942539
 20
167.64133
 11
-29.51705
 21
167.64133
  0
LINE
  8
0
  6
CONTINUOUS
 62
     7
 10
-27.794426
 20
161.43472
 11
-26.230785
 21
164.14302
  0
LINE
  8
0
  6
CONTINUOUS
 62
     7
 10
-65.217155
 20
167.64133
 11
-29.517067
 21
167.64133
  0
LINE
  8
0
  6
CONTINUOUS
 62
     7
 10
-68.41877
 20
161.43472
 11
-26.31542
 21
161.43472
  0
LINE
  8
0
  6
CONTINUOUS
 62
     7
 10
-66.511368
 20
147.72749
 11
-28.22278
 21
147.72749
  0
LINE
  8
0
  6
CONTINUOUS
 62
     7
 10
-68.038132
 20
149.25421
 11
-26.696062
 21
149.25421
  0
LINE
  8
0
  6
CONTINUOUS
 62
     7
 10
-66.939758
 20
161.43472
 11
-68.503403
 21
164.14302
  0
LINE
  8
0
  6
CENTER
 62
     7
 10
-137.3671
 20
146.24133
 11
-137.3671
 21
183.64133
  0
LINE
  8
0
  6
CONTINUOUS
 62
     7
 10
-152.23686
 20
151.20848
 11
-152.6033
 21
162.93457
  0
LINE
  8
0
  6
CONTINUOUS
 62
     7
 10
-153.7606
 20
152.63985
 11
-154.16695
 21
165.64278
  0
LINE
  8
0
  6
CONTINUOUS
 62
     7
 10
-149.87582
 20
149.24133
 11
-124.85837
 21
149.24133
  0
LINE
  8
0
  6
CONTINUOUS
 62
     7
 10
-153.7606
 20
152.63988
 11
-150.56857
 21
149.6413
  0
LINE
  8
0
  6
CONTINUOUS
 62
     7
 10
-149.87584
 20
149.24132
 11
-150.56857
 21
149.64128
  0
LINE
  8
0
  6
CONTINUOUS
 62
     7
 10
-122.49734
 20
151.20862
 11
-122.1309
 21
162.93457
  0
LINE
  8
0
  6
CONTINUOUS
 62
     7
 10
-120.9736
 20
152.63986
 11
-120.56725
 21
165.64279
  0
LINE
  8
0
  6
CONTINUOUS
 62
     7
 10
-120.97363
 20
152.63997
 11
-124.16568
 21
149.64139
  0
LINE
  8
0
  6
CONTINUOUS
 62
     7
 10
-124.8584
 20
149.24138
 11
-124.16566
 21
149.64133
  0
LINE
  8
0
  6
CONTINUOUS
 62
     7
 10
-154.16699
 20
165.64285
 11
-151.35019
 21
168.64139
  0
LINE
  8
0
  6
CONTINUOUS
 62
     7
 10
-120.56721
 20
165.64284
 11
-123.38402
 21
168.64137
  0
LINE
  8
0
  6
CONTINUOUS
 62
     7
 10
-151.35014
 20
168.64133
 11
-147.83432
 21
168.64133
  0
LINE
  8
0
  6
CONTINUOUS
 62
     7
 10
-146.46709
 20
180.64133
 11
-128.26711
 21
180.64133
  0
LINE
  8
0
  6
CONTINUOUS
 62
     7
 10
-146.83488
 20
169.60803
 11
-146.4671
 21
180.64134
  0
LINE
  8
0
  6
CONTINUOUS
 62
     7
 10
-127.89932
 20
169.60803
 11
-128.26711
 21
180.64133
  0
LINE
  8
0
  6
CONTINUOUS
 62
     7
 10
-126.89988
 20
168.64133
 11
-123.38405
 21
168.64133
  0
LINE
  8
0
  6
CONTINUOUS
 62
     7
 10
-122.13091
 20
162.93457
 11
-120.56725
 21
165.64288
  0
LINE
  8
0
  6
CONTINUOUS
 62
     7
 10
-151.35023
 20
168.64133
 11
-123.38398
 21
168.64133
  0
LINE
  8
0
  6
CONTINUOUS
 62
     7
 10
-154.08232
 20
162.93457
 11
-120.65189
 21
162.93457
  0
LINE
  8
0
  6
CONTINUOUS
 62
     7
 10
-153.7606
 20
152.64
 11
-120.97359
 21
152.64
  0
LINE
  8
0
  6
CONTINUOUS
 62
     7
 10
-152.237
 20
151.20862
 11
-122.49733
 21
151.20862
  0
LINE
  8
0
  6
CONTINUOUS
 62
     7
 10
-152.60329
 20
162.93457
 11
-154.16693
 21
165.64288
  0
LINE
  8
0
  6
CENTER
 62
     7
 10
-217.3671
 20
149.24133
 11
-217.3671
 21
183.51225
  0
LINE
  8
0
  6
CONTINUOUS
 62
     7
 10
-229.18634
 20
154.51534
 11
-229.53006
 21
165.5146
  0
LINE
  8
0
  6
CONTINUOUS
 62
     7
 10
-230.38348
 20
155.63985
 11
-230.75856
 21
167.6423
  0
LINE
  8
0
  6
CONTINUOUS
 62
     7
 10
-230.38347
 20
155.63985
 11
-227.19151
 21
152.64134
  0
LINE
  8
0
  6
CONTINUOUS
 62
     7
 10
-226.49867
 20
152.24132
 11
-227.19148
 21
152.64131
  0
LINE
  8
0
  6
CONTINUOUS
 62
     7
 10
-205.54784
 20
154.51534
 11
-205.20412
 21
165.51459
  0
LINE
  8
0
  6
CONTINUOUS
 62
     7
 10
-204.35071
 20
155.63986
 11
-203.97563
 21
167.64233
  0
LINE
  8
0
  6
CONTINUOUS
 62
     7
 10
-208.2355
 20
152.24133
 11
-226.49867
 21
152.24133
  0
LINE
  8
0
  6
CONTINUOUS
 62
     7
 10
-204.35074
 20
155.63989
 11
-207.54271
 21
152.64136
  0
LINE
  8
0
  6
CONTINUOUS
 62
     7
 10
-208.23555
 20
152.24139
 11
-207.54274
 21
152.64139
  0
LINE
  8
0
  6
CONTINUOUS
 62
     7
 10
-230.75864
 20
167.64233
 11
-228.88077
 21
169.64136
  0
LINE
  8
0
  6
CONTINUOUS
 62
     7
 10
-228.88071
 20
169.64133
 11
-226.83139
 21
169.64133
  0
LINE
  8
0
  6
CONTINUOUS
 62
     7
 10
-203.97559
 20
167.64235
 11
-205.85345
 21
169.64136
  0
LINE
  8
0
  6
CONTINUOUS
 62
     7
 10
-225.46709
 20
180.64133
 11
-209.26711
 21
180.64133
  0
LINE
  8
0
  6
CONTINUOUS
 62
     7
 10
-225.83206
 20
170.60495
 11
-225.4671
 21
180.6413
  0
LINE
  8
0
  6
CONTINUOUS
 62
     7
 10
-208.90215
 20
170.60497
 11
-209.26711
 21
180.64134
  0
LINE
  8
0
  6
CONTINUOUS
 62
     7
 10
-207.9028
 20
169.64133
 11
-205.85345
 21
169.64133
  0
LINE
  8
0
  6
CONTINUOUS
 62
     7
 10
-205.2041
 20
165.5146
 11
-203.97563
 21
167.64238
  0
LINE
  8
0
  6
CONTINUOUS
 62
     7
 10
-230.69206
 20
165.5146
 11
-204.04213
 21
165.5146
  0
LINE
  8
0
  6
CONTINUOUS
 62
     7
 10
-228.8808
 20
169.64133
 11
-205.85342
 21
169.64133
  0
LINE
  8
0
  6
CONTINUOUS
 62
     7
 10
-229.1864
 20
154.51534
 11
-205.54784
 21
154.51534
  0
LINE
  8
0
  6
CONTINUOUS
 62
     7
 10
-230.38348
 20
155.63991
 11
-204.35071
 21
155.63991
  0
LINE
  8
0
  6
CONTINUOUS
 62
     7
 10
-229.53008
 20
165.5146
 11
-230.75854
 21
167.64238
  0
LINE
  8
0
  6
CENTER
 62
     7
 10
-277.3671
 20
152.76628
 11
-277.3671
 21
182.64311
  0
LINE
  8
0
  6
CONTINUOUS
 62
     7
 10
-286.48691
 20
157.53864
 11
-286.7674
 21
166.51457
  0
LINE
  8
0
  6
CONTINUOUS
 62
     7
 10
-287.68637
 20
158.7381
 11
-287.99588
 21
168.64232
  0
LINE
  8
0
  6
CONTINUOUS
 62
     7
 10
-283.89676
 20
155.24133
 11
-270.83737
 21
155.24133
  0
LINE
  8
0
  6
CONTINUOUS
 62
     7
 10
-284.58957
 20
155.64134
 11
-287.68634
 21
158.73813
  0
LINE
  8
0
  6
CONTINUOUS
 62
     7
 10
-283.89679
 20
155.2413
 11
-284.5896
 21
155.6413
  0
LINE
  8
0
  6
CONTINUOUS
 62
     7
 10
-268.24731
 20
157.53864
 11
-267.9668
 21
166.51457
  0
LINE
  8
0
  6
CONTINUOUS
 62
     7
 10
-267.04785
 20
158.73813
 11
-266.73834
 21
168.6423
  0
LINE
  8
0
  6
CONTINUOUS
 62
     7
 10
-270.14462
 20
155.6413
 11
-267.04782
 21
158.7381
  0
LINE
  8
0
  6
CONTINUOUS
 62
     7
 10
-270.83743
 20
155.2413
 11
-270.14462
 21
155.6413
  0
LINE
  8
0
  6
CONTINUOUS
 62
     7
 10
-283.9671
 20
180.64133
 11
-270.76709
 21
180.64133
  0
LINE
  8
0
  6
CONTINUOUS
 62
     7
 10
-284.3287
 20
171.60138
 11
-283.9671
 21
180.64134
  0
LINE
  8
0
  6
CONTINUOUS
 62
     7
 10
-270.40552
 20
171.60138
 11
-270.76709
 21
180.64134
  0
LINE
  8
0
  6
CONTINUOUS
 62
     7
 10
-269.40628
 20
170.64133
 11
-268.61621
 21
170.64133
  0
LINE
  8
0
  6
CONTINUOUS
 62
     7
 10
-287.99585
 20
168.64232
 11
-286.11798
 21
170.64134
  0
LINE
  8
0
  6
CONTINUOUS
 62
     7
 10
-266.73834
 20
168.6423
 11
-268.61621
 21
170.64134
  0
LINE
  8
0
  6
CONTINUOUS
 62
     7
 10
-286.11798
 20
170.64133
 11
-285.32788
 21
170.64133
  0
LINE
  8
0
  6
CONTINUOUS
 62
     7
 10
-267.9668
 20
166.51457
 11
-266.73834
 21
168.64232
  0
LINE
  8
0
  6
CONTINUOUS
 62
     7
 10
-286.11795
 20
170.64134
 11
-268.61621
 21
170.64134
  0
LINE
  8
0
  6
CONTINUOUS
 62
     7
 10
-287.92935
 20
166.51457
 11
-266.80484
 21
166.51457
  0
LINE
  8
0
  6
CONTINUOUS
 62
     7
 10
-287.68634
 20
158.73808
 11
-267.04785
 21
158.73808
  0
LINE
  8
0
  6
CONTINUOUS
 62
     7
 10
-286.48691
 20
157.53864
 11
-268.24728
 21
157.53864
  0
LINE
  8
0
  6
CONTINUOUS
 62
     7
 10
-286.7674
 20
166.51456
 11
-287.99585
 21
168.6423
  0
ARC
  8
0
  6
CONTINUOUS
 62
     7
 10
185.78474
 20
-0.80590898
 40
3
 50
270.00002
 51
358.69811
  0
ARC
  8
0
  6
CONTINUOUS
 62
     7
 10
249.64987
 20
-0.80590898
 40
3
 50
181.30187
 51
270.00002
  0
ARC
  8
0
  6
CONTINUOUS
 62
     7
 10
190.19487
 20
17.194092
 40
1
 50
89.999982
 51
178.69813
  0
ARC
  8
0
  6
CONTINUOUS
 62
     7
 10
245.23976
 20
17.194092
 40
1
 50
1.3018931
 51
89.999982
  0
ARC
  8
0
  6
CONTINUOUS
 62
     7
 10
31.795223
 20
2.1940911
 40
3
 50
270.00002
 51
358.4926
  0
ARC
  8
0
  6
CONTINUOUS
 62
     7
 10
83.639404
 20
2.1940911
 40
3
 50
181.50739
 51
270.00002
  0
ARC
  8
0
  6
CONTINUOUS
 62
     7
 10
36.191349
 20
17.194092
 40
1
 50
89.999982
 51
178.49261
  0
ARC
  8
0
  6
CONTINUOUS
 62
     7
 10
79.243286
 20
17.194092
 40
1
 50
1.5074127
 51
89.999982
  0
ARC
  8
0
  6
CONTINUOUS
 62
     7
 10
-105.7005
 20
3.1940911
 40
3
 50
270.00002
 51
358.40892
  0
ARC
  8
0
  6
CONTINUOUS
 62
     7
 10
-58.864857
 20
3.1940911
 40
3
 50
181.59105
 51
270.00002
  0
ARC
  8
0
  6
CONTINUOUS
 62
     7
 10
-101.31007
 20
17.194092
 40
1
 50
89.999982
 51
178.40867
  0
ARC
  8
0
  6
CONTINUOUS
 62
     7
 10
-63.255291
 20
17.194092
 40
1
 50
1.5913709
 51
89.999982
  0
ARC
  8
0
  6
CONTINUOUS
 62
     7
 10
-225.21712
 20
5.1940908
 40
2
 50
270.00002
 51
358.09069
  0
ARC
  8
0
  6
CONTINUOUS
 62
     7
 10
-189.34824
 20
5.1940908
 40
2
 50
181.90929
 51
270.00002
  0
ARC
  8
0
  6
CONTINUOUS
 62
     7
 10
37.70306
 20
168.64133
 40
2
 50
270.00002
 51
357.95466
  0
ARC
  8
0
  6
CONTINUOUS
 62
     7
 10
67.562752
 20
168.64133
 40
2
 50
182.04532
 51
270.00002
  0
ARC
  8
0
  6
CONTINUOUS
 62
     7
 10
-60.791645
 20
169.64133
 40
2
 50
270.00002
 51
357.79718
  0
ARC
  8
0
  6
CONTINUOUS
 62
     7
 10
-33.942539
 20
169.64133
 40
2
 50
182.2028
 51
270.00002
  0
ARC
  8
0
  6
CONTINUOUS
 62
     7
 10
-147.83432
 20
169.64133
 40
1
 50
270.00002
 51
358.09112
  0
ARC
  8
0
  6
CONTINUOUS
 62
     7
 10
-126.89988
 20
169.64133
 40
1
 50
181.90886
 51
270.00002
  0
ARC
  8
0
  6
CONTINUOUS
 62
     7
 10
-226.83139
 20
170.64133
 40
1
 50
270.00002
 51
357.91705
  0
ARC
  8
0
  6
CONTINUOUS
 62
     7
 10
-207.9028
 20
170.64133
 40
1
 50
182.08293
 51
270.00002
  0
ARC
  8
0
  6
CONTINUOUS
 62
     7
 10
-285.32788
 20
171.64133
 40
1
 50
270.00002
 51
357.7097
  0
ARC
  8
0
  6
CONTINUOUS
 62
     7
 10
-269.40628
 20
171.64133
 40
1
 50
182.29029
 51
270.00002
  0
TEXT
  8
0
  6
CONTINUOUS
 62
     7
 10
-379.08815
 20
266.396
 40
12
 41
0.8437661
  1
ＲＣＦ－Ｋ　Ｐ（プラグ）
  0
TEXT
  8
0
  6
CONTINUOUS
 62
     7
 10
214.85982
 20
29.194092
 40
8
 41
1.0715625
  1
4
  0
TEXT
  8
0
  6
CONTINUOUS
 62
     7
 10
54.859819
 20
34.194092
 40
8
 41
1.0715625
  1
3
  0
TEXT
  8
0
  6
CONTINUOUS
 62
     7
 10
-95.140177
 20
29.194092
 40
8
 41
1.0130114
  1
21/2
  0
TEXT
  8
0
  6
CONTINUOUS
 62
     7
 10
-210.14018
 20
29.194092
 40
8
 41
1.0715625
  1
2
  0
TEXT
  8
0
  6
CONTINUOUS
 62
     7
 10
34.775408
 20
196.64133
 40
8
 41
1.0130114
  1
11/2
  0
TEXT
  8
0
  6
CONTINUOUS
 62
     7
 10
-65.224592
 20
191.64133
 40
8
 41
1.0130114
  1
11/4
  0
TEXT
  8
0
  6
CONTINUOUS
 62
     7
 10
-140.2246
 20
191.64133
 40
8
 41
1.0715625
  1
1
  0
TEXT
  8
0
  6
CONTINUOUS
 62
     7
 10
-230.2246
 20
191.64133
 40
8
 41
1.0178906
  1
3/4
  0
TEXT
  8
0
  6
CONTINUOUS
 62
     7
 10
-285.2246
 20
191.64133
 40
8
 41
1.0178906
  1
1/2
  0
POINT
  8
1
  6
CONTINUOUS
 62
     7
 10
410
 20
-297.5
  0
LINE
  8
1
  6
CONTINUOUS
 62
     7
 10
-429
 20
-297.5
 11
410
 21
-297.5
  0
LINE
  8
1
  6
CONTINUOUS
 62
     7
 10
-429
 20
297.5
 11
-429
 21
-297.5
  0
LINE
  8
1
  6
CONTINUOUS
 62
     7
 10
410
 20
297.5
 11
410
 21
-297.5
  0
LINE
  8
1
  6
CONTINUOUS
 62
     7
 10
-429
 20
297.5
 11
410
 21
297.5
  0
ENDSEC
  0
EOF
