  0
SECTION
  2
HEADER
  9
$EXTMAX
 10
1259
 20
-913.5
  9
$EXTMIN
 10
417
 20
-1507.5
  0
ENDSEC
  0
SECTION
  2
TABLES
  0
TABLE
  2
LTYPE
 70
    22
  0
LTYPE
  2
CONTINUOUS
 70
    64
  3
Solid line
 72
    65
 73
     0
 40
0.000000
  0
LTYPE
  2
DASHED
 70
    64
  3
__ __ __ __ __ __ __ __ __ __ __ __ __ __ __
 72
    65
 73
     2
 40
3.500000
 49
2.000000
 49
-1.500000
  0
LTYPE
  2
CENTER
 70
    64
  3
____ _ ____ _ ____ _ ____ _ ____ _ ____ _ ____
 72
    65
 73
     4
 40
17.500000
 49
13.000000
 49
-1.500000
 49
1.500000
 49
-1.500000
  0
LTYPE
  2
PHANTOM
 70
    64
  3
_____ _ _ _____ _ _ _____ _ _ _____ _ _ ____  
 72
    65
 73
     6
 40
15.500000
 49
8.000000
 49
-1.500000
 49
1.500000
 49
-1.500000
 49
1.500000
 49
-1.500000
  0
LTYPE
  2
DOT
 70
    64
  3
. . . . . . . . . . . . . . . . . . . . . . . .
 72
    65
 73
     2
 40
0.25
 49
0.0
 49
-0.25
  0
ENDTAB
  0
TABLE
  2
LAYER
 70
     2
  0
LAYER
  2
0
 70
     0
 62
     7
  6
CONTINUOUS
  0
LAYER
  2
1
 70
     0
 62
     7
  6
CONTINUOUS
  0
ENDTAB
  0
TABLE
  2
STYLE
 70
     1
  0
STYLE
  2
STANDARD
 70
     0
 40
0.000000
 41
1.000000
 50
0.000000
 71
     0
 42
0.200000
  3
txt
  4
BIGFONT
  0
ENDTAB
  0
TABLE
  2
VIEW
 70
     0
  0
ENDTAB
  0
ENDSEC
  0
SECTION
  2
BLOCKS
  0
ENDSEC
  0
SECTION
  2
ENTITIES
  0
POINT
  8
0
  6
CONTINUOUS
 62
     7
 10
47.343056
 20
-9.9722223
  0
POINT
  8
0
  6
CONTINUOUS
 62
     7
 10
-82.656944
 20
-9.9722223
  0
POINT
  8
0
  6
CONTINUOUS
 62
     7
 10
-197.65695
 20
-9.9722223
  0
POINT
  8
0
  6
CONTINUOUS
 62
     7
 10
-302.65695
 20
-9.9722223
  0
POINT
  8
0
  6
CONTINUOUS
 62
     7
 10
22.315277
 20
151.57777
  0
POINT
  8
0
  6
CONTINUOUS
 62
     7
 10
-62.684723
 20
151.57777
  0
POINT
  8
0
  6
CONTINUOUS
 62
     7
 10
-147.68472
 20
151.57777
  0
POINT
  8
0
  6
CONTINUOUS
 62
     7
 10
-222.68472
 20
151.57777
  0
POINT
  8
0
  6
CONTINUOUS
 62
     7
 10
-292.68472
 20
151.57777
  0
LINE
  8
0
  6
CENTER
 62
     7
 10
-3.6569445
 20
-9.9722528
 11
98.343056
 21
-9.9722528
  0
LINE
  8
0
  6
CONTINUOUS
 62
     7
 10
38.343056
 20
50.027733
 11
38.343056
 21
-9.9722528
  0
LINE
  8
0
  6
CONTINUOUS
 62
     7
 10
4.4094796
 20
44.365814
 11
35.536858
 21
45.338547
  0
LINE
  8
0
  6
CONTINUOUS
 62
     7
 10
5.8408933
 20
45.889572
 11
37.063595
 21
46.86528
  0
LINE
  8
0
  6
CONTINUOUS
 62
     7
 10
41.197212
 20
-9.9722223
 11
47.343056
 21
-9.9722223
  0
LINE
  8
0
  6
CONTINUOUS
 62
     7
 10
41.197212
 20
35.94976
 11
47.343056
 21
35.94976
  0
LINE
  8
0
  6
CONTINUOUS
 62
     7
 10
41.19714
 20
54.971275
 11
47.343056
 21
54.971275
  0
LINE
  8
0
  6
CONTINUOUS
 62
     7
 10
41.197151
 20
54.971294
 11
38.342995
 21
50.027744
  0
LINE
  8
0
  6
CONTINUOUS
 62
     7
 10
0.74304944
 20
40.46283
 11
0.74304944
 21
-9.9722528
  0
LINE
  8
0
  6
CONTINUOUS
 62
     7
 10
5.8408961
 20
45.889572
 11
0.74305058
 21
40.46283
  0
LINE
  8
0
  6
CONTINUOUS
 62
     7
 10
5.840889
 20
45.88958
 11
5.840889
 21
-9.9722528
  0
LINE
  8
0
  6
CONTINUOUS
 62
     7
 10
35.536861
 20
45.338547
 11
38.343056
 21
48.144745
  0
LINE
  8
0
  6
CONTINUOUS
 62
     7
 10
35.536861
 20
46.817574
 11
35.536861
 21
-9.9722528
  0
LINE
  8
0
  6
CONTINUOUS
 62
     7
 10
4.4094772
 20
44.365807
 11
4.4094772
 21
-9.9722528
  0
LINE
  8
0
  6
CONTINUOUS
 62
     7
 10
38.343056
 20
-69.972237
 11
38.343056
 21
-9.9722528
  0
LINE
  8
0
  6
CONTINUOUS
 62
     7
 10
4.4094777
 20
-64.310318
 11
35.536861
 21
-65.283051
  0
LINE
  8
0
  6
CONTINUOUS
 62
     7
 10
5.8408957
 20
-65.834076
 11
37.063595
 21
-66.809784
  0
LINE
  8
0
  6
CONTINUOUS
 62
     7
 10
41.197212
 20
-55.894264
 11
47.343056
 21
-55.894264
  0
LINE
  8
0
  6
CONTINUOUS
 62
     7
 10
41.19714
 20
-74.915779
 11
47.343056
 21
-74.915779
  0
LINE
  8
0
  6
CONTINUOUS
 62
     7
 10
41.197151
 20
-74.915802
 11
38.342995
 21
-69.972252
  0
LINE
  8
0
  6
CONTINUOUS
 62
     7
 10
4.4094772
 20
-64.31031
 11
4.4094772
 21
-9.9722528
  0
LINE
  8
0
  6
CONTINUOUS
 62
     7
 10
0.74304944
 20
-60.407333
 11
0.74304944
 21
-9.9722528
  0
LINE
  8
0
  6
CONTINUOUS
 62
     7
 10
5.8408937
 20
-65.834076
 11
0.74304795
 21
-60.407333
  0
LINE
  8
0
  6
CONTINUOUS
 62
     7
 10
5.840889
 20
-65.834084
 11
5.840889
 21
-9.9722528
  0
LINE
  8
0
  6
CONTINUOUS
 62
     7
 10
35.536861
 20
-66.762077
 11
35.536861
 21
-9.9722528
  0
LINE
  8
0
  6
CONTINUOUS
 62
     7
 10
35.536858
 20
-65.283051
 11
38.343056
 21
-68.089249
  0
LINE
  8
0
  6
CONTINUOUS
 62
     7
 10
56.343056
 20
50.027733
 11
56.343056
 21
-9.9722528
  0
LINE
  8
0
  6
CONTINUOUS
 62
     7
 10
90.276634
 20
44.365818
 11
59.149254
 21
45.338547
  0
LINE
  8
0
  6
CONTINUOUS
 62
     7
 10
88.845222
 20
45.889572
 11
57.622517
 21
46.86528
  0
LINE
  8
0
  6
CONTINUOUS
 62
     7
 10
53.488899
 20
-9.9722223
 11
47.343056
 21
-9.9722223
  0
LINE
  8
0
  6
CONTINUOUS
 62
     7
 10
53.488899
 20
35.94976
 11
47.343056
 21
35.94976
  0
LINE
  8
0
  6
CONTINUOUS
 62
     7
 10
53.488972
 20
54.971275
 11
47.343056
 21
54.971275
  0
LINE
  8
0
  6
CONTINUOUS
 62
     7
 10
53.488964
 20
54.971294
 11
56.343121
 21
50.027748
  0
LINE
  8
0
  6
CONTINUOUS
 62
     7
 10
90.276634
 20
44.365807
 11
90.276634
 21
-9.9722528
  0
LINE
  8
0
  6
CONTINUOUS
 62
     7
 10
93.943062
 20
40.46283
 11
93.943062
 21
-9.9722528
  0
LINE
  8
0
  6
CONTINUOUS
 62
     7
 10
88.845215
 20
45.889572
 11
93.943062
 21
40.462826
  0
LINE
  8
0
  6
CONTINUOUS
 62
     7
 10
88.845222
 20
45.88958
 11
88.845222
 21
-9.9722528
  0
LINE
  8
0
  6
CONTINUOUS
 62
     7
 10
56.343056
 20
-69.972237
 11
56.343056
 21
-9.9722528
  0
LINE
  8
0
  6
CONTINUOUS
 62
     7
 10
90.276634
 20
-64.310318
 11
59.14925
 21
-65.283051
  0
LINE
  8
0
  6
CONTINUOUS
 62
     7
 10
59.14925
 20
-65.283051
 11
56.343052
 21
-68.089249
  0
LINE
  8
0
  6
CONTINUOUS
 62
     7
 10
88.845215
 20
-65.834076
 11
57.622517
 21
-66.809784
  0
LINE
  8
0
  6
CONTINUOUS
 62
     7
 10
53.488899
 20
-55.894264
 11
47.343056
 21
-55.894264
  0
LINE
  8
0
  6
CONTINUOUS
 62
     7
 10
53.488972
 20
-74.915779
 11
47.343056
 21
-74.915779
  0
LINE
  8
0
  6
CONTINUOUS
 62
     7
 10
53.488964
 20
-74.915802
 11
56.343117
 21
-69.97226
  0
LINE
  8
0
  6
CONTINUOUS
 62
     7
 10
59.14925
 20
46.817574
 11
59.14925
 21
-9.9722528
  0
LINE
  8
0
  6
CONTINUOUS
 62
     7
 10
59.149254
 20
45.338551
 11
56.34306
 21
48.144745
  0
LINE
  8
0
  6
CONTINUOUS
 62
     7
 10
59.14925
 20
-66.762077
 11
59.14925
 21
-9.9722528
  0
LINE
  8
0
  6
CONTINUOUS
 62
     7
 10
88.845222
 20
-65.834084
 11
88.845222
 21
-9.9722528
  0
LINE
  8
0
  6
CONTINUOUS
 62
     7
 10
88.845222
 20
-65.834084
 11
93.943062
 21
-60.407337
  0
LINE
  8
0
  6
CONTINUOUS
 62
     7
 10
93.943062
 20
-60.407333
 11
93.943062
 21
-9.9722528
  0
LINE
  8
0
  6
CONTINUOUS
 62
     7
 10
90.276634
 20
-64.31031
 11
90.276634
 21
-9.9722528
  0
LINE
  8
0
  6
CENTER
 62
     7
 10
-128.15695
 20
-9.9722071
 11
-37.156944
 21
-9.9722071
  0
LINE
  8
0
  6
CONTINUOUS
 62
     7
 10
-91.156944
 20
37.527794
 11
-91.156944
 21
-9.9722071
  0
LINE
  8
0
  6
CONTINUOUS
 62
     7
 10
-120.40495
 20
31.576788
 11
-94.446762
 21
32.387981
  0
LINE
  8
0
  6
CONTINUOUS
 62
     7
 10
-118.87823
 20
33.103504
 11
-92.920036
 21
33.9147
  0
LINE
  8
0
  6
CONTINUOUS
 62
     7
 10
-88.897469
 20
41.441414
 11
-82.656944
 21
41.441414
  0
LINE
  8
0
  6
CONTINUOUS
 62
     7
 10
-88.897408
 20
-9.9721918
 11
-82.656944
 21
-9.9721918
  0
LINE
  8
0
  6
CONTINUOUS
 62
     7
 10
-88.897461
 20
41.441429
 11
-91.156982
 21
37.527809
  0
LINE
  8
0
  6
CONTINUOUS
 62
     7
 10
-88.897408
 20
26.382713
 11
-82.656944
 21
26.382713
  0
LINE
  8
0
  6
CONTINUOUS
 62
     7
 10
-123.65694
 20
28.324787
 11
-123.65694
 21
-9.9722071
  0
LINE
  8
0
  6
CONTINUOUS
 62
     7
 10
-123.65694
 20
28.324791
 11
-118.87823
 21
33.103508
  0
LINE
  8
0
  6
CONTINUOUS
 62
     7
 10
-118.87823
 20
33.103508
 11
-118.87823
 21
-9.9722071
  0
LINE
  8
0
  6
CONTINUOUS
 62
     7
 10
-120.40495
 20
31.57679
 11
-120.40495
 21
-9.9722071
  0
LINE
  8
0
  6
CONTINUOUS
 62
     7
 10
-94.446762
 20
32.387981
 11
-91.156944
 21
35.677795
  0
LINE
  8
0
  6
CONTINUOUS
 62
     7
 10
-94.446762
 20
33.866989
 11
-94.446762
 21
-9.9722071
  0
LINE
  8
0
  6
CONTINUOUS
 62
     7
 10
-91.156944
 20
-57.472206
 11
-91.156944
 21
-9.9722071
  0
LINE
  8
0
  6
CONTINUOUS
 62
     7
 10
-120.40495
 20
-51.521202
 11
-94.446762
 21
-52.332397
  0
LINE
  8
0
  6
CONTINUOUS
 62
     7
 10
-118.87823
 20
-53.04792
 11
-92.920044
 21
-53.859116
  0
LINE
  8
0
  6
CONTINUOUS
 62
     7
 10
-88.897469
 20
-61.385826
 11
-82.656944
 21
-61.385826
  0
LINE
  8
0
  6
CONTINUOUS
 62
     7
 10
-88.897408
 20
-9.9722223
 11
-82.656944
 21
-9.9722223
  0
LINE
  8
0
  6
CONTINUOUS
 62
     7
 10
-88.897461
 20
-61.385845
 11
-91.15699
 21
-57.472225
  0
LINE
  8
0
  6
CONTINUOUS
 62
     7
 10
-88.897408
 20
-46.327126
 11
-82.656944
 21
-46.327126
  0
LINE
  8
0
  6
CONTINUOUS
 62
     7
 10
-123.65694
 20
-48.269199
 11
-123.65694
 21
-9.9722071
  0
LINE
  8
0
  6
CONTINUOUS
 62
     7
 10
-123.65694
 20
-48.269199
 11
-118.87823
 21
-53.047924
  0
LINE
  8
0
  6
CONTINUOUS
 62
     7
 10
-118.87823
 20
-53.04792
 11
-118.87823
 21
-9.9722071
  0
LINE
  8
0
  6
CONTINUOUS
 62
     7
 10
-120.40495
 20
-51.521202
 11
-120.40495
 21
-9.9722071
  0
LINE
  8
0
  6
CONTINUOUS
 62
     7
 10
-94.446762
 20
-53.811401
 11
-94.446762
 21
-9.9722071
  0
LINE
  8
0
  6
CONTINUOUS
 62
     7
 10
-94.446762
 20
-52.332394
 11
-91.156944
 21
-55.622211
  0
LINE
  8
0
  6
CONTINUOUS
 62
     7
 10
-74.156944
 20
37.527794
 11
-74.156944
 21
-9.9722071
  0
LINE
  8
0
  6
CONTINUOUS
 62
     7
 10
-44.908943
 20
31.57679
 11
-70.867134
 21
32.387981
  0
LINE
  8
0
  6
CONTINUOUS
 62
     7
 10
-46.435661
 20
33.103508
 11
-72.393845
 21
33.9147
  0
LINE
  8
0
  6
CONTINUOUS
 62
     7
 10
-76.41642
 20
41.441414
 11
-82.656944
 21
41.441414
  0
LINE
  8
0
  6
CONTINUOUS
 62
     7
 10
-76.416481
 20
-9.9721918
 11
-82.656944
 21
-9.9721918
  0
LINE
  8
0
  6
CONTINUOUS
 62
     7
 10
-76.416428
 20
41.441433
 11
-74.156898
 21
37.527813
  0
LINE
  8
0
  6
CONTINUOUS
 62
     7
 10
-76.416481
 20
26.382713
 11
-82.656944
 21
26.382713
  0
LINE
  8
0
  6
CONTINUOUS
 62
     7
 10
-41.656944
 20
28.324787
 11
-41.656944
 21
-9.9722071
  0
LINE
  8
0
  6
CONTINUOUS
 62
     7
 10
-41.656944
 20
28.324789
 11
-46.435665
 21
33.103508
  0
LINE
  8
0
  6
CONTINUOUS
 62
     7
 10
-46.435661
 20
33.103508
 11
-46.435661
 21
-9.9722071
  0
LINE
  8
0
  6
CONTINUOUS
 62
     7
 10
-44.908947
 20
31.57679
 11
-44.908947
 21
-9.9722071
  0
LINE
  8
0
  6
CONTINUOUS
 62
     7
 10
-70.867126
 20
33.866989
 11
-70.867126
 21
-9.9722071
  0
LINE
  8
0
  6
CONTINUOUS
 62
     7
 10
-70.867134
 20
32.387981
 11
-74.156944
 21
35.677792
  0
LINE
  8
0
  6
CONTINUOUS
 62
     7
 10
-74.156944
 20
-57.472206
 11
-74.156944
 21
-9.9722071
  0
LINE
  8
0
  6
CONTINUOUS
 62
     7
 10
-44.908947
 20
-51.521202
 11
-70.867126
 21
-52.332397
  0
LINE
  8
0
  6
CONTINUOUS
 62
     7
 10
-46.435661
 20
-53.04792
 11
-72.393852
 21
-53.859116
  0
LINE
  8
0
  6
CONTINUOUS
 62
     7
 10
-76.41642
 20
-61.385826
 11
-82.656944
 21
-61.385826
  0
LINE
  8
0
  6
CONTINUOUS
 62
     7
 10
-76.416481
 20
-9.9722223
 11
-82.656944
 21
-9.9722223
  0
LINE
  8
0
  6
CONTINUOUS
 62
     7
 10
-76.416428
 20
-61.385849
 11
-74.156898
 21
-57.472229
  0
LINE
  8
0
  6
CONTINUOUS
 62
     7
 10
-76.416481
 20
-46.327126
 11
-82.656944
 21
-46.327126
  0
LINE
  8
0
  6
CONTINUOUS
 62
     7
 10
-41.656944
 20
-48.269199
 11
-41.656944
 21
-9.9722071
  0
LINE
  8
0
  6
CONTINUOUS
 62
     7
 10
-41.656944
 20
-48.269199
 11
-46.435665
 21
-53.04792
  0
LINE
  8
0
  6
CONTINUOUS
 62
     7
 10
-46.435661
 20
-53.04792
 11
-46.435661
 21
-9.9722071
  0
LINE
  8
0
  6
CONTINUOUS
 62
     7
 10
-44.908947
 20
-51.521202
 11
-44.908947
 21
-9.9722071
  0
LINE
  8
0
  6
CONTINUOUS
 62
     7
 10
-70.867126
 20
-53.811401
 11
-70.867126
 21
-9.9722071
  0
LINE
  8
0
  6
CONTINUOUS
 62
     7
 10
-70.867126
 20
-52.332397
 11
-74.156944
 21
-55.622215
  0
LINE
  8
0
  6
CENTER
 62
     7
 10
-239.15695
 20
-9.9722223
 11
-156.15695
 21
-9.9722223
  0
LINE
  8
0
  6
CONTINUOUS
 62
     7
 10
-206.15695
 20
30.027779
 11
-206.15695
 21
-9.9722223
  0
LINE
  8
0
  6
CONTINUOUS
 62
     7
 10
-231.09056
 20
25.690981
 11
-209.10674
 21
26.377975
  0
LINE
  8
0
  6
CONTINUOUS
 62
     7
 10
-229.65916
 20
27.214706
 11
-207.58005
 21
27.904678
  0
LINE
  8
0
  6
CONTINUOUS
 62
     7
 10
-204.25423
 20
33.323479
 11
-197.65695
 21
33.323479
  0
LINE
  8
0
  6
CONTINUOUS
 62
     7
 10
-204.25421
 20
33.323498
 11
-206.15698
 21
30.027796
  0
LINE
  8
0
  6
CONTINUOUS
 62
     7
 10
-204.25418
 20
-9.9722223
 11
-197.65695
 21
-9.9722223
  0
LINE
  8
0
  6
CONTINUOUS
 62
     7
 10
-204.25418
 20
20.642464
 11
-197.65695
 21
20.642464
  0
LINE
  8
0
  6
CONTINUOUS
 62
     7
 10
-234.65695
 20
21.894512
 11
-234.65695
 21
-9.9722223
  0
LINE
  8
0
  6
CONTINUOUS
 62
     7
 10
-229.65916
 20
27.214714
 11
-234.65695
 21
21.894503
  0
LINE
  8
0
  6
CONTINUOUS
 62
     7
 10
-229.65918
 20
27.214699
 11
-229.65918
 21
-9.9722223
  0
LINE
  8
0
  6
CONTINUOUS
 62
     7
 10
-209.10674
 20
26.377977
 11
-206.15694
 21
29.327765
  0
LINE
  8
0
  6
CONTINUOUS
 62
     7
 10
-209.10674
 20
27.856968
 11
-209.10674
 21
-9.9722223
  0
LINE
  8
0
  6
CONTINUOUS
 62
     7
 10
-231.09056
 20
25.690983
 11
-231.09056
 21
-9.9722223
  0
LINE
  8
0
  6
CONTINUOUS
 62
     7
 10
-229.65918
 20
-47.159142
 11
-229.65918
 21
-9.9722223
  0
LINE
  8
0
  6
CONTINUOUS
 62
     7
 10
-229.65918
 20
-47.159164
 11
-234.65695
 21
-41.838955
  0
LINE
  8
0
  6
CONTINUOUS
 62
     7
 10
-234.65695
 20
-41.838955
 11
-234.65695
 21
-9.9722223
  0
LINE
  8
0
  6
CENTER
 62
     7
 10
-239.15695
 20
-9.9722223
 11
-156.15695
 21
-9.9722223
  0
LINE
  8
0
  6
CONTINUOUS
 62
     7
 10
-204.25418
 20
-40.586906
 11
-197.65695
 21
-40.586906
  0
LINE
  8
0
  6
CONTINUOUS
 62
     7
 10
-204.25418
 20
-9.9722223
 11
-197.65695
 21
-9.9722223
  0
LINE
  8
0
  6
CONTINUOUS
 62
     7
 10
-204.25421
 20
-53.267944
 11
-206.15698
 21
-49.972244
  0
LINE
  8
0
  6
CONTINUOUS
 62
     7
 10
-204.25423
 20
-53.267921
 11
-197.65695
 21
-53.267921
  0
LINE
  8
0
  6
CONTINUOUS
 62
     7
 10
-229.65916
 20
-47.159153
 11
-207.58003
 21
-47.849125
  0
LINE
  8
0
  6
CONTINUOUS
 62
     7
 10
-231.09056
 20
-45.635429
 11
-209.10675
 21
-46.322422
  0
LINE
  8
0
  6
CONTINUOUS
 62
     7
 10
-206.15695
 20
-49.972221
 11
-206.15695
 21
-9.9722223
  0
LINE
  8
0
  6
CONTINUOUS
 62
     7
 10
-209.10674
 20
-47.801411
 11
-209.10674
 21
-9.9722223
  0
LINE
  8
0
  6
CONTINUOUS
 62
     7
 10
-209.10674
 20
-46.322422
 11
-206.15695
 21
-49.272217
  0
LINE
  8
0
  6
CONTINUOUS
 62
     7
 10
-231.09056
 20
-45.635426
 11
-231.09056
 21
-9.9722223
  0
LINE
  8
0
  6
CONTINUOUS
 62
     7
 10
-165.65472
 20
27.214699
 11
-165.65472
 21
-9.9722223
  0
LINE
  8
0
  6
CONTINUOUS
 62
     7
 10
-165.65472
 20
27.21471
 11
-160.65695
 21
21.894508
  0
LINE
  8
0
  6
CONTINUOUS
 62
     7
 10
-160.65695
 20
21.894512
 11
-160.65695
 21
-9.9722223
  0
LINE
  8
0
  6
CENTER
 62
     7
 10
-156.15695
 20
-9.9722223
 11
-239.15695
 21
-9.9722223
  0
LINE
  8
0
  6
CONTINUOUS
 62
     7
 10
-191.05972
 20
20.642464
 11
-197.65695
 21
20.642464
  0
LINE
  8
0
  6
CONTINUOUS
 62
     7
 10
-191.05972
 20
-9.9722223
 11
-197.65695
 21
-9.9722223
  0
LINE
  8
0
  6
CONTINUOUS
 62
     7
 10
-191.05968
 20
33.323509
 11
-189.15689
 21
30.027805
  0
LINE
  8
0
  6
CONTINUOUS
 62
     7
 10
-191.05966
 20
33.323479
 11
-197.65695
 21
33.323479
  0
LINE
  8
0
  6
CONTINUOUS
 62
     7
 10
-165.65472
 20
27.214706
 11
-187.73386
 21
27.90468
  0
LINE
  8
0
  6
CONTINUOUS
 62
     7
 10
-164.22333
 20
25.690983
 11
-186.20715
 21
26.377977
  0
LINE
  8
0
  6
CONTINUOUS
 62
     7
 10
-189.15695
 20
30.027779
 11
-189.15695
 21
-9.9722223
  0
LINE
  8
0
  6
CONTINUOUS
 62
     7
 10
-186.20715
 20
27.856968
 11
-186.20715
 21
-9.9722223
  0
LINE
  8
0
  6
CONTINUOUS
 62
     7
 10
-186.20715
 20
26.377977
 11
-189.15695
 21
29.327765
  0
LINE
  8
0
  6
CONTINUOUS
 62
     7
 10
-164.22333
 20
-45.635426
 11
-164.22333
 21
-9.9722223
  0
LINE
  8
0
  6
CONTINUOUS
 62
     7
 10
-189.15695
 20
-49.972221
 11
-189.15695
 21
-9.9722223
  0
LINE
  8
0
  6
CONTINUOUS
 62
     7
 10
-186.20715
 20
-47.801411
 11
-186.20715
 21
-9.9722223
  0
LINE
  8
0
  6
CONTINUOUS
 62
     7
 10
-191.05966
 20
-53.267921
 11
-197.65695
 21
-53.267921
  0
LINE
  8
0
  6
CONTINUOUS
 62
     7
 10
-164.22334
 20
-45.635429
 11
-186.20715
 21
-46.322422
  0
LINE
  8
0
  6
CONTINUOUS
 62
     7
 10
-186.20715
 20
-46.322414
 11
-189.15695
 21
-49.272217
  0
LINE
  8
0
  6
CONTINUOUS
 62
     7
 10
-191.05972
 20
-40.586906
 11
-197.65695
 21
-40.586906
  0
LINE
  8
0
  6
CONTINUOUS
 62
     7
 10
-191.05972
 20
-9.9722223
 11
-197.65695
 21
-9.9722223
  0
LINE
  8
0
  6
CONTINUOUS
 62
     7
 10
-165.65472
 20
-47.159157
 11
-160.65695
 21
-41.838955
  0
LINE
  8
0
  6
CONTINUOUS
 62
     7
 10
-191.05968
 20
-53.267952
 11
-189.15689
 21
-49.972244
  0
LINE
  8
0
  6
CONTINUOUS
 62
     7
 10
-165.65472
 20
-47.159142
 11
-165.65472
 21
-9.9722223
  0
LINE
  8
0
  6
CONTINUOUS
 62
     7
 10
-165.65471
 20
-47.159153
 11
-187.73386
 21
-47.849125
  0
LINE
  8
0
  6
CONTINUOUS
 62
     7
 10
-164.22333
 20
25.690983
 11
-164.22333
 21
-9.9722223
  0
LINE
  8
0
  6
CONTINUOUS
 62
     7
 10
-160.65695
 20
-41.838955
 11
-160.65695
 21
-9.9722223
  0
LINE
  8
0
  6
CENTER
 62
     7
 10
-340.65695
 20
-9.9722071
 11
-264.65695
 21
-9.9722071
  0
LINE
  8
0
  6
CONTINUOUS
 62
     7
 10
-310.65695
 20
21.527794
 11
-310.65695
 21
-9.9722071
  0
LINE
  8
0
  6
CONTINUOUS
 62
     7
 10
-294.65695
 20
21.527794
 11
-294.65695
 21
-9.9722071
  0
LINE
  8
0
  6
CONTINUOUS
 62
     7
 10
-333.09024
 20
17.939754
 11
-313.43066
 21
18.554115
  0
LINE
  8
0
  6
CONTINUOUS
 62
     7
 10
-331.65887
 20
19.463493
 11
-311.90396
 21
20.080833
  0
LINE
  8
0
  6
CONTINUOUS
 62
     7
 10
-333.09024
 20
-37.884178
 11
-313.43063
 21
-38.498539
  0
LINE
  8
0
  6
CONTINUOUS
 62
     7
 10
-331.65887
 20
-39.407902
 11
-311.90396
 21
-40.025242
  0
LINE
  8
0
  6
CONTINUOUS
 62
     7
 10
-309.15851
 20
24.123161
 11
-296.15536
 21
24.123161
  0
LINE
  8
0
  6
CONTINUOUS
 62
     7
 10
-309.15854
 20
24.123173
 11
-310.65695
 21
21.527817
  0
LINE
  8
0
  6
CONTINUOUS
 62
     7
 10
-296.15536
 20
24.123165
 11
-294.65695
 21
21.527798
  0
LINE
  8
0
  6
CONTINUOUS
 62
     7
 10
-309.15854
 20
-44.067589
 11
-310.65695
 21
-41.472221
  0
LINE
  8
0
  6
CONTINUOUS
 62
     7
 10
-296.15536
 20
-44.067562
 11
-294.65695
 21
-41.472206
  0
LINE
  8
0
  6
CONTINUOUS
 62
     7
 10
-309.15851
 20
-44.067574
 11
-296.15536
 21
-44.067574
  0
LINE
  8
0
  6
CONTINUOUS
 62
     7
 10
-309.15851
 20
-9.9722223
 11
-296.15536
 21
-9.9722223
  0
LINE
  8
0
  6
CONTINUOUS
 62
     7
 10
-309.15851
 20
14.136832
 11
-296.15536
 21
14.136832
  0
LINE
  8
0
  6
CONTINUOUS
 62
     7
 10
-336.15695
 20
-34.285873
 11
-335.65695
 21
-35.151897
  0
LINE
  8
0
  6
CONTINUOUS
 62
     7
 10
-331.65884
 20
-39.407887
 11
-335.65689
 21
-35.151886
  0
LINE
  8
0
  6
CONTINUOUS
 62
     7
 10
-336.15695
 20
14.341468
 11
-336.15695
 21
-34.285896
  0
LINE
  8
0
  6
CONTINUOUS
 62
     7
 10
-336.15695
 20
14.34149
 11
-335.65695
 21
15.207515
  0
LINE
  8
0
  6
CONTINUOUS
 62
     7
 10
-331.65887
 20
19.463451
 11
-335.65692
 21
15.207464
  0
LINE
  8
0
  6
CONTINUOUS
 62
     7
 10
-331.65884
 20
19.463493
 11
-331.65884
 21
-9.9722071
  0
LINE
  8
0
  6
CONTINUOUS
 62
     7
 10
-269.15689
 20
-34.285877
 11
-269.65689
 21
-35.151901
  0
LINE
  8
0
  6
CONTINUOUS
 62
     7
 10
-269.15695
 20
14.341468
 11
-269.15695
 21
-34.285896
  0
LINE
  8
0
  6
CONTINUOUS
 62
     7
 10
-269.15692
 20
14.341486
 11
-269.65692
 21
15.207512
  0
LINE
  8
0
  6
CONTINUOUS
 62
     7
 10
-273.655
 20
19.463442
 11
-269.65695
 21
15.207445
  0
LINE
  8
0
  6
CONTINUOUS
 62
     7
 10
-273.65503
 20
19.463493
 11
-273.65503
 21
-9.9722071
  0
LINE
  8
0
  6
CONTINUOUS
 62
     7
 10
-273.65503
 20
-39.407887
 11
-269.65698
 21
-35.15189
  0
LINE
  8
0
  6
CONTINUOUS
 62
     7
 10
-313.43066
 20
18.554119
 11
-310.65695
 21
21.327831
  0
LINE
  8
0
  6
CONTINUOUS
 62
     7
 10
-313.43066
 20
20.033125
 11
-313.43066
 21
-39.977531
  0
LINE
  8
0
  6
CONTINUOUS
 62
     7
 10
-333.09024
 20
17.939754
 11
-333.09024
 21
-37.884182
  0
LINE
  8
0
  6
CONTINUOUS
 62
     7
 10
-272.22366
 20
17.939754
 11
-272.22366
 21
-37.884186
  0
LINE
  8
0
  6
CONTINUOUS
 62
     7
 10
-273.65503
 20
-39.407906
 11
-273.65503
 21
-9.9722071
  0
LINE
  8
0
  6
CONTINUOUS
 62
     7
 10
-331.65884
 20
-39.407906
 11
-331.65884
 21
-9.9722071
  0
LINE
  8
0
  6
CONTINUOUS
 62
     7
 10
-313.43066
 20
-38.498531
 11
-310.65695
 21
-41.272243
  0
LINE
  8
0
  6
CONTINUOUS
 62
     7
 10
-294.65695
 20
-41.472206
 11
-294.65695
 21
-9.9722071
  0
LINE
  8
0
  6
CONTINUOUS
 62
     7
 10
-310.65695
 20
-41.472206
 11
-310.65695
 21
-9.9722071
  0
LINE
  8
0
  6
CONTINUOUS
 62
     7
 10
-309.15851
 20
-34.081245
 11
-296.15536
 21
-34.081245
  0
LINE
  8
0
  6
CONTINUOUS
 62
     7
 10
-273.65503
 20
-39.407902
 11
-293.40994
 21
-40.025246
  0
LINE
  8
0
  6
CONTINUOUS
 62
     7
 10
-272.22366
 20
-37.884178
 11
-291.88321
 21
-38.498539
  0
LINE
  8
0
  6
CONTINUOUS
 62
     7
 10
-273.65503
 20
19.463493
 11
-293.40994
 21
20.080835
  0
LINE
  8
0
  6
CONTINUOUS
 62
     7
 10
-272.22366
 20
17.939754
 11
-291.88324
 21
18.554115
  0
LINE
  8
0
  6
CONTINUOUS
 62
     7
 10
-291.88324
 20
20.033125
 11
-291.88324
 21
-39.977531
  0
LINE
  8
0
  6
CONTINUOUS
 62
     7
 10
-291.88324
 20
18.554108
 11
-294.65695
 21
21.327831
  0
LINE
  8
0
  6
CONTINUOUS
 62
     7
 10
-291.88324
 20
-38.49852
 11
-294.65695
 21
-41.272243
  0
LINE
  8
0
  6
CONTINUOUS
 62
     7
 10
-8.1847219
 20
170.07777
 11
-8.1847219
 21
151.57777
  0
LINE
  8
0
  6
CONTINUOUS
 62
     7
 10
-7.6847167
 20
171.58241
 11
-8.1847181
 21
170.07777
  0
LINE
  8
0
  6
CONTINUOUS
 62
     7
 10
-7.6847796
 20
171.58238
 11
-4.0718412
 21
175.19531
  0
LINE
  8
0
  6
CONTINUOUS
 62
     7
 10
-4.0718598
 20
175.1953
 11
14.379398
 21
175.7719
  0
LINE
  8
0
  6
CONTINUOUS
 62
     7
 10
18.30414
 20
182.75468
 11
15.315282
 21
177.57782
  0
LINE
  8
0
  6
CONTINUOUS
 62
     7
 10
18.304169
 20
182.75468
 11
26.326401
 21
182.75468
  0
LINE
  8
0
  6
CONTINUOUS
 62
     7
 10
52.315323
 20
171.58238
 11
48.702396
 21
175.1953
  0
LINE
  8
0
  6
CONTINUOUS
 62
     7
 10
52.315281
 20
171.58241
 11
52.815281
 21
170.07777
  0
LINE
  8
0
  6
CONTINUOUS
 62
     7
 10
52.815277
 20
170.07777
 11
52.815277
 21
151.57777
  0
LINE
  8
0
  6
CONTINUOUS
 62
     7
 10
29.315277
 20
177.57779
 11
29.315277
 21
151.57777
  0
LINE
  8
0
  6
CONTINUOUS
 62
     7
 10
18.304169
 20
167.16624
 11
26.326385
 21
167.16624
  0
LINE
  8
0
  6
CONTINUOUS
 62
     7
 10
15.315278
 20
177.57777
 11
15.315278
 21
151.57777
  0
LINE
  8
0
  6
CENTER
 62
     7
 10
-10.684722
 20
151.57777
 11
55.315277
 21
151.57777
  0
LINE
  8
0
  6
CONTINUOUS
 62
     7
 10
-8.1847219
 20
133.07777
 11
-8.1847219
 21
151.57777
  0
LINE
  8
0
  6
CONTINUOUS
 62
     7
 10
-7.6847177
 20
131.57314
 11
-8.184721
 21
133.07777
  0
LINE
  8
0
  6
CONTINUOUS
 62
     7
 10
-7.6847744
 20
131.5732
 11
-4.071836
 21
127.96025
  0
LINE
  8
0
  6
CONTINUOUS
 62
     7
 10
18.304169
 20
120.40086
 11
26.326401
 21
120.40086
  0
LINE
  8
0
  6
CONTINUOUS
 62
     7
 10
52.315327
 20
131.57318
 11
48.702396
 21
127.96025
  0
LINE
  8
0
  6
CONTINUOUS
 62
     7
 10
52.315281
 20
131.57314
 11
52.815281
 21
133.07777
  0
LINE
  8
0
  6
CONTINUOUS
 62
     7
 10
52.815277
 20
133.07777
 11
52.815277
 21
151.57777
  0
LINE
  8
0
  6
CONTINUOUS
 62
     7
 10
29.315277
 20
125.57776
 11
29.315277
 21
151.57777
  0
LINE
  8
0
  6
CONTINUOUS
 62
     7
 10
18.304169
 20
135.9893
 11
26.326385
 21
135.9893
  0
LINE
  8
0
  6
CONTINUOUS
 62
     7
 10
15.315278
 20
125.57777
 11
15.315278
 21
151.57777
  0
LINE
  8
0
  6
CONTINUOUS
 62
     7
 10
-5.5824332
 20
173.68474
 11
12.868825
 21
174.26134
  0
LINE
  8
0
  6
CONTINUOUS
 62
     7
 10
12.868823
 20
174.26132
 11
15.315277
 21
176.70778
  0
LINE
  8
0
  6
CONTINUOUS
 62
     7
 10
-5.5824332
 20
173.68472
 11
-5.5824332
 21
129.47086
  0
LINE
  8
0
  6
CONTINUOUS
 62
     7
 10
-4.0718589
 20
175.1953
 11
-4.0718589
 21
127.96028
  0
LINE
  8
0
  6
CONTINUOUS
 62
     7
 10
12.868826
 20
175.72469
 11
12.868826
 21
151.57777
  0
LINE
  8
0
  6
CONTINUOUS
 62
     7
 10
-4.0718594
 20
127.96026
 11
14.379399
 21
127.38365
  0
LINE
  8
0
  6
CONTINUOUS
 62
     7
 10
18.304142
 20
120.40087
 11
15.315279
 21
125.57774
  0
LINE
  8
0
  6
CONTINUOUS
 62
     7
 10
12.868826
 20
127.43086
 11
12.868826
 21
151.57777
  0
LINE
  8
0
  6
CONTINUOUS
 62
     7
 10
-5.5824327
 20
129.47083
 11
12.868827
 21
128.89423
  0
LINE
  8
0
  6
CONTINUOUS
 62
     7
 10
12.868823
 20
128.89423
 11
15.315277
 21
126.44778
  0
LINE
  8
0
  6
CONTINUOUS
 62
     7
 10
48.702415
 20
175.1953
 11
30.251156
 21
175.7719
  0
LINE
  8
0
  6
CONTINUOUS
 62
     7
 10
26.326418
 20
182.75468
 11
29.315275
 21
177.57782
  0
LINE
  8
0
  6
CONTINUOUS
 62
     7
 10
50.212986
 20
129.47084
 11
31.761728
 21
128.89423
  0
LINE
  8
0
  6
CONTINUOUS
 62
     7
 10
50.21299
 20
173.68472
 11
50.21299
 21
129.47086
  0
LINE
  8
0
  6
CONTINUOUS
 62
     7
 10
31.76173
 20
175.72469
 11
31.76173
 21
151.57777
  0
LINE
  8
0
  6
CONTINUOUS
 62
     7
 10
31.76173
 20
128.89424
 11
29.315277
 21
126.44778
  0
LINE
  8
0
  6
CONTINUOUS
 62
     7
 10
48.702415
 20
127.96026
 11
30.251156
 21
127.38366
  0
LINE
  8
0
  6
CONTINUOUS
 62
     7
 10
26.326416
 20
120.40086
 11
29.315279
 21
125.57774
  0
LINE
  8
0
  6
CONTINUOUS
 62
     7
 10
31.76173
 20
127.43086
 11
31.76173
 21
151.57777
  0
LINE
  8
0
  6
CONTINUOUS
 62
     7
 10
48.702415
 20
175.1953
 11
48.702415
 21
127.96028
  0
LINE
  8
0
  6
CONTINUOUS
 62
     7
 10
50.21299
 20
173.68472
 11
31.761728
 21
174.26132
  0
LINE
  8
0
  6
CONTINUOUS
 62
     7
 10
31.76173
 20
174.26132
 11
29.315277
 21
176.70778
  0
LINE
  8
0
  6
CONTINUOUS
 62
     7
 10
-91.184723
 20
167.57777
 11
-91.184723
 21
151.57777
  0
LINE
  8
0
  6
CONTINUOUS
 62
     7
 10
-90.684723
 20
168.63588
 11
-91.184731
 21
167.57777
  0
LINE
  8
0
  6
CONTINUOUS
 62
     7
 10
-90.684715
 20
168.63591
 11
-87.071815
 21
172.24881
  0
LINE
  8
0
  6
CONTINUOUS
 62
     7
 10
-87.071808
 20
172.24881
 11
-69.613106
 21
172.79439
  0
LINE
  8
0
  6
CONTINUOUS
 62
     7
 10
-66.053085
 20
179.13589
 11
-59.316345
 21
179.13589
  0
LINE
  8
0
  6
CONTINUOUS
 62
     7
 10
-34.684738
 20
168.63589
 11
-38.297646
 21
172.24879
  0
LINE
  8
0
  6
CONTINUOUS
 62
     7
 10
-34.184719
 20
167.57777
 11
-34.684723
 21
168.63586
  0
LINE
  8
0
  6
CONTINUOUS
 62
     7
 10
-34.184723
 20
167.57777
 11
-34.184723
 21
151.57777
  0
LINE
  8
0
  6
CONTINUOUS
 62
     7
 10
-56.684723
 20
174.57777
 11
-56.684723
 21
151.57777
  0
LINE
  8
0
  6
CONTINUOUS
 62
     7
 10
-68.684723
 20
174.57777
 11
-68.684723
 21
151.57777
  0
LINE
  8
0
  6
CONTINUOUS
 62
     7
 10
-66.053101
 20
164.85683
 11
-59.316345
 21
164.85683
  0
LINE
  8
0
  6
CENTER
 62
     7
 10
-31.684723
 20
151.57777
 11
-93.684723
 21
151.57777
  0
LINE
  8
0
  6
CONTINUOUS
 62
     7
 10
-91.184723
 20
135.57777
 11
-91.184723
 21
151.57777
  0
LINE
  8
0
  6
CONTINUOUS
 62
     7
 10
-90.684723
 20
134.51968
 11
-91.184723
 21
135.57779
  0
LINE
  8
0
  6
CONTINUOUS
 62
     7
 10
-90.684715
 20
134.51967
 11
-87.071808
 21
130.90677
  0
LINE
  8
0
  6
CONTINUOUS
 62
     7
 10
-66.053085
 20
124.01965
 11
-59.316345
 21
124.01965
  0
LINE
  8
0
  6
CONTINUOUS
 62
     7
 10
-34.684738
 20
134.51967
 11
-38.297646
 21
130.90677
  0
LINE
  8
0
  6
CONTINUOUS
 62
     7
 10
-34.184715
 20
135.57777
 11
-34.684719
 21
134.51968
  0
LINE
  8
0
  6
CONTINUOUS
 62
     7
 10
-34.184723
 20
135.57777
 11
-34.184723
 21
151.57777
  0
LINE
  8
0
  6
CONTINUOUS
 62
     7
 10
-56.684723
 20
128.57777
 11
-56.684723
 21
151.57777
  0
LINE
  8
0
  6
CONTINUOUS
 62
     7
 10
-68.684723
 20
128.57777
 11
-68.684723
 21
151.57777
  0
LINE
  8
0
  6
CONTINUOUS
 62
     7
 10
-66.053101
 20
138.29872
 11
-59.316345
 21
138.29872
  0
LINE
  8
0
  6
CONTINUOUS
 62
     7
 10
-88.58239
 20
170.73822
 11
-71.123688
 21
171.28381
  0
LINE
  8
0
  6
CONTINUOUS
 62
     7
 10
-66.053101
 20
179.13591
 11
-68.684723
 21
174.57779
  0
LINE
  8
0
  6
CONTINUOUS
 62
     7
 10
-71.123695
 20
171.28381
 11
-68.684723
 21
173.72278
  0
LINE
  8
0
  6
CONTINUOUS
 62
     7
 10
-71.123688
 20
172.74719
 11
-71.123688
 21
151.57777
  0
LINE
  8
0
  6
CONTINUOUS
 62
     7
 10
-88.58239
 20
170.73822
 11
-88.58239
 21
151.57777
  0
LINE
  8
0
  6
CONTINUOUS
 62
     7
 10
-87.071808
 20
172.24881
 11
-87.071808
 21
151.57777
  0
LINE
  8
0
  6
CONTINUOUS
 62
     7
 10
-87.071808
 20
130.90675
 11
-69.613106
 21
130.36118
  0
LINE
  8
0
  6
CONTINUOUS
 62
     7
 10
-71.123688
 20
130.40837
 11
-71.123688
 21
151.57777
  0
LINE
  8
0
  6
CONTINUOUS
 62
     7
 10
-71.123688
 20
131.87175
 11
-68.684715
 21
129.43279
  0
LINE
  8
0
  6
CONTINUOUS
 62
     7
 10
-88.58239
 20
132.41733
 11
-88.58239
 21
151.57777
  0
LINE
  8
0
  6
CONTINUOUS
 62
     7
 10
-88.582397
 20
132.41733
 11
-71.123695
 21
131.87175
  0
LINE
  8
0
  6
CONTINUOUS
 62
     7
 10
-66.053093
 20
124.01965
 11
-68.684723
 21
128.57776
  0
LINE
  8
0
  6
CONTINUOUS
 62
     7
 10
-87.071808
 20
130.90674
 11
-87.071808
 21
151.57777
  0
LINE
  8
0
  6
CONTINUOUS
 62
     7
 10
-38.297634
 20
172.24881
 11
-55.756336
 21
172.7944
  0
LINE
  8
0
  6
CONTINUOUS
 62
     7
 10
-38.297634
 20
130.90675
 11
-55.75634
 21
130.36116
  0
LINE
  8
0
  6
CONTINUOUS
 62
     7
 10
-54.245758
 20
131.87175
 11
-56.684727
 21
129.43279
  0
LINE
  8
0
  6
CONTINUOUS
 62
     7
 10
-59.316349
 20
124.01965
 11
-56.684723
 21
128.57777
  0
LINE
  8
0
  6
CONTINUOUS
 62
     7
 10
-36.787052
 20
132.41733
 11
-36.787052
 21
151.57777
  0
LINE
  8
0
  6
CONTINUOUS
 62
     7
 10
-54.245754
 20
172.74719
 11
-54.245754
 21
151.57777
  0
LINE
  8
0
  6
CONTINUOUS
 62
     7
 10
-54.245754
 20
130.40837
 11
-54.245754
 21
151.57777
  0
LINE
  8
0
  6
CONTINUOUS
 62
     7
 10
-38.297634
 20
130.90674
 11
-38.297634
 21
151.57777
  0
LINE
  8
0
  6
CONTINUOUS
 62
     7
 10
-36.787048
 20
132.41733
 11
-54.245754
 21
131.87175
  0
LINE
  8
0
  6
CONTINUOUS
 62
     7
 10
-54.245754
 20
171.2838
 11
-56.684719
 21
173.72278
  0
LINE
  8
0
  6
CONTINUOUS
 62
     7
 10
-36.787052
 20
170.73822
 11
-36.787052
 21
151.57777
  0
LINE
  8
0
  6
CONTINUOUS
 62
     7
 10
-36.787052
 20
170.73824
 11
-54.245754
 21
171.28381
  0
LINE
  8
0
  6
CONTINUOUS
 62
     7
 10
-59.316349
 20
179.13591
 11
-56.684719
 21
174.57779
  0
LINE
  8
0
  6
CONTINUOUS
 62
     7
 10
-38.297634
 20
172.24881
 11
-38.297634
 21
151.57777
  0
LINE
  8
0
  6
CONTINUOUS
 62
     7
 10
-174.08472
 20
163.57777
 11
-174.08472
 21
151.57777
  0
LINE
  8
0
  6
CONTINUOUS
 62
     7
 10
-173.68472
 20
164.7793
 11
-174.08473
 21
163.57777
  0
LINE
  8
0
  6
CONTINUOUS
 62
     7
 10
-170.68619
 20
167.9713
 11
-173.68475
 21
164.77925
  0
LINE
  8
0
  6
CONTINUOUS
 62
     7
 10
-170.68616
 20
167.97131
 11
-154.52103
 21
168.47647
  0
LINE
  8
0
  6
CONTINUOUS
 62
     7
 10
-151.52586
 20
173.51711
 11
-153.68472
 21
169.77783
  0
LINE
  8
0
  6
CONTINUOUS
 62
     7
 10
-151.52583
 20
173.51709
 11
-143.84361
 21
173.51709
  0
LINE
  8
0
  6
CONTINUOUS
 62
     7
 10
-124.68327
 20
167.97131
 11
-121.68468
 21
164.77925
  0
LINE
  8
0
  6
CONTINUOUS
 62
     7
 10
-121.68472
 20
164.7793
 11
-121.28473
 21
163.57779
  0
LINE
  8
0
  6
CONTINUOUS
 62
     7
 10
-121.28473
 20
163.57777
 11
-121.28473
 21
151.57777
  0
LINE
  8
0
  6
CONTINUOUS
 62
     7
 10
-141.68472
 20
169.89223
 11
-141.68472
 21
151.57777
  0
LINE
  8
0
  6
CONTINUOUS
 62
     7
 10
-153.68472
 20
169.89226
 11
-153.68472
 21
151.57777
  0
LINE
  8
0
  6
CONTINUOUS
 62
     7
 10
-151.52583
 20
162.54744
 11
-143.84361
 21
162.54744
  0
LINE
  8
0
  6
CENTER
 62
     7
 10
-118.68472
 20
151.57777
 11
-176.68472
 21
151.57777
  0
LINE
  8
0
  6
CONTINUOUS
 62
     7
 10
-174.08472
 20
139.57777
 11
-174.08472
 21
151.57777
  0
LINE
  8
0
  6
CONTINUOUS
 62
     7
 10
-173.68472
 20
138.37625
 11
-174.08473
 21
139.57779
  0
LINE
  8
0
  6
CONTINUOUS
 62
     7
 10
-170.68619
 20
135.18427
 11
-173.68475
 21
138.3763
  0
LINE
  8
0
  6
CONTINUOUS
 62
     7
 10
-151.52583
 20
129.63846
 11
-143.84361
 21
129.63846
  0
LINE
  8
0
  6
CONTINUOUS
 62
     7
 10
-124.68326
 20
135.18425
 11
-121.68468
 21
138.3763
  0
LINE
  8
0
  6
CONTINUOUS
 62
     7
 10
-121.68471
 20
138.37627
 11
-121.28472
 21
139.57777
  0
LINE
  8
0
  6
CONTINUOUS
 62
     7
 10
-121.28473
 20
139.57777
 11
-121.28473
 21
151.57777
  0
LINE
  8
0
  6
CONTINUOUS
 62
     7
 10
-141.68472
 20
133.26332
 11
-141.68472
 21
151.57777
  0
LINE
  8
0
  6
CONTINUOUS
 62
     7
 10
-153.68472
 20
133.26329
 11
-153.68472
 21
151.57777
  0
LINE
  8
0
  6
CONTINUOUS
 62
     7
 10
-151.52583
 20
140.60811
 11
-143.84361
 21
140.60811
  0
LINE
  8
0
  6
CONTINUOUS
 62
     7
 10
-156.03485
 20
166.96265
 11
-153.68472
 21
169.31277
  0
LINE
  8
0
  6
CONTINUOUS
 62
     7
 10
-170.68616
 20
167.9713
 11
-170.68616
 21
151.57777
  0
LINE
  8
0
  6
CONTINUOUS
 62
     7
 10
-172.10547
 20
166.46045
 11
-156.03485
 21
166.96266
  0
LINE
  8
0
  6
CONTINUOUS
 62
     7
 10
-170.68617
 20
135.18425
 11
-154.52104
 21
134.67909
  0
LINE
  8
0
  6
CONTINUOUS
 62
     7
 10
-151.52585
 20
129.63846
 11
-153.68472
 21
133.37773
  0
LINE
  8
0
  6
CONTINUOUS
 62
     7
 10
-172.10545
 20
136.69511
 11
-156.03485
 21
136.1929
  0
LINE
  8
0
  6
CONTINUOUS
 62
     7
 10
-156.03485
 20
136.1929
 11
-153.68472
 21
133.84277
  0
LINE
  8
0
  6
CONTINUOUS
 62
     7
 10
-170.68616
 20
135.18425
 11
-170.68616
 21
151.57777
  0
LINE
  8
0
  6
CONTINUOUS
 62
     7
 10
-124.68328
 20
167.97131
 11
-140.84842
 21
168.47647
  0
LINE
  8
0
  6
CONTINUOUS
 62
     7
 10
-143.84358
 20
173.51709
 11
-141.68472
 21
169.77782
  0
LINE
  8
0
  6
CONTINUOUS
 62
     7
 10
-124.68328
 20
135.18425
 11
-140.8484
 21
134.67909
  0
LINE
  8
0
  6
CONTINUOUS
 62
     7
 10
-123.26398
 20
136.69511
 11
-139.33459
 21
136.1929
  0
LINE
  8
0
  6
CONTINUOUS
 62
     7
 10
-124.68328
 20
135.18425
 11
-124.68328
 21
151.57777
  0
LINE
  8
0
  6
CONTINUOUS
 62
     7
 10
-123.26398
 20
166.46043
 11
-139.33459
 21
166.96265
  0
LINE
  8
0
  6
CONTINUOUS
 62
     7
 10
-143.8436
 20
129.63846
 11
-141.68472
 21
133.37773
  0
LINE
  8
0
  6
CONTINUOUS
 62
     7
 10
-139.33459
 20
136.1929
 11
-141.68472
 21
133.84277
  0
LINE
  8
0
  6
CONTINUOUS
 62
     7
 10
-139.33459
 20
166.96265
 11
-141.68472
 21
169.31279
  0
LINE
  8
0
  6
CONTINUOUS
 62
     7
 10
-124.68328
 20
167.9713
 11
-124.68328
 21
151.57777
  0
LINE
  8
0
  6
CONTINUOUS
 62
     7
 10
-156.03485
 20
168.42915
 11
-156.03485
 21
134.72639
  0
LINE
  8
0
  6
CONTINUOUS
 62
     7
 10
-139.33459
 20
168.42915
 11
-139.33459
 21
134.72639
  0
LINE
  8
0
  6
CONTINUOUS
 62
     7
 10
-172.10547
 20
166.46043
 11
-172.10547
 21
136.69511
  0
LINE
  8
0
  6
CONTINUOUS
 62
     7
 10
-123.26398
 20
166.46043
 11
-123.26398
 21
136.69511
  0
LINE
  8
0
  6
CONTINUOUS
 62
     7
 10
-246.58472
 20
151.57777
 11
-246.58472
 21
160.57777
  0
LINE
  8
0
  6
CONTINUOUS
 62
     7
 10
-246.18474
 20
161.40222
 11
-246.58473
 21
160.57777
  0
LINE
  8
0
  6
CONTINUOUS
 62
     7
 10
-246.18472
 20
161.40222
 11
-242.98651
 21
164.60043
  0
LINE
  8
0
  6
CONTINUOUS
 62
     7
 10
-242.98651
 20
164.60042
 11
-228.84
 21
165.0425
  0
LINE
  8
0
  6
CONTINUOUS
 62
     7
 10
-226.46706
 20
170.05299
 11
-228.18474
 21
167.0779
  0
LINE
  8
0
  6
CONTINUOUS
 62
     7
 10
-226.467
 20
170.05298
 11
-218.90244
 21
170.05298
  0
LINE
  8
0
  6
CONTINUOUS
 62
     7
 10
-199.18472
 20
161.40222
 11
-202.38293
 21
164.60043
  0
LINE
  8
0
  6
CONTINUOUS
 62
     7
 10
-199.18474
 20
161.40225
 11
-198.78473
 21
160.57779
  0
LINE
  8
0
  6
CONTINUOUS
 62
     7
 10
-198.78473
 20
151.57777
 11
-198.78473
 21
160.57777
  0
LINE
  8
0
  6
CONTINUOUS
 62
     7
 10
-217.18472
 20
167.0778
 11
-217.18472
 21
151.57777
  0
LINE
  8
0
  6
CONTINUOUS
 62
     7
 10
-226.467
 20
160.81538
 11
-218.90245
 21
160.81538
  0
LINE
  8
0
  6
CONTINUOUS
 62
     7
 10
-228.18472
 20
167.07779
 11
-228.18472
 21
151.57777
  0
LINE
  8
0
  6
CENTER
 62
     7
 10
-196.18472
 20
151.57777
 11
-249.18472
 21
151.57777
  0
LINE
  8
0
  6
CONTINUOUS
 62
     7
 10
-246.58472
 20
151.57777
 11
-246.58472
 21
142.57777
  0
LINE
  8
0
  6
CONTINUOUS
 62
     7
 10
-246.18472
 20
141.75334
 11
-246.58473
 21
142.57779
  0
LINE
  8
0
  6
CONTINUOUS
 62
     7
 10
-246.18471
 20
141.75334
 11
-242.98651
 21
138.55513
  0
LINE
  8
0
  6
CONTINUOUS
 62
     7
 10
-226.467
 20
133.10257
 11
-218.90244
 21
133.10257
  0
LINE
  8
0
  6
CONTINUOUS
 62
     7
 10
-199.18472
 20
141.75333
 11
-202.38293
 21
138.55511
  0
LINE
  8
0
  6
CONTINUOUS
 62
     7
 10
-199.18475
 20
141.75331
 11
-198.78474
 21
142.57779
  0
LINE
  8
0
  6
CONTINUOUS
 62
     7
 10
-198.78473
 20
151.57777
 11
-198.78473
 21
142.57777
  0
LINE
  8
0
  6
CONTINUOUS
 62
     7
 10
-217.18472
 20
136.07774
 11
-217.18472
 21
151.57777
  0
LINE
  8
0
  6
CONTINUOUS
 62
     7
 10
-226.467
 20
142.34016
 11
-218.90245
 21
142.34016
  0
LINE
  8
0
  6
CONTINUOUS
 62
     7
 10
-228.18472
 20
136.07776
 11
-228.18472
 21
151.57777
  0
LINE
  8
0
  6
CONTINUOUS
 62
     7
 10
-244.17311
 20
163.41383
 11
-230.02658
 21
163.85591
  0
LINE
  8
0
  6
CONTINUOUS
 62
     7
 10
-230.0266
 20
163.85591
 11
-228.18472
 21
165.69778
  0
LINE
  8
0
  6
CONTINUOUS
 62
     7
 10
-244.17311
 20
163.41383
 11
-244.17311
 21
151.57777
  0
LINE
  8
0
  6
CONTINUOUS
 62
     7
 10
-242.98651
 20
164.60042
 11
-242.98651
 21
151.57777
  0
LINE
  8
0
  6
CONTINUOUS
 62
     7
 10
-230.0266
 20
165.00542
 11
-230.0266
 21
151.57777
  0
LINE
  8
0
  6
CONTINUOUS
 62
     7
 10
-242.98653
 20
138.55515
 11
-228.84
 21
138.11307
  0
LINE
  8
0
  6
CONTINUOUS
 62
     7
 10
-226.46704
 20
133.10257
 11
-228.18472
 21
136.07767
  0
LINE
  8
0
  6
CONTINUOUS
 62
     7
 10
-244.17311
 20
139.74173
 11
-244.17311
 21
151.57777
  0
LINE
  8
0
  6
CONTINUOUS
 62
     7
 10
-242.98651
 20
138.55513
 11
-242.98651
 21
151.57777
  0
LINE
  8
0
  6
CONTINUOUS
 62
     7
 10
-230.0266
 20
138.15015
 11
-230.0266
 21
151.57777
  0
LINE
  8
0
  6
CONTINUOUS
 62
     7
 10
-244.17311
 20
139.74173
 11
-230.0266
 21
139.29965
  0
LINE
  8
0
  6
CONTINUOUS
 62
     7
 10
-230.02658
 20
139.29964
 11
-228.18472
 21
137.45776
  0
LINE
  8
0
  6
CONTINUOUS
 62
     7
 10
-202.38292
 20
164.60042
 11
-216.52945
 21
165.0425
  0
LINE
  8
0
  6
CONTINUOUS
 62
     7
 10
-218.90239
 20
170.05298
 11
-217.18472
 21
167.07788
  0
LINE
  8
0
  6
CONTINUOUS
 62
     7
 10
-201.19633
 20
163.41383
 11
-201.19633
 21
151.57777
  0
LINE
  8
0
  6
CONTINUOUS
 62
     7
 10
-202.38292
 20
164.60042
 11
-202.38292
 21
151.57777
  0
LINE
  8
0
  6
CONTINUOUS
 62
     7
 10
-201.19633
 20
139.74173
 11
-215.34285
 21
139.29965
  0
LINE
  8
0
  6
CONTINUOUS
 62
     7
 10
-202.38292
 20
138.55513
 11
-202.38292
 21
151.57777
  0
LINE
  8
0
  6
CONTINUOUS
 62
     7
 10
-201.19633
 20
139.74173
 11
-201.19633
 21
151.57777
  0
LINE
  8
0
  6
CONTINUOUS
 62
     7
 10
-202.38293
 20
138.55515
 11
-216.52943
 21
138.11307
  0
LINE
  8
0
  6
CONTINUOUS
 62
     7
 10
-218.90239
 20
133.10257
 11
-217.18472
 21
136.07767
  0
LINE
  8
0
  6
CONTINUOUS
 62
     7
 10
-215.34285
 20
138.15015
 11
-215.34285
 21
151.57777
  0
LINE
  8
0
  6
CONTINUOUS
 62
     7
 10
-215.34285
 20
165.00542
 11
-215.34285
 21
151.57777
  0
LINE
  8
0
  6
CONTINUOUS
 62
     7
 10
-215.34285
 20
139.29965
 11
-217.18472
 21
137.45778
  0
LINE
  8
0
  6
CONTINUOUS
 62
     7
 10
-201.19633
 20
163.41382
 11
-215.34285
 21
163.8559
  0
LINE
  8
0
  6
CONTINUOUS
 62
     7
 10
-215.34285
 20
163.8559
 11
-217.18471
 21
165.69777
  0
LINE
  8
0
  6
CONTINUOUS
 62
     7
 10
-296.23492
 20
166.58888
 11
-289.13452
 21
166.58888
  0
LINE
  8
0
  6
CONTINUOUS
 62
     7
 10
-296.23495
 20
166.58888
 11
-297.68472
 21
164.0778
  0
LINE
  8
0
  6
CONTINUOUS
 62
     7
 10
-297.68472
 20
164.07777
 11
-297.68472
 21
151.57777
  0
LINE
  8
0
  6
CONTINUOUS
 62
     7
 10
-296.23492
 20
159.08333
 11
-289.13449
 21
159.08333
  0
LINE
  8
0
  6
CONTINUOUS
 62
     7
 10
-287.68472
 20
164.07777
 11
-287.68472
 21
151.57777
  0
LINE
  8
0
  6
CONTINUOUS
 62
     7
 10
-310.58792
 20
161.89705
 11
-298.34277
 21
162.27972
  0
LINE
  8
0
  6
CONTINUOUS
 62
     7
 10
-313.68469
 20
158.80026
 11
-310.58792
 21
161.89703
  0
LINE
  8
0
  6
CONTINUOUS
 62
     7
 10
-314.08469
 20
158.07777
 11
-313.68478
 21
158.80019
  0
LINE
  8
0
  6
CONTINUOUS
 62
     7
 10
-314.08472
 20
158.07777
 11
-314.08472
 21
151.57777
  0
LINE
  8
0
  6
CONTINUOUS
 62
     7
 10
-271.68475
 20
158.80026
 11
-274.78149
 21
161.89703
  0
LINE
  8
0
  6
CONTINUOUS
 62
     7
 10
-271.68472
 20
158.80025
 11
-271.28473
 21
158.07777
  0
LINE
  8
0
  6
CONTINUOUS
 62
     7
 10
-271.28473
 20
158.07777
 11
-271.28473
 21
151.57777
  0
LINE
  8
0
  6
CENTER
 62
     7
 10
-316.68472
 20
151.57777
 11
-268.68472
 21
151.57777
  0
LINE
  8
0
  6
CONTINUOUS
 62
     7
 10
-296.23492
 20
136.56667
 11
-289.13452
 21
136.56667
  0
LINE
  8
0
  6
CONTINUOUS
 62
     7
 10
-297.68472
 20
139.07777
 11
-297.68472
 21
151.57777
  0
LINE
  8
0
  6
CONTINUOUS
 62
     7
 10
-296.23492
 20
144.07222
 11
-289.13449
 21
144.07222
  0
LINE
  8
0
  6
CONTINUOUS
 62
     7
 10
-287.68472
 20
139.07777
 11
-287.68472
 21
151.57777
  0
LINE
  8
0
  6
CONTINUOUS
 62
     7
 10
-313.68469
 20
144.35529
 11
-310.58792
 21
141.25851
  0
LINE
  8
0
  6
CONTINUOUS
 62
     7
 10
-314.08472
 20
145.07776
 11
-313.68478
 21
144.35536
  0
LINE
  8
0
  6
CONTINUOUS
 62
     7
 10
-314.08472
 20
145.07777
 11
-314.08472
 21
151.57777
  0
LINE
  8
0
  6
CONTINUOUS
 62
     7
 10
-271.68472
 20
144.35529
 11
-274.78152
 21
141.25851
  0
LINE
  8
0
  6
CONTINUOUS
 62
     7
 10
-271.68472
 20
144.3553
 11
-271.28473
 21
145.07777
  0
LINE
  8
0
  6
CONTINUOUS
 62
     7
 10
-271.28473
 20
145.07777
 11
-271.28473
 21
151.57777
  0
LINE
  8
0
  6
CONTINUOUS
 62
     7
 10
-311.77451
 20
160.71048
 11
-299.52939
 21
161.09314
  0
LINE
  8
0
  6
CONTINUOUS
 62
     7
 10
-299.52936
 20
161.09312
 11
-297.68472
 21
162.93777
  0
LINE
  8
0
  6
CONTINUOUS
 62
     7
 10
-311.77451
 20
160.71046
 11
-311.77451
 21
151.57777
  0
LINE
  8
0
  6
CONTINUOUS
 62
     7
 10
-310.58792
 20
161.89705
 11
-310.58792
 21
151.57777
  0
LINE
  8
0
  6
CONTINUOUS
 62
     7
 10
-299.52936
 20
162.24263
 11
-299.52936
 21
151.57777
  0
LINE
  8
0
  6
CONTINUOUS
 62
     7
 10
-296.23495
 20
136.56668
 11
-297.68472
 21
139.07774
  0
LINE
  8
0
  6
CONTINUOUS
 62
     7
 10
-310.58792
 20
141.2585
 11
-298.3428
 21
140.87584
  0
LINE
  8
0
  6
CONTINUOUS
 62
     7
 10
-299.52939
 20
142.06242
 11
-297.68472
 21
140.21777
  0
LINE
  8
0
  6
CONTINUOUS
 62
     7
 10
-311.77451
 20
142.44508
 11
-311.77451
 21
151.57777
  0
LINE
  8
0
  6
CONTINUOUS
 62
     7
 10
-311.77451
 20
142.44508
 11
-299.52936
 21
142.06242
  0
LINE
  8
0
  6
CONTINUOUS
 62
     7
 10
-310.58792
 20
141.2585
 11
-310.58792
 21
151.57777
  0
LINE
  8
0
  6
CONTINUOUS
 62
     7
 10
-299.52936
 20
140.91292
 11
-299.52936
 21
151.57777
  0
LINE
  8
0
  6
CONTINUOUS
 62
     7
 10
-289.13449
 20
166.58887
 11
-287.68472
 21
164.0778
  0
LINE
  8
0
  6
CONTINUOUS
 62
     7
 10
-274.78152
 20
161.89705
 11
-287.02667
 21
162.27971
  0
LINE
  8
0
  6
CONTINUOUS
 62
     7
 10
-289.13449
 20
136.56667
 11
-287.68472
 21
139.07774
  0
LINE
  8
0
  6
CONTINUOUS
 62
     7
 10
-271.68472
 20
144.35529
 11
-274.78149
 21
141.25853
  0
LINE
  8
0
  6
CONTINUOUS
 62
     7
 10
-285.84009
 20
140.91292
 11
-285.84009
 21
151.57777
  0
LINE
  8
0
  6
CONTINUOUS
 62
     7
 10
-274.78152
 20
141.2585
 11
-287.02664
 21
140.87584
  0
LINE
  8
0
  6
CONTINUOUS
 62
     7
 10
-274.78152
 20
141.2585
 11
-274.78152
 21
151.57777
  0
LINE
  8
0
  6
CONTINUOUS
 62
     7
 10
-285.84009
 20
161.09314
 11
-287.68472
 21
162.93777
  0
LINE
  8
0
  6
CONTINUOUS
 62
     7
 10
-273.59494
 20
160.71046
 11
-273.59494
 21
151.57777
  0
LINE
  8
0
  6
CONTINUOUS
 62
     7
 10
-273.59494
 20
160.71048
 11
-285.84006
 21
161.09314
  0
LINE
  8
0
  6
CONTINUOUS
 62
     7
 10
-273.59494
 20
142.44508
 11
-285.84009
 21
142.06242
  0
LINE
  8
0
  6
CONTINUOUS
 62
     7
 10
-274.78152
 20
161.89705
 11
-274.78152
 21
151.57777
  0
LINE
  8
0
  6
CONTINUOUS
 62
     7
 10
-273.59494
 20
142.44508
 11
-273.59494
 21
151.57777
  0
LINE
  8
0
  6
CONTINUOUS
 62
     7
 10
-285.84009
 20
162.24263
 11
-285.84009
 21
151.57777
  0
LINE
  8
0
  6
CONTINUOUS
 62
     7
 10
-287.68472
 20
139.07777
 11
-287.68472
 21
151.57777
  0
LINE
  8
0
  6
CONTINUOUS
 62
     7
 10
-285.84006
 20
142.06242
 11
-287.68472
 21
140.21777
  0
POLYLINE
  8
0
  6
CONTINUOUS
 62
     7
 66
     1
 10
0
 20
0
  0
VERTEX
  8
0
  6
CONTINUOUS
 62
     7
 10
41.197212
 20
-9.9722223
 42
-0.039945338
  0
VERTEX
  8
0
  6
CONTINUOUS
 62
     7
 10
38.668992
 20
5.266277
 42
-0.042206051
  0
VERTEX
  8
0
  6
CONTINUOUS
 62
     7
 10
38.668992
 20
20.711262
 42
-0.039945321
  0
VERTEX
  8
0
  6
CONTINUOUS
 62
     7
 10
41.197212
 20
35.94976
 42
0
  0
SEQEND
  8
0
  0
POLYLINE
  8
0
  6
CONTINUOUS
 62
     7
 66
     1
 10
0
 20
0
  0
VERTEX
  8
0
  6
CONTINUOUS
 62
     7
 10
41.197212
 20
35.94976
 42
-0.081978589
  0
VERTEX
  8
0
  6
CONTINUOUS
 62
     7
 10
38.705768
 20
42.136663
 42
-0.10912481
  0
VERTEX
  8
0
  6
CONTINUOUS
 62
     7
 10
38.70578
 20
48.784431
 42
-0.081977807
  0
VERTEX
  8
0
  6
CONTINUOUS
 62
     7
 10
41.197212
 20
54.971275
 42
0
  0
SEQEND
  8
0
  0
POLYLINE
  8
0
  6
CONTINUOUS
 62
     7
 66
     1
 10
0
 20
0
  0
VERTEX
  8
0
  6
CONTINUOUS
 62
     7
 10
41.197212
 20
-9.9722834
 42
0.039945338
  0
VERTEX
  8
0
  6
CONTINUOUS
 62
     7
 10
38.668991
 20
-25.210782
 42
0.042206052
  0
VERTEX
  8
0
  6
CONTINUOUS
 62
     7
 10
38.668992
 20
-40.655766
 42
0.039945321
  0
VERTEX
  8
0
  6
CONTINUOUS
 62
     7
 10
41.197212
 20
-55.894264
 42
0
  0
SEQEND
  8
0
  0
POLYLINE
  8
0
  6
CONTINUOUS
 62
     7
 66
     1
 10
0
 20
0
  0
VERTEX
  8
0
  6
CONTINUOUS
 62
     7
 10
41.197212
 20
-55.894264
 42
0.081978589
  0
VERTEX
  8
0
  6
CONTINUOUS
 62
     7
 10
38.705768
 20
-62.081167
 42
0.10912481
  0
VERTEX
  8
0
  6
CONTINUOUS
 62
     7
 10
38.70578
 20
-68.728935
 42
0.081977807
  0
VERTEX
  8
0
  6
CONTINUOUS
 62
     7
 10
41.197212
 20
-74.915779
 42
0
  0
SEQEND
  8
0
  0
POLYLINE
  8
0
  6
CONTINUOUS
 62
     7
 66
     1
 10
0
 20
0
  0
VERTEX
  8
0
  6
CONTINUOUS
 62
     7
 10
53.488899
 20
-9.9722223
 42
0.039945338
  0
VERTEX
  8
0
  6
CONTINUOUS
 62
     7
 10
56.01712
 20
5.266277
 42
0.042206051
  0
VERTEX
  8
0
  6
CONTINUOUS
 62
     7
 10
56.01712
 20
20.711262
 42
0.039945321
  0
VERTEX
  8
0
  6
CONTINUOUS
 62
     7
 10
53.488899
 20
35.94976
 42
0
  0
SEQEND
  8
0
  0
POLYLINE
  8
0
  6
CONTINUOUS
 62
     7
 66
     1
 10
0
 20
0
  0
VERTEX
  8
0
  6
CONTINUOUS
 62
     7
 10
53.488899
 20
35.94976
 42
0.081978589
  0
VERTEX
  8
0
  6
CONTINUOUS
 62
     7
 10
55.980343
 20
42.136663
 42
0.10912481
  0
VERTEX
  8
0
  6
CONTINUOUS
 62
     7
 10
55.980332
 20
48.784431
 42
0.081977807
  0
VERTEX
  8
0
  6
CONTINUOUS
 62
     7
 10
53.488899
 20
54.971275
 42
0
  0
SEQEND
  8
0
  0
POLYLINE
  8
0
  6
CONTINUOUS
 62
     7
 66
     1
 10
0
 20
0
  0
VERTEX
  8
0
  6
CONTINUOUS
 62
     7
 10
53.488899
 20
-9.9722834
 42
-0.039945338
  0
VERTEX
  8
0
  6
CONTINUOUS
 62
     7
 10
56.01712
 20
-25.210782
 42
-0.042206052
  0
VERTEX
  8
0
  6
CONTINUOUS
 62
     7
 10
56.01712
 20
-40.655766
 42
-0.039945321
  0
VERTEX
  8
0
  6
CONTINUOUS
 62
     7
 10
53.488899
 20
-55.894264
 42
0
  0
SEQEND
  8
0
  0
POLYLINE
  8
0
  6
CONTINUOUS
 62
     7
 66
     1
 10
0
 20
0
  0
VERTEX
  8
0
  6
CONTINUOUS
 62
     7
 10
53.488899
 20
-55.894264
 42
-0.081978589
  0
VERTEX
  8
0
  6
CONTINUOUS
 62
     7
 10
55.980343
 20
-62.081167
 42
-0.10912481
  0
VERTEX
  8
0
  6
CONTINUOUS
 62
     7
 10
55.980332
 20
-68.728935
 42
-0.081977807
  0
VERTEX
  8
0
  6
CONTINUOUS
 62
     7
 10
53.488899
 20
-74.915779
 42
0
  0
SEQEND
  8
0
  0
POLYLINE
  8
0
  6
CONTINUOUS
 62
     7
 66
     1
 10
0
 20
0
  0
VERTEX
  8
0
  6
CONTINUOUS
 62
     7
 10
-88.897408
 20
-9.9721918
 42
-0.039945253
  0
VERTEX
  8
0
  6
CONTINUOUS
 62
     7
 10
-90.898912
 20
2.0916211
 42
-0.042205987
  0
VERTEX
  8
0
  6
CONTINUOUS
 62
     7
 10
-90.898912
 20
14.318902
 42
-0.039945261
  0
VERTEX
  8
0
  6
CONTINUOUS
 62
     7
 10
-88.897408
 20
26.382713
 42
0
  0
SEQEND
  8
0
  0
POLYLINE
  8
0
  6
CONTINUOUS
 62
     7
 66
     1
 10
0
 20
0
  0
VERTEX
  8
0
  6
CONTINUOUS
 62
     7
 10
-88.897408
 20
26.382713
 42
-0.081978527
  0
VERTEX
  8
0
  6
CONTINUOUS
 62
     7
 10
-90.869798
 20
31.280679
 42
-0.10912448
  0
VERTEX
  8
0
  6
CONTINUOUS
 62
     7
 10
-90.869789
 20
36.543491
 42
-0.081977803
  0
VERTEX
  8
0
  6
CONTINUOUS
 62
     7
 10
-88.897408
 20
41.441414
 42
0
  0
SEQEND
  8
0
  0
POLYLINE
  8
0
  6
CONTINUOUS
 62
     7
 66
     1
 10
0
 20
0
  0
VERTEX
  8
0
  6
CONTINUOUS
 62
     7
 10
-88.897408
 20
-9.9722223
 42
0.039945253
  0
VERTEX
  8
0
  6
CONTINUOUS
 62
     7
 10
-90.898912
 20
-22.036035
 42
0.042205988
  0
VERTEX
  8
0
  6
CONTINUOUS
 62
     7
 10
-90.898912
 20
-34.263315
 42
0.03994526
  0
VERTEX
  8
0
  6
CONTINUOUS
 62
     7
 10
-88.897408
 20
-46.327126
 42
0
  0
SEQEND
  8
0
  0
POLYLINE
  8
0
  6
CONTINUOUS
 62
     7
 66
     1
 10
0
 20
0
  0
VERTEX
  8
0
  6
CONTINUOUS
 62
     7
 10
-88.897408
 20
-46.327126
 42
0.081978527
  0
VERTEX
  8
0
  6
CONTINUOUS
 62
     7
 10
-90.869798
 20
-51.225091
 42
0.10912448
  0
VERTEX
  8
0
  6
CONTINUOUS
 62
     7
 10
-90.869789
 20
-56.487903
 42
0.081977803
  0
VERTEX
  8
0
  6
CONTINUOUS
 62
     7
 10
-88.897408
 20
-61.385826
 42
0
  0
SEQEND
  8
0
  0
POLYLINE
  8
0
  6
CONTINUOUS
 62
     7
 66
     1
 10
0
 20
0
  0
VERTEX
  8
0
  6
CONTINUOUS
 62
     7
 10
-76.416481
 20
-9.9721918
 42
0.039945253
  0
VERTEX
  8
0
  6
CONTINUOUS
 62
     7
 10
-74.414976
 20
2.0916211
 42
0.042205987
  0
VERTEX
  8
0
  6
CONTINUOUS
 62
     7
 10
-74.414977
 20
14.318902
 42
0.039945261
  0
VERTEX
  8
0
  6
CONTINUOUS
 62
     7
 10
-76.416481
 20
26.382713
 42
0
  0
SEQEND
  8
0
  0
POLYLINE
  8
0
  6
CONTINUOUS
 62
     7
 66
     1
 10
0
 20
0
  0
VERTEX
  8
0
  6
CONTINUOUS
 62
     7
 10
-76.416481
 20
26.382713
 42
0.081978527
  0
VERTEX
  8
0
  6
CONTINUOUS
 62
     7
 10
-74.444091
 20
31.280679
 42
0.10912448
  0
VERTEX
  8
0
  6
CONTINUOUS
 62
     7
 10
-74.444099
 20
36.543491
 42
0.081977803
  0
VERTEX
  8
0
  6
CONTINUOUS
 62
     7
 10
-76.416481
 20
41.441414
 42
0
  0
SEQEND
  8
0
  0
POLYLINE
  8
0
  6
CONTINUOUS
 62
     7
 66
     1
 10
0
 20
0
  0
VERTEX
  8
0
  6
CONTINUOUS
 62
     7
 10
-76.416481
 20
-9.9722223
 42
-0.039945253
  0
VERTEX
  8
0
  6
CONTINUOUS
 62
     7
 10
-74.414976
 20
-22.036035
 42
-0.042205988
  0
VERTEX
  8
0
  6
CONTINUOUS
 62
     7
 10
-74.414977
 20
-34.263315
 42
-0.03994526
  0
VERTEX
  8
0
  6
CONTINUOUS
 62
     7
 10
-76.416481
 20
-46.327126
 42
0
  0
SEQEND
  8
0
  0
POLYLINE
  8
0
  6
CONTINUOUS
 62
     7
 66
     1
 10
0
 20
0
  0
VERTEX
  8
0
  6
CONTINUOUS
 62
     7
 10
-76.416481
 20
-46.327126
 42
-0.081978527
  0
VERTEX
  8
0
  6
CONTINUOUS
 62
     7
 10
-74.444091
 20
-51.225091
 42
-0.10912448
  0
VERTEX
  8
0
  6
CONTINUOUS
 62
     7
 10
-74.444099
 20
-56.487903
 42
-0.081977803
  0
VERTEX
  8
0
  6
CONTINUOUS
 62
     7
 10
-76.416481
 20
-61.385826
 42
0
  0
SEQEND
  8
0
  0
POLYLINE
  8
0
  6
CONTINUOUS
 62
     7
 66
     1
 10
0
 20
0
  0
VERTEX
  8
0
  6
CONTINUOUS
 62
     7
 10
-204.25418
 20
20.642464
 42
0.039945292
  0
VERTEX
  8
0
  6
CONTINUOUS
 62
     7
 10
-205.93966
 20
10.483454
 42
0.042205992
  0
VERTEX
  8
0
  6
CONTINUOUS
 62
     7
 10
-205.93966
 20
0.18679144
 42
0.039945309
  0
VERTEX
  8
0
  6
CONTINUOUS
 62
     7
 10
-204.25418
 20
-9.9722223
 42
0
  0
SEQEND
  8
0
  0
POLYLINE
  8
0
  6
CONTINUOUS
 62
     7
 66
     1
 10
0
 20
0
  0
VERTEX
  8
0
  6
CONTINUOUS
 62
     7
 10
-204.25418
 20
20.642464
 42
-0.081978572
  0
VERTEX
  8
0
  6
CONTINUOUS
 62
     7
 10
-205.91514
 20
24.767067
 42
-0.10912471
  0
VERTEX
  8
0
  6
CONTINUOUS
 62
     7
 10
-205.91514
 20
29.198912
 42
-0.081977817
  0
VERTEX
  8
0
  6
CONTINUOUS
 62
     7
 10
-204.25418
 20
33.323479
 42
0
  0
SEQEND
  8
0
  0
POLYLINE
  8
0
  6
CONTINUOUS
 62
     7
 66
     1
 10
0
 20
0
  0
VERTEX
  8
0
  6
CONTINUOUS
 62
     7
 10
-204.25418
 20
-40.586906
 42
-0.039945291
  0
VERTEX
  8
0
  6
CONTINUOUS
 62
     7
 10
-205.93966
 20
-30.427897
 42
-0.042205993
  0
VERTEX
  8
0
  6
CONTINUOUS
 62
     7
 10
-205.93966
 20
-20.131235
 42
-0.039945309
  0
VERTEX
  8
0
  6
CONTINUOUS
 62
     7
 10
-204.25418
 20
-9.9722223
 42
0
  0
SEQEND
  8
0
  0
POLYLINE
  8
0
  6
CONTINUOUS
 62
     7
 66
     1
 10
0
 20
0
  0
VERTEX
  8
0
  6
CONTINUOUS
 62
     7
 10
-204.25418
 20
-40.586906
 42
0.081978572
  0
VERTEX
  8
0
  6
CONTINUOUS
 62
     7
 10
-205.91514
 20
-44.71151
 42
0.10912471
  0
VERTEX
  8
0
  6
CONTINUOUS
 62
     7
 10
-205.91514
 20
-49.143355
 42
0.081977817
  0
VERTEX
  8
0
  6
CONTINUOUS
 62
     7
 10
-204.25418
 20
-53.267921
 42
0
  0
SEQEND
  8
0
  0
POLYLINE
  8
0
  6
CONTINUOUS
 62
     7
 66
     1
 10
0
 20
0
  0
VERTEX
  8
0
  6
CONTINUOUS
 62
     7
 10
-191.05972
 20
20.642464
 42
-0.039945292
  0
VERTEX
  8
0
  6
CONTINUOUS
 62
     7
 10
-189.37424
 20
10.483454
 42
-0.042205992
  0
VERTEX
  8
0
  6
CONTINUOUS
 62
     7
 10
-189.37424
 20
0.18679144
 42
-0.039945309
  0
VERTEX
  8
0
  6
CONTINUOUS
 62
     7
 10
-191.05972
 20
-9.9722223
 42
0
  0
SEQEND
  8
0
  0
POLYLINE
  8
0
  6
CONTINUOUS
 62
     7
 66
     1
 10
0
 20
0
  0
VERTEX
  8
0
  6
CONTINUOUS
 62
     7
 10
-191.05972
 20
20.642464
 42
0.081978572
  0
VERTEX
  8
0
  6
CONTINUOUS
 62
     7
 10
-189.39876
 20
24.767067
 42
0.10912471
  0
VERTEX
  8
0
  6
CONTINUOUS
 62
     7
 10
-189.39877
 20
29.198912
 42
0.081977817
  0
VERTEX
  8
0
  6
CONTINUOUS
 62
     7
 10
-191.05972
 20
33.323479
 42
0
  0
SEQEND
  8
0
  0
POLYLINE
  8
0
  6
CONTINUOUS
 62
     7
 66
     1
 10
0
 20
0
  0
VERTEX
  8
0
  6
CONTINUOUS
 62
     7
 10
-191.05972
 20
-40.586906
 42
0.039945291
  0
VERTEX
  8
0
  6
CONTINUOUS
 62
     7
 10
-189.37424
 20
-30.427897
 42
0.042205993
  0
VERTEX
  8
0
  6
CONTINUOUS
 62
     7
 10
-189.37424
 20
-20.131235
 42
0.039945309
  0
VERTEX
  8
0
  6
CONTINUOUS
 62
     7
 10
-191.05972
 20
-9.9722223
 42
0
  0
SEQEND
  8
0
  0
POLYLINE
  8
0
  6
CONTINUOUS
 62
     7
 66
     1
 10
0
 20
0
  0
VERTEX
  8
0
  6
CONTINUOUS
 62
     7
 10
-191.05972
 20
-40.586906
 42
-0.081978572
  0
VERTEX
  8
0
  6
CONTINUOUS
 62
     7
 10
-189.39876
 20
-44.71151
 42
-0.10912471
  0
VERTEX
  8
0
  6
CONTINUOUS
 62
     7
 10
-189.39877
 20
-49.143355
 42
-0.081977817
  0
VERTEX
  8
0
  6
CONTINUOUS
 62
     7
 10
-191.05972
 20
-53.267921
 42
0
  0
SEQEND
  8
0
  0
POLYLINE
  8
0
  6
CONTINUOUS
 62
     7
 66
     1
 10
0
 20
0
  0
VERTEX
  8
0
  6
CONTINUOUS
 62
     7
 10
-309.15851
 20
24.123161
 42
0.081977126
  0
VERTEX
  8
0
  6
CONTINUOUS
 62
     7
 10
-310.46652
 20
20.875026
 42
0.10912747
  0
VERTEX
  8
0
  6
CONTINUOUS
 62
     7
 10
-310.46651
 20
17.3849
 42
0.081975648
  0
VERTEX
  8
0
  6
CONTINUOUS
 62
     7
 10
-309.15851
 20
14.136832
 42
0
  0
SEQEND
  8
0
  0
POLYLINE
  8
0
  6
CONTINUOUS
 62
     7
 66
     1
 10
0
 20
0
  0
VERTEX
  8
0
  6
CONTINUOUS
 62
     7
 10
-309.15851
 20
14.136832
 42
0.039940271
  0
VERTEX
  8
0
  6
CONTINUOUS
 62
     7
 10
-310.48576
 20
6.1375139
 42
0.042211383
  0
VERTEX
  8
0
  6
CONTINUOUS
 62
     7
 10
-310.48583
 20
-1.9719796
 42
0.039944931
  0
VERTEX
  8
0
  6
CONTINUOUS
 62
     7
 10
-309.15851
 20
-9.9722223
 42
0
  0
SEQEND
  8
0
  0
POLYLINE
  8
0
  6
CONTINUOUS
 62
     7
 66
     1
 10
0
 20
0
  0
VERTEX
  8
0
  6
CONTINUOUS
 62
     7
 10
-296.15536
 20
14.136832
 42
-0.039941113
  0
VERTEX
  8
0
  6
CONTINUOUS
 62
     7
 10
-294.82814
 20
6.1375138
 42
-0.042209429
  0
VERTEX
  8
0
  6
CONTINUOUS
 62
     7
 10
-294.82806
 20
-1.9719788
 42
-0.039945776
  0
VERTEX
  8
0
  6
CONTINUOUS
 62
     7
 10
-296.15536
 20
-9.9722223
 42
0
  0
SEQEND
  8
0
  0
POLYLINE
  8
0
  6
CONTINUOUS
 62
     7
 66
     1
 10
0
 20
0
  0
VERTEX
  8
0
  6
CONTINUOUS
 62
     7
 10
-296.15536
 20
24.123161
 42
-0.081979148
  0
VERTEX
  8
0
  6
CONTINUOUS
 62
     7
 10
-294.84737
 20
20.875024
 42
-0.10912282
  0
VERTEX
  8
0
  6
CONTINUOUS
 62
     7
 10
-294.84738
 20
17.384902
 42
-0.081977671
  0
VERTEX
  8
0
  6
CONTINUOUS
 62
     7
 10
-296.15536
 20
14.136832
 42
0
  0
SEQEND
  8
0
  0
POLYLINE
  8
0
  6
CONTINUOUS
 62
     7
 66
     1
 10
0
 20
0
  0
VERTEX
  8
0
  6
CONTINUOUS
 62
     7
 10
-309.15851
 20
-34.081245
 42
-0.03994027
  0
VERTEX
  8
0
  6
CONTINUOUS
 62
     7
 10
-310.48576
 20
-26.081927
 42
-0.042211386
  0
VERTEX
  8
0
  6
CONTINUOUS
 62
     7
 10
-310.48583
 20
-17.972434
 42
-0.039944929
  0
VERTEX
  8
0
  6
CONTINUOUS
 62
     7
 10
-309.15851
 20
-9.9721918
 42
0
  0
SEQEND
  8
0
  0
POLYLINE
  8
0
  6
CONTINUOUS
 62
     7
 66
     1
 10
0
 20
0
  0
VERTEX
  8
0
  6
CONTINUOUS
 62
     7
 10
-296.15536
 20
-34.081245
 42
0.039941111
  0
VERTEX
  8
0
  6
CONTINUOUS
 62
     7
 10
-294.82814
 20
-26.081927
 42
0.042209432
  0
VERTEX
  8
0
  6
CONTINUOUS
 62
     7
 10
-294.82806
 20
-17.972435
 42
0.039945774
  0
VERTEX
  8
0
  6
CONTINUOUS
 62
     7
 10
-296.15536
 20
-9.9721918
 42
0
  0
SEQEND
  8
0
  0
POLYLINE
  8
0
  6
CONTINUOUS
 62
     7
 66
     1
 10
0
 20
0
  0
VERTEX
  8
0
  6
CONTINUOUS
 62
     7
 10
-309.15851
 20
-44.067574
 42
-0.081977118
  0
VERTEX
  8
0
  6
CONTINUOUS
 62
     7
 10
-310.46652
 20
-40.819438
 42
-0.10912749
  0
VERTEX
  8
0
  6
CONTINUOUS
 62
     7
 10
-310.46651
 20
-37.329312
 42
-0.081975638
  0
VERTEX
  8
0
  6
CONTINUOUS
 62
     7
 10
-309.15851
 20
-34.081245
 42
0
  0
SEQEND
  8
0
  0
POLYLINE
  8
0
  6
CONTINUOUS
 62
     7
 66
     1
 10
0
 20
0
  0
VERTEX
  8
0
  6
CONTINUOUS
 62
     7
 10
-296.15536
 20
-44.067574
 42
0.08197914
  0
VERTEX
  8
0
  6
CONTINUOUS
 62
     7
 10
-294.84737
 20
-40.819437
 42
0.10912284
  0
VERTEX
  8
0
  6
CONTINUOUS
 62
     7
 10
-294.84738
 20
-37.329314
 42
0.081977661
  0
VERTEX
  8
0
  6
CONTINUOUS
 62
     7
 10
-296.15536
 20
-34.081245
 42
0
  0
SEQEND
  8
0
  0
POLYLINE
  8
0
  6
CONTINUOUS
 62
     7
 66
     1
 10
0
 20
0
  0
VERTEX
  8
0
  6
CONTINUOUS
 62
     7
 10
26.326385
 20
167.16624
 42
0.042644432
  0
VERTEX
  8
0
  6
CONTINUOUS
 62
     7
 10
27.853268
 20
169.54638
 42
0.051920955
  0
VERTEX
  8
0
  6
CONTINUOUS
 62
     7
 10
28.910606
 20
172.16736
 42
0.068801695
  0
VERTEX
  8
0
  6
CONTINUOUS
 62
     7
 10
29.315277
 20
174.96046
 42
0
  0
SEQEND
  8
0
  0
POLYLINE
  8
0
  6
CONTINUOUS
 62
     7
 66
     1
 10
0
 20
0
  0
VERTEX
  8
0
  6
CONTINUOUS
 62
     7
 10
18.304169
 20
167.16624
 42
-0.042644465
  0
VERTEX
  8
0
  6
CONTINUOUS
 62
     7
 10
16.777287
 20
169.54638
 42
-0.051920959
  0
VERTEX
  8
0
  6
CONTINUOUS
 62
     7
 10
15.719949
 20
172.16736
 42
-0.068801657
  0
VERTEX
  8
0
  6
CONTINUOUS
 62
     7
 10
15.315278
 20
174.96046
 42
0
  0
SEQEND
  8
0
  0
POLYLINE
  8
0
  6
CONTINUOUS
 62
     7
 66
     1
 10
0
 20
0
  0
VERTEX
  8
0
  6
CONTINUOUS
 62
     7
 10
15.315278
 20
151.57777
 42
-0.03276933
  0
VERTEX
  8
0
  6
CONTINUOUS
 62
     7
 10
15.668505
 20
156.88248
 42
-0.030230666
  0
VERTEX
  8
0
  6
CONTINUOUS
 62
     7
 10
16.684531
 20
162.10154
 42
-0.028523962
  0
VERTEX
  8
0
  6
CONTINUOUS
 62
     7
 10
18.304169
 20
167.16624
 42
0
  0
SEQEND
  8
0
  0
POLYLINE
  8
0
  6
CONTINUOUS
 62
     7
 66
     1
 10
0
 20
0
  0
VERTEX
  8
0
  6
CONTINUOUS
 62
     7
 10
29.315277
 20
151.57777
 42
0.03276935
  0
VERTEX
  8
0
  6
CONTINUOUS
 62
     7
 10
28.96205
 20
156.88248
 42
0.030230665
  0
VERTEX
  8
0
  6
CONTINUOUS
 62
     7
 10
27.946024
 20
162.10154
 42
0.028523943
  0
VERTEX
  8
0
  6
CONTINUOUS
 62
     7
 10
26.326385
 20
167.16624
 42
0
  0
SEQEND
  8
0
  0
POLYLINE
  8
0
  6
CONTINUOUS
 62
     7
 66
     1
 10
0
 20
0
  0
VERTEX
  8
0
  6
CONTINUOUS
 62
     7
 10
26.326385
 20
135.9893
 42
-0.042644432
  0
VERTEX
  8
0
  6
CONTINUOUS
 62
     7
 10
27.853268
 20
133.60917
 42
-0.051920955
  0
VERTEX
  8
0
  6
CONTINUOUS
 62
     7
 10
28.910606
 20
130.98819
 42
-0.068801695
  0
VERTEX
  8
0
  6
CONTINUOUS
 62
     7
 10
29.315277
 20
128.19508
 42
0
  0
SEQEND
  8
0
  0
POLYLINE
  8
0
  6
CONTINUOUS
 62
     7
 66
     1
 10
0
 20
0
  0
VERTEX
  8
0
  6
CONTINUOUS
 62
     7
 10
18.304169
 20
135.9893
 42
0.042644465
  0
VERTEX
  8
0
  6
CONTINUOUS
 62
     7
 10
16.777287
 20
133.60917
 42
0.051920959
  0
VERTEX
  8
0
  6
CONTINUOUS
 62
     7
 10
15.719949
 20
130.98819
 42
0.068801657
  0
VERTEX
  8
0
  6
CONTINUOUS
 62
     7
 10
15.315278
 20
128.19508
 42
0
  0
SEQEND
  8
0
  0
POLYLINE
  8
0
  6
CONTINUOUS
 62
     7
 66
     1
 10
0
 20
0
  0
VERTEX
  8
0
  6
CONTINUOUS
 62
     7
 10
15.315278
 20
151.57777
 42
0.03276933
  0
VERTEX
  8
0
  6
CONTINUOUS
 62
     7
 10
15.668505
 20
146.27306
 42
0.030230666
  0
VERTEX
  8
0
  6
CONTINUOUS
 62
     7
 10
16.684531
 20
141.05401
 42
0.028523962
  0
VERTEX
  8
0
  6
CONTINUOUS
 62
     7
 10
18.304169
 20
135.9893
 42
0
  0
SEQEND
  8
0
  0
POLYLINE
  8
0
  6
CONTINUOUS
 62
     7
 66
     1
 10
0
 20
0
  0
VERTEX
  8
0
  6
CONTINUOUS
 62
     7
 10
29.315277
 20
151.57777
 42
-0.03276935
  0
VERTEX
  8
0
  6
CONTINUOUS
 62
     7
 10
28.96205
 20
146.27306
 42
-0.030230665
  0
VERTEX
  8
0
  6
CONTINUOUS
 62
     7
 10
27.946024
 20
141.05401
 42
-0.028523943
  0
VERTEX
  8
0
  6
CONTINUOUS
 62
     7
 10
26.326385
 20
135.9893
 42
0
  0
SEQEND
  8
0
  0
POLYLINE
  8
0
  6
CONTINUOUS
 62
     7
 66
     1
 10
0
 20
0
  0
VERTEX
  8
0
  6
CONTINUOUS
 62
     7
 10
-59.316345
 20
164.85683
 42
0.043055298
  0
VERTEX
  8
0
  6
CONTINUOUS
 62
     7
 10
-57.978012
 20
166.87465
 42
0.052964791
  0
VERTEX
  8
0
  6
CONTINUOUS
 62
     7
 10
-57.044609
 20
169.10726
 42
0.071331444
  0
VERTEX
  8
0
  6
CONTINUOUS
 62
     7
 10
-56.684723
 20
171.49635
 42
0
  0
SEQEND
  8
0
  0
POLYLINE
  8
0
  6
CONTINUOUS
 62
     7
 66
     1
 10
0
 20
0
  0
VERTEX
  8
0
  6
CONTINUOUS
 62
     7
 10
-66.053101
 20
164.85683
 42
-0.043055298
  0
VERTEX
  8
0
  6
CONTINUOUS
 62
     7
 10
-67.391434
 20
166.87465
 42
-0.052964791
  0
VERTEX
  8
0
  6
CONTINUOUS
 62
     7
 10
-68.324836
 20
169.10726
 42
-0.071331444
  0
VERTEX
  8
0
  6
CONTINUOUS
 62
     7
 10
-68.684723
 20
171.49635
 42
0
  0
SEQEND
  8
0
  0
POLYLINE
  8
0
  6
CONTINUOUS
 62
     7
 66
     1
 10
0
 20
0
  0
VERTEX
  8
0
  6
CONTINUOUS
 62
     7
 10
-68.684723
 20
151.57777
 42
-0.033921101
  0
VERTEX
  8
0
  6
CONTINUOUS
 62
     7
 10
-68.372529
 20
156.10265
 42
-0.03113149
  0
VERTEX
  8
0
  6
CONTINUOUS
 62
     7
 10
-67.476882
 20
160.54953
 42
-0.029264285
  0
VERTEX
  8
0
  6
CONTINUOUS
 62
     7
 10
-66.053101
 20
164.85683
 42
0
  0
SEQEND
  8
0
  0
POLYLINE
  8
0
  6
CONTINUOUS
 62
     7
 66
     1
 10
0
 20
0
  0
VERTEX
  8
0
  6
CONTINUOUS
 62
     7
 10
-56.684723
 20
151.57777
 42
0.033921101
  0
VERTEX
  8
0
  6
CONTINUOUS
 62
     7
 10
-56.996917
 20
156.10265
 42
0.03113149
  0
VERTEX
  8
0
  6
CONTINUOUS
 62
     7
 10
-57.892564
 20
160.54953
 42
0.029264285
  0
VERTEX
  8
0
  6
CONTINUOUS
 62
     7
 10
-59.316345
 20
164.85683
 42
0
  0
SEQEND
  8
0
  0
POLYLINE
  8
0
  6
CONTINUOUS
 62
     7
 66
     1
 10
0
 20
0
  0
VERTEX
  8
0
  6
CONTINUOUS
 62
     7
 10
-59.316345
 20
138.29872
 42
-0.043055298
  0
VERTEX
  8
0
  6
CONTINUOUS
 62
     7
 10
-57.978012
 20
136.2809
 42
-0.052964791
  0
VERTEX
  8
0
  6
CONTINUOUS
 62
     7
 10
-57.044609
 20
134.04829
 42
-0.071331444
  0
VERTEX
  8
0
  6
CONTINUOUS
 62
     7
 10
-56.684723
 20
131.65919
 42
0
  0
SEQEND
  8
0
  0
POLYLINE
  8
0
  6
CONTINUOUS
 62
     7
 66
     1
 10
0
 20
0
  0
VERTEX
  8
0
  6
CONTINUOUS
 62
     7
 10
-66.053101
 20
138.29872
 42
0.043055298
  0
VERTEX
  8
0
  6
CONTINUOUS
 62
     7
 10
-67.391434
 20
136.2809
 42
0.052964791
  0
VERTEX
  8
0
  6
CONTINUOUS
 62
     7
 10
-68.324836
 20
134.04829
 42
0.071331444
  0
VERTEX
  8
0
  6
CONTINUOUS
 62
     7
 10
-68.684723
 20
131.65919
 42
0
  0
SEQEND
  8
0
  0
POLYLINE
  8
0
  6
CONTINUOUS
 62
     7
 66
     1
 10
0
 20
0
  0
VERTEX
  8
0
  6
CONTINUOUS
 62
     7
 10
-68.684723
 20
151.57777
 42
0.033921101
  0
VERTEX
  8
0
  6
CONTINUOUS
 62
     7
 10
-68.372529
 20
147.0529
 42
0.03113149
  0
VERTEX
  8
0
  6
CONTINUOUS
 62
     7
 10
-67.476882
 20
142.60602
 42
0.029264285
  0
VERTEX
  8
0
  6
CONTINUOUS
 62
     7
 10
-66.053101
 20
138.29872
 42
0
  0
SEQEND
  8
0
  0
POLYLINE
  8
0
  6
CONTINUOUS
 62
     7
 66
     1
 10
0
 20
0
  0
VERTEX
  8
0
  6
CONTINUOUS
 62
     7
 10
-56.684723
 20
151.57777
 42
-0.033921101
  0
VERTEX
  8
0
  6
CONTINUOUS
 62
     7
 10
-56.996917
 20
147.0529
 42
-0.03113149
  0
VERTEX
  8
0
  6
CONTINUOUS
 62
     7
 10
-57.892564
 20
142.60602
 42
-0.029264285
  0
VERTEX
  8
0
  6
CONTINUOUS
 62
     7
 10
-59.316345
 20
138.29872
 42
0
  0
SEQEND
  8
0
  0
POLYLINE
  8
0
  6
CONTINUOUS
 62
     7
 66
     1
 10
0
 20
0
  0
VERTEX
  8
0
  6
CONTINUOUS
 62
     7
 10
-141.68472
 20
168.03227
 42
-0.070787458
  0
VERTEX
  8
0
  6
CONTINUOUS
 62
     7
 10
-141.97929
 20
166.06053
 42
-0.052763958
  0
VERTEX
  8
0
  6
CONTINUOUS
 62
     7
 10
-142.74492
 20
164.21552
 42
-0.04295832
  0
VERTEX
  8
0
  6
CONTINUOUS
 62
     7
 10
-143.84361
 20
162.54744
 42
0
  0
SEQEND
  8
0
  0
POLYLINE
  8
0
  6
CONTINUOUS
 62
     7
 66
     1
 10
0
 20
0
  0
VERTEX
  8
0
  6
CONTINUOUS
 62
     7
 10
-153.68472
 20
168.03227
 42
0.070787458
  0
VERTEX
  8
0
  6
CONTINUOUS
 62
     7
 10
-153.39015
 20
166.06053
 42
0.052763958
  0
VERTEX
  8
0
  6
CONTINUOUS
 62
     7
 10
-152.62453
 20
164.21552
 42
0.04295832
  0
VERTEX
  8
0
  6
CONTINUOUS
 62
     7
 10
-151.52583
 20
162.54744
 42
0
  0
SEQEND
  8
0
  0
POLYLINE
  8
0
  6
CONTINUOUS
 62
     7
 66
     1
 10
0
 20
0
  0
VERTEX
  8
0
  6
CONTINUOUS
 62
     7
 10
-151.52583
 20
162.54744
 42
0.029107862
  0
VERTEX
  8
0
  6
CONTINUOUS
 62
     7
 10
-152.69425
 20
158.98799
 42
0.030943058
  0
VERTEX
  8
0
  6
CONTINUOUS
 62
     7
 10
-153.42886
 20
155.31433
 42
0.033672694
  0
VERTEX
  8
0
  6
CONTINUOUS
 62
     7
 10
-153.68472
 20
151.57777
 42
0
  0
SEQEND
  8
0
  0
POLYLINE
  8
0
  6
CONTINUOUS
 62
     7
 66
     1
 10
0
 20
0
  0
VERTEX
  8
0
  6
CONTINUOUS
 62
     7
 10
-143.84361
 20
162.54744
 42
-0.029107862
  0
VERTEX
  8
0
  6
CONTINUOUS
 62
     7
 10
-142.6752
 20
158.98799
 42
-0.030943058
  0
VERTEX
  8
0
  6
CONTINUOUS
 62
     7
 10
-141.94058
 20
155.31433
 42
-0.033672694
  0
VERTEX
  8
0
  6
CONTINUOUS
 62
     7
 10
-141.68472
 20
151.57777
 42
0
  0
SEQEND
  8
0
  0
POLYLINE
  8
0
  6
CONTINUOUS
 62
     7
 66
     1
 10
0
 20
0
  0
VERTEX
  8
0
  6
CONTINUOUS
 62
     7
 10
-141.68472
 20
135.12328
 42
0.070787458
  0
VERTEX
  8
0
  6
CONTINUOUS
 62
     7
 10
-141.97929
 20
137.09502
 42
0.052763958
  0
VERTEX
  8
0
  6
CONTINUOUS
 62
     7
 10
-142.74492
 20
138.94003
 42
0.04295832
  0
VERTEX
  8
0
  6
CONTINUOUS
 62
     7
 10
-143.84361
 20
140.60811
 42
0
  0
SEQEND
  8
0
  0
POLYLINE
  8
0
  6
CONTINUOUS
 62
     7
 66
     1
 10
0
 20
0
  0
VERTEX
  8
0
  6
CONTINUOUS
 62
     7
 10
-153.68472
 20
135.12328
 42
-0.070787458
  0
VERTEX
  8
0
  6
CONTINUOUS
 62
     7
 10
-153.39015
 20
137.09502
 42
-0.052763958
  0
VERTEX
  8
0
  6
CONTINUOUS
 62
     7
 10
-152.62453
 20
138.94003
 42
-0.04295832
  0
VERTEX
  8
0
  6
CONTINUOUS
 62
     7
 10
-151.52583
 20
140.60811
 42
0
  0
SEQEND
  8
0
  0
POLYLINE
  8
0
  6
CONTINUOUS
 62
     7
 66
     1
 10
0
 20
0
  0
VERTEX
  8
0
  6
CONTINUOUS
 62
     7
 10
-151.52583
 20
140.60811
 42
-0.029107862
  0
VERTEX
  8
0
  6
CONTINUOUS
 62
     7
 10
-152.69425
 20
144.16756
 42
-0.030943058
  0
VERTEX
  8
0
  6
CONTINUOUS
 62
     7
 10
-153.42886
 20
147.84122
 42
-0.033672694
  0
VERTEX
  8
0
  6
CONTINUOUS
 62
     7
 10
-153.68472
 20
151.57777
 42
0
  0
SEQEND
  8
0
  0
POLYLINE
  8
0
  6
CONTINUOUS
 62
     7
 66
     1
 10
0
 20
0
  0
VERTEX
  8
0
  6
CONTINUOUS
 62
     7
 10
-143.84361
 20
140.60811
 42
0.029107862
  0
VERTEX
  8
0
  6
CONTINUOUS
 62
     7
 10
-142.6752
 20
144.16756
 42
0.030943058
  0
VERTEX
  8
0
  6
CONTINUOUS
 62
     7
 10
-141.94058
 20
147.84122
 42
0.033672694
  0
VERTEX
  8
0
  6
CONTINUOUS
 62
     7
 10
-141.68472
 20
151.57777
 42
0
  0
SEQEND
  8
0
  0
POLYLINE
  8
0
  6
CONTINUOUS
 62
     7
 66
     1
 10
0
 20
0
  0
VERTEX
  8
0
  6
CONTINUOUS
 62
     7
 10
-217.18472
 20
165.43419
 42
-0.06653472
  0
VERTEX
  8
0
  6
CONTINUOUS
 62
     7
 10
-217.41519
 20
163.7851
 42
-0.050936524
  0
VERTEX
  8
0
  6
CONTINUOUS
 62
     7
 10
-218.02137
 20
162.23197
 42
-0.042228437
  0
VERTEX
  8
0
  6
CONTINUOUS
 62
     7
 10
-218.90245
 20
160.81538
 42
0
  0
SEQEND
  8
0
  0
POLYLINE
  8
0
  6
CONTINUOUS
 62
     7
 66
     1
 10
0
 20
0
  0
VERTEX
  8
0
  6
CONTINUOUS
 62
     7
 10
-228.18472
 20
165.43419
 42
0.06653472
  0
VERTEX
  8
0
  6
CONTINUOUS
 62
     7
 10
-227.95425
 20
163.7851
 42
0.050936524
  0
VERTEX
  8
0
  6
CONTINUOUS
 62
     7
 10
-227.34808
 20
162.23197
 42
0.042228437
  0
VERTEX
  8
0
  6
CONTINUOUS
 62
     7
 10
-226.467
 20
160.81538
 42
0
  0
SEQEND
  8
0
  0
POLYLINE
  8
0
  6
CONTINUOUS
 62
     7
 66
     1
 10
0
 20
0
  0
VERTEX
  8
0
  6
CONTINUOUS
 62
     7
 10
-228.18472
 20
151.57777
 42
-0.031737883
  0
VERTEX
  8
0
  6
CONTINUOUS
 62
     7
 10
-227.9824
 20
154.71762
 42
-0.029412326
  0
VERTEX
  8
0
  6
CONTINUOUS
 62
     7
 10
-227.3991
 20
157.80975
 42
-0.027842937
  0
VERTEX
  8
0
  6
CONTINUOUS
 62
     7
 10
-226.467
 20
160.81538
 42
0
  0
SEQEND
  8
0
  0
POLYLINE
  8
0
  6
CONTINUOUS
 62
     7
 66
     1
 10
0
 20
0
  0
VERTEX
  8
0
  6
CONTINUOUS
 62
     7
 10
-217.18472
 20
151.57777
 42
0.031737883
  0
VERTEX
  8
0
  6
CONTINUOUS
 62
     7
 10
-217.38705
 20
154.71762
 42
0.029412326
  0
VERTEX
  8
0
  6
CONTINUOUS
 62
     7
 10
-217.97034
 20
157.80975
 42
0.027842937
  0
VERTEX
  8
0
  6
CONTINUOUS
 62
     7
 10
-218.90245
 20
160.81538
 42
0
  0
SEQEND
  8
0
  0
POLYLINE
  8
0
  6
CONTINUOUS
 62
     7
 66
     1
 10
0
 20
0
  0
VERTEX
  8
0
  6
CONTINUOUS
 62
     7
 10
-217.18472
 20
137.72136
 42
0.06653472
  0
VERTEX
  8
0
  6
CONTINUOUS
 62
     7
 10
-217.41519
 20
139.37045
 42
0.050936524
  0
VERTEX
  8
0
  6
CONTINUOUS
 62
     7
 10
-218.02137
 20
140.92358
 42
0.042228437
  0
VERTEX
  8
0
  6
CONTINUOUS
 62
     7
 10
-218.90245
 20
142.34016
 42
0
  0
SEQEND
  8
0
  0
POLYLINE
  8
0
  6
CONTINUOUS
 62
     7
 66
     1
 10
0
 20
0
  0
VERTEX
  8
0
  6
CONTINUOUS
 62
     7
 10
-228.18472
 20
137.72136
 42
-0.06653472
  0
VERTEX
  8
0
  6
CONTINUOUS
 62
     7
 10
-227.95425
 20
139.37045
 42
-0.050936524
  0
VERTEX
  8
0
  6
CONTINUOUS
 62
     7
 10
-227.34808
 20
140.92358
 42
-0.042228437
  0
VERTEX
  8
0
  6
CONTINUOUS
 62
     7
 10
-226.467
 20
142.34016
 42
0
  0
SEQEND
  8
0
  0
POLYLINE
  8
0
  6
CONTINUOUS
 62
     7
 66
     1
 10
0
 20
0
  0
VERTEX
  8
0
  6
CONTINUOUS
 62
     7
 10
-228.18472
 20
151.57777
 42
0.031737883
  0
VERTEX
  8
0
  6
CONTINUOUS
 62
     7
 10
-227.9824
 20
148.43792
 42
0.029412326
  0
VERTEX
  8
0
  6
CONTINUOUS
 62
     7
 10
-227.3991
 20
145.3458
 42
0.027842937
  0
VERTEX
  8
0
  6
CONTINUOUS
 62
     7
 10
-226.467
 20
142.34016
 42
0
  0
SEQEND
  8
0
  0
POLYLINE
  8
0
  6
CONTINUOUS
 62
     7
 66
     1
 10
0
 20
0
  0
VERTEX
  8
0
  6
CONTINUOUS
 62
     7
 10
-217.18472
 20
151.57777
 42
-0.031737883
  0
VERTEX
  8
0
  6
CONTINUOUS
 62
     7
 10
-217.38705
 20
148.43792
 42
-0.029412326
  0
VERTEX
  8
0
  6
CONTINUOUS
 62
     7
 10
-217.97034
 20
145.3458
 42
-0.027842937
  0
VERTEX
  8
0
  6
CONTINUOUS
 62
     7
 10
-218.90245
 20
142.34016
 42
0
  0
SEQEND
  8
0
  0
POLYLINE
  8
0
  6
CONTINUOUS
 62
     7
 66
     1
 10
0
 20
0
  0
VERTEX
  8
0
  6
CONTINUOUS
 62
     7
 10
-296.23492
 20
159.08333
 42
-0.042739097
  0
VERTEX
  8
0
  6
CONTINUOUS
 62
     7
 10
-296.97482
 20
160.22811
 42
-0.052156162
  0
VERTEX
  8
0
  6
CONTINUOUS
 62
     7
 10
-297.488
 20
161.49006
 42
-0.069361294
  0
VERTEX
  8
0
  6
CONTINUOUS
 62
     7
 10
-297.68472
 20
162.83611
 42
0
  0
SEQEND
  8
0
  0
POLYLINE
  8
0
  6
CONTINUOUS
 62
     7
 66
     1
 10
0
 20
0
  0
VERTEX
  8
0
  6
CONTINUOUS
 62
     7
 10
-297.68472
 20
151.57777
 42
-0.033024242
  0
VERTEX
  8
0
  6
CONTINUOUS
 62
     7
 10
-297.51324
 20
154.13264
 42
-0.030430658
  0
VERTEX
  8
0
  6
CONTINUOUS
 62
     7
 10
-297.02027
 20
156.64564
 42
-0.028688524
  0
VERTEX
  8
0
  6
CONTINUOUS
 62
     7
 10
-296.23492
 20
159.08333
 42
0
  0
SEQEND
  8
0
  0
POLYLINE
  8
0
  6
CONTINUOUS
 62
     7
 66
     1
 10
0
 20
0
  0
VERTEX
  8
0
  6
CONTINUOUS
 62
     7
 10
-289.13449
 20
159.08333
 42
0.042741297
  0
VERTEX
  8
0
  6
CONTINUOUS
 62
     7
 10
-288.3946
 20
160.22811
 42
0.052156493
  0
VERTEX
  8
0
  6
CONTINUOUS
 62
     7
 10
-287.88144
 20
161.49006
 42
0.069358787
  0
VERTEX
  8
0
  6
CONTINUOUS
 62
     7
 10
-287.68472
 20
162.83611
 42
0
  0
SEQEND
  8
0
  0
POLYLINE
  8
0
  6
CONTINUOUS
 62
     7
 66
     1
 10
0
 20
0
  0
VERTEX
  8
0
  6
CONTINUOUS
 62
     7
 10
-287.68472
 20
151.57777
 42
0.033022914
  0
VERTEX
  8
0
  6
CONTINUOUS
 62
     7
 10
-287.8562
 20
154.13264
 42
0.0304307
  0
VERTEX
  8
0
  6
CONTINUOUS
 62
     7
 10
-288.34915
 20
156.64564
 42
0.028689815
  0
VERTEX
  8
0
  6
CONTINUOUS
 62
     7
 10
-289.13449
 20
159.08333
 42
0
  0
SEQEND
  8
0
  0
POLYLINE
  8
0
  6
CONTINUOUS
 62
     7
 66
     1
 10
0
 20
0
  0
VERTEX
  8
0
  6
CONTINUOUS
 62
     7
 10
-296.23492
 20
144.07222
 42
0.042739097
  0
VERTEX
  8
0
  6
CONTINUOUS
 62
     7
 10
-296.97482
 20
142.92744
 42
0.052156162
  0
VERTEX
  8
0
  6
CONTINUOUS
 62
     7
 10
-297.488
 20
141.66549
 42
0.069361294
  0
VERTEX
  8
0
  6
CONTINUOUS
 62
     7
 10
-297.68472
 20
140.31944
 42
0
  0
SEQEND
  8
0
  0
POLYLINE
  8
0
  6
CONTINUOUS
 62
     7
 66
     1
 10
0
 20
0
  0
VERTEX
  8
0
  6
CONTINUOUS
 62
     7
 10
-297.68472
 20
151.57777
 42
0.033024242
  0
VERTEX
  8
0
  6
CONTINUOUS
 62
     7
 10
-297.51324
 20
149.02291
 42
0.030430658
  0
VERTEX
  8
0
  6
CONTINUOUS
 62
     7
 10
-297.02027
 20
146.50991
 42
0.028688524
  0
VERTEX
  8
0
  6
CONTINUOUS
 62
     7
 10
-296.23492
 20
144.07222
 42
0
  0
SEQEND
  8
0
  0
POLYLINE
  8
0
  6
CONTINUOUS
 62
     7
 66
     1
 10
0
 20
0
  0
VERTEX
  8
0
  6
CONTINUOUS
 62
     7
 10
-289.13449
 20
144.07222
 42
-0.042741297
  0
VERTEX
  8
0
  6
CONTINUOUS
 62
     7
 10
-288.3946
 20
142.92744
 42
-0.052156493
  0
VERTEX
  8
0
  6
CONTINUOUS
 62
     7
 10
-287.88144
 20
141.66549
 42
-0.069358787
  0
VERTEX
  8
0
  6
CONTINUOUS
 62
     7
 10
-287.68472
 20
140.31944
 42
0
  0
SEQEND
  8
0
  0
POLYLINE
  8
0
  6
CONTINUOUS
 62
     7
 66
     1
 10
0
 20
0
  0
VERTEX
  8
0
  6
CONTINUOUS
 62
     7
 10
-287.68472
 20
151.57777
 42
-0.033022914
  0
VERTEX
  8
0
  6
CONTINUOUS
 62
     7
 10
-287.8562
 20
149.02291
 42
-0.0304307
  0
VERTEX
  8
0
  6
CONTINUOUS
 62
     7
 10
-288.34915
 20
146.50991
 42
-0.028689815
  0
VERTEX
  8
0
  6
CONTINUOUS
 62
     7
 10
-289.13449
 20
144.07222
 42
0
  0
SEQEND
  8
0
  0
TEXT
  8
0
  6
CONTINUOUS
 62
     7
 10
-379.08815
 20
266.396
 40
12
 41
0.84326415
  1
ＲＣＦ－Ｋ　Ｎｉ（ニップル）
  0
TEXT
  8
0
  6
CONTINUOUS
 62
     7
 10
44.485556
 20
66.027779
 40
8
 41
1.0715625
  1
4
  0
TEXT
  8
0
  6
CONTINUOUS
 62
     7
 10
-85.514444
 20
51.027779
 40
8
 41
1.0715625
  1
3
  0
TEXT
  8
0
  6
CONTINUOUS
 62
     7
 10
-210.51445
 20
46.027779
 40
8
 41
1.0130114
  1
21/2
  0
TEXT
  8
0
  6
CONTINUOUS
 62
     7
 10
-305.51445
 20
36.027779
 40
8
 41
1.0715625
  1
2
  0
TEXT
  8
0
  6
CONTINUOUS
 62
     7
 10
8.6882315
 20
191.61922
 40
8
 41
1.0130114
  1
11/2
  0
TEXT
  8
0
  6
CONTINUOUS
 62
     7
 10
-76.311769
 20
191.61922
 40
8
 41
0.85127006
  1
１１／４
  0
TEXT
  8
0
  6
CONTINUOUS
 62
     7
 10
-151.31177
 20
186.61922
 40
8
 41
1.0715625
  1
1
  0
TEXT
  8
0
  6
CONTINUOUS
 62
     7
 10
-231.31177
 20
181.61922
 40
8
 41
1.0178906
  1
3/4
  0
TEXT
  8
0
  6
CONTINUOUS
 62
     7
 10
-301.31175
 20
176.61922
 40
8
 41
1.0178906
  1
1/2
  0
LINE
  8
0
  6
CONTINUOUS
 62
     7
 10
41.343056
 20
13.588776
 11
42.986522
 21
13.588776
  0
LINE
  8
0
  6
CONTINUOUS
 62
     7
 10
41.343056
 20
12.388776
 11
42.986522
 21
12.388776
  0
LINE
  8
0
  6
CONTINUOUS
 62
     7
 10
51.699589
 20
12.388776
 11
53.343056
 21
12.388776
  0
LINE
  8
0
  6
CONTINUOUS
 62
     7
 10
51.699589
 20
13.588776
 11
53.343056
 21
13.588776
  0
LINE
  8
0
  6
CONTINUOUS
 62
     7
 10
44.190883
 20
12.388776
 11
47.343056
 21
12.388776
  0
LINE
  8
0
  6
CONTINUOUS
 62
     7
 10
44.190883
 20
13.588776
 11
47.343056
 21
13.588776
  0
ARC
  8
0
  6
CONTINUOUS
 62
     7
 10
47.343056
 20
15.388776
 40
2.4000001
 50
36.008327
 51
143.99168
  0
ARC
  8
0
  6
CONTINUOUS
 62
     7
 10
47.343056
 20
15.388776
 40
3.5999999
 50
36.008327
 51
143.99168
  0
ARC
  8
0
  6
CONTINUOUS
 62
     7
 10
47.343056
 20
10.588776
 40
2.4000001
 50
216.00833
 51
323.99168
  0
ARC
  8
0
  6
CONTINUOUS
 62
     7
 10
47.343056
 20
10.588776
 40
3.5999999
 50
216.00833
 51
323.99168
  0
ARC
  8
0
  6
CONTINUOUS
 62
     7
 10
50.645363
 20
12.988776
 40
7.6823077
 50
143.99168
 51
175.52056
  0
ARC
  8
0
  6
CONTINUOUS
 62
     7
 10
50.645363
 20
12.988776
 40
6.4823079
 50
143.99168
 51
174.68912
  0
ARC
  8
0
  6
CONTINUOUS
 62
     7
 10
44.040748
 20
12.988776
 40
6.4823079
 50
323.99167
 51
36.008327
  0
ARC
  8
0
  6
CONTINUOUS
 62
     7
 10
44.040748
 20
12.988776
 40
7.6823077
 50
323.99167
 51
355.52055
  0
ARC
  8
0
  6
CONTINUOUS
 62
     7
 10
41.793056
 20
12.988776
 40
0.75
 50
126.8699
 51
233.1301
  0
ARC
  8
0
  6
CONTINUOUS
 62
     7
 10
46.893056
 20
12.988776
 40
0.75
 50
306.86991
 51
53.130105
  0
ARC
  8
0
  6
CONTINUOUS
 62
     7
 10
52.893056
 20
12.988776
 40
0.75
 50
306.86991
 51
53.130105
  0
ARC
  8
0
  6
CONTINUOUS
 62
     7
 10
50.645363
 20
12.988776
 40
6.4823079
 50
185.31088
 51
216.00833
  0
ARC
  8
0
  6
CONTINUOUS
 62
     7
 10
50.645363
 20
12.988776
 40
7.6823077
 50
184.47945
 51
216.00833
  0
ARC
  8
0
  6
CONTINUOUS
 62
     7
 10
44.040748
 20
12.988776
 40
7.6823077
 50
4.4794498
 51
36.008327
  0
LINE
  8
0
  6
CONTINUOUS
 62
     7
 10
-88.656944
 20
8.8052677
 11
-87.013478
 21
8.8052677
  0
LINE
  8
0
  6
CONTINUOUS
 62
     7
 10
-88.656944
 20
7.6052676
 11
-87.013478
 21
7.6052677
  0
LINE
  8
0
  6
CONTINUOUS
 62
     7
 10
-78.300411
 20
7.6052681
 11
-76.656944
 21
7.6052681
  0
LINE
  8
0
  6
CONTINUOUS
 62
     7
 10
-78.300411
 20
8.8052681
 11
-76.656944
 21
8.8052682
  0
LINE
  8
0
  6
CONTINUOUS
 62
     7
 10
-85.809117
 20
7.6052677
 11
-82.656944
 21
7.6052679
  0
LINE
  8
0
  6
CONTINUOUS
 62
     7
 10
-85.809117
 20
8.8052678
 11
-82.656944
 21
8.8052679
  0
ARC
  8
0
  6
CONTINUOUS
 62
     7
 10
-82.656944
 20
10.605268
 40
2.4000001
 50
36.008327
 51
143.99168
  0
ARC
  8
0
  6
CONTINUOUS
 62
     7
 10
-82.656944
 20
10.605268
 40
3.5999999
 50
36.008327
 51
143.99168
  0
ARC
  8
0
  6
CONTINUOUS
 62
     7
 10
-82.656944
 20
5.8052678
 40
2.4000001
 50
216.00833
 51
323.99168
  0
ARC
  8
0
  6
CONTINUOUS
 62
     7
 10
-82.656944
 20
5.8052678
 40
3.5999999
 50
216.00833
 51
323.99168
  0
ARC
  8
0
  6
CONTINUOUS
 62
     7
 10
-79.354637
 20
8.2052681
 40
7.6823077
 50
143.99168
 51
175.52056
  0
ARC
  8
0
  6
CONTINUOUS
 62
     7
 10
-79.354637
 20
8.2052681
 40
6.4823079
 50
143.99168
 51
174.68912
  0
ARC
  8
0
  6
CONTINUOUS
 62
     7
 10
-85.959252
 20
8.2052678
 40
6.4823079
 50
323.99167
 51
36.008327
  0
ARC
  8
0
  6
CONTINUOUS
 62
     7
 10
-85.959252
 20
8.2052678
 40
7.6823077
 50
323.99167
 51
355.52055
  0
ARC
  8
0
  6
CONTINUOUS
 62
     7
 10
-88.206944
 20
8.2052677
 40
0.75
 50
126.8699
 51
233.1301
  0
ARC
  8
0
  6
CONTINUOUS
 62
     7
 10
-83.106944
 20
8.2052679
 40
0.75
 50
306.86991
 51
53.130105
  0
ARC
  8
0
  6
CONTINUOUS
 62
     7
 10
-77.106944
 20
8.2052681
 40
0.75
 50
306.86991
 51
53.130105
  0
ARC
  8
0
  6
CONTINUOUS
 62
     7
 10
-79.354637
 20
8.2052681
 40
6.4823079
 50
185.31088
 51
216.00833
  0
ARC
  8
0
  6
CONTINUOUS
 62
     7
 10
-79.354637
 20
8.2052681
 40
7.6823077
 50
184.47945
 51
216.00833
  0
ARC
  8
0
  6
CONTINUOUS
 62
     7
 10
-85.959252
 20
8.2052678
 40
7.6823077
 50
4.4794498
 51
36.008327
  0
LINE
  8
0
  6
CONTINUOUS
 62
     7
 10
-203.65695
 20
5.93512
 11
-202.01349
 21
5.93512
  0
LINE
  8
0
  6
CONTINUOUS
 62
     7
 10
-203.65695
 20
4.7351199
 11
-202.01349
 21
4.73512
  0
LINE
  8
0
  6
CONTINUOUS
 62
     7
 10
-193.30042
 20
4.7351204
 11
-191.65695
 21
4.7351204
  0
LINE
  8
0
  6
CONTINUOUS
 62
     7
 10
-193.30042
 20
5.9351204
 11
-191.65695
 21
5.9351205
  0
LINE
  8
0
  6
CONTINUOUS
 62
     7
 10
-200.80912
 20
4.73512
 11
-197.65695
 21
4.7351202
  0
LINE
  8
0
  6
CONTINUOUS
 62
     7
 10
-200.80912
 20
5.9351201
 11
-197.65695
 21
5.9351202
  0
ARC
  8
0
  6
CONTINUOUS
 62
     7
 10
-197.65695
 20
7.7351203
 40
2.4000001
 50
36.008327
 51
143.99168
  0
ARC
  8
0
  6
CONTINUOUS
 62
     7
 10
-197.65695
 20
7.7351203
 40
3.5999999
 50
36.008327
 51
143.99168
  0
ARC
  8
0
  6
CONTINUOUS
 62
     7
 10
-197.65695
 20
2.9351201
 40
2.4000001
 50
216.00833
 51
323.99168
  0
ARC
  8
0
  6
CONTINUOUS
 62
     7
 10
-197.65695
 20
2.9351201
 40
3.5999999
 50
216.00833
 51
323.99168
  0
ARC
  8
0
  6
CONTINUOUS
 62
     7
 10
-194.35464
 20
5.3351203
 40
7.6823077
 50
143.99168
 51
175.52056
  0
ARC
  8
0
  6
CONTINUOUS
 62
     7
 10
-194.35464
 20
5.3351203
 40
6.4823079
 50
143.99168
 51
174.68912
  0
ARC
  8
0
  6
CONTINUOUS
 62
     7
 10
-200.95926
 20
5.3351201
 40
6.4823079
 50
323.99167
 51
36.008327
  0
ARC
  8
0
  6
CONTINUOUS
 62
     7
 10
-200.95926
 20
5.3351201
 40
7.6823077
 50
323.99167
 51
355.52055
  0
ARC
  8
0
  6
CONTINUOUS
 62
     7
 10
-203.20695
 20
5.33512
 40
0.75
 50
126.8699
 51
233.1301
  0
ARC
  8
0
  6
CONTINUOUS
 62
     7
 10
-198.10695
 20
5.3351202
 40
0.75
 50
306.86991
 51
53.130105
  0
ARC
  8
0
  6
CONTINUOUS
 62
     7
 10
-192.10695
 20
5.3351204
 40
0.75
 50
306.86991
 51
53.130105
  0
ARC
  8
0
  6
CONTINUOUS
 62
     7
 10
-194.35464
 20
5.3351203
 40
6.4823079
 50
185.31088
 51
216.00833
  0
ARC
  8
0
  6
CONTINUOUS
 62
     7
 10
-194.35464
 20
5.3351203
 40
7.6823077
 50
184.47945
 51
216.00833
  0
ARC
  8
0
  6
CONTINUOUS
 62
     7
 10
-200.95926
 20
5.3351201
 40
7.6823077
 50
4.4794498
 51
36.008327
  0
LINE
  8
0
  6
CONTINUOUS
 62
     7
 10
-308.65695
 20
2.6823276
 11
-307.01349
 21
2.6823277
  0
LINE
  8
0
  6
CONTINUOUS
 62
     7
 10
-308.65695
 20
1.4823276
 11
-307.01349
 21
1.4823276
  0
LINE
  8
0
  6
CONTINUOUS
 62
     7
 10
-298.30042
 20
1.482328
 11
-296.65695
 21
1.4823281
  0
LINE
  8
0
  6
CONTINUOUS
 62
     7
 10
-298.30042
 20
2.6823281
 11
-296.65695
 21
2.6823281
  0
LINE
  8
0
  6
CONTINUOUS
 62
     7
 10
-305.80912
 20
1.4823277
 11
-302.65695
 21
1.4823278
  0
LINE
  8
0
  6
CONTINUOUS
 62
     7
 10
-305.80912
 20
2.6823277
 11
-302.65695
 21
2.6823279
  0
ARC
  8
0
  6
CONTINUOUS
 62
     7
 10
-302.65695
 20
4.4823279
 40
2.4000001
 50
36.008327
 51
143.99168
  0
ARC
  8
0
  6
CONTINUOUS
 62
     7
 10
-302.65695
 20
4.4823279
 40
3.5999999
 50
36.008327
 51
143.99168
  0
ARC
  8
0
  6
CONTINUOUS
 62
     7
 10
-302.65695
 20
-0.31767225
 40
2.4000001
 50
216.00833
 51
323.99168
  0
ARC
  8
0
  6
CONTINUOUS
 62
     7
 10
-302.65695
 20
-0.31767225
 40
3.5999999
 50
216.00833
 51
323.99168
  0
ARC
  8
0
  6
CONTINUOUS
 62
     7
 10
-299.35464
 20
2.082328
 40
7.6823077
 50
143.99168
 51
175.52056
  0
ARC
  8
0
  6
CONTINUOUS
 62
     7
 10
-299.35464
 20
2.082328
 40
6.4823079
 50
143.99168
 51
174.68912
  0
ARC
  8
0
  6
CONTINUOUS
 62
     7
 10
-305.95926
 20
2.0823277
 40
6.4823079
 50
323.99167
 51
36.008327
  0
ARC
  8
0
  6
CONTINUOUS
 62
     7
 10
-305.95926
 20
2.0823277
 40
7.6823077
 50
323.99167
 51
355.52055
  0
ARC
  8
0
  6
CONTINUOUS
 62
     7
 10
-308.20695
 20
2.0823276
 40
0.75
 50
126.8699
 51
233.1301
  0
ARC
  8
0
  6
CONTINUOUS
 62
     7
 10
-303.10695
 20
2.0823278
 40
0.75
 50
306.86991
 51
53.130105
  0
ARC
  8
0
  6
CONTINUOUS
 62
     7
 10
-297.10695
 20
2.0823281
 40
0.75
 50
306.86991
 51
53.130105
  0
ARC
  8
0
  6
CONTINUOUS
 62
     7
 10
-299.35464
 20
2.082328
 40
6.4823079
 50
185.31088
 51
216.00833
  0
ARC
  8
0
  6
CONTINUOUS
 62
     7
 10
-299.35464
 20
2.082328
 40
7.6823077
 50
184.47945
 51
216.00833
  0
ARC
  8
0
  6
CONTINUOUS
 62
     7
 10
-305.95926
 20
2.0823277
 40
7.6823077
 50
4.4794498
 51
36.008327
  0
LINE
  8
0
  6
CONTINUOUS
 62
     7
 10
17.815277
 20
152.02777
 11
19.047877
 21
152.02777
  0
LINE
  8
0
  6
CONTINUOUS
 62
     7
 10
17.815277
 20
151.12777
 11
19.047877
 21
151.12777
  0
LINE
  8
0
  6
CONTINUOUS
 62
     7
 10
25.582677
 20
151.12777
 11
26.815277
 21
151.12777
  0
LINE
  8
0
  6
CONTINUOUS
 62
     7
 10
25.582677
 20
152.02777
 11
26.815277
 21
152.02777
  0
LINE
  8
0
  6
CONTINUOUS
 62
     7
 10
19.951148
 20
151.12777
 11
22.315277
 21
151.12777
  0
LINE
  8
0
  6
CONTINUOUS
 62
     7
 10
19.951148
 20
152.02777
 11
22.315277
 21
152.02777
  0
ARC
  8
0
  6
CONTINUOUS
 62
     7
 10
22.315277
 20
153.37777
 40
1.8
 50
36.008327
 51
143.99168
  0
ARC
  8
0
  6
CONTINUOUS
 62
     7
 10
22.315277
 20
153.37777
 40
2.7
 50
36.008327
 51
143.99168
  0
ARC
  8
0
  6
CONTINUOUS
 62
     7
 10
22.315277
 20
149.77777
 40
1.8
 50
216.00833
 51
323.99168
  0
ARC
  8
0
  6
CONTINUOUS
 62
     7
 10
22.315277
 20
149.77777
 40
2.7
 50
216.00833
 51
323.99168
  0
ARC
  8
0
  6
CONTINUOUS
 62
     7
 10
24.792008
 20
151.57777
 40
5.7617307
 50
143.99168
 51
175.52056
  0
ARC
  8
0
  6
CONTINUOUS
 62
     7
 10
24.792008
 20
151.57777
 40
4.8617306
 50
143.99168
 51
174.68912
  0
ARC
  8
0
  6
CONTINUOUS
 62
     7
 10
19.838546
 20
151.57777
 40
4.8617306
 50
323.99167
 51
36.008327
  0
ARC
  8
0
  6
CONTINUOUS
 62
     7
 10
19.838546
 20
151.57777
 40
5.7617307
 50
323.99167
 51
355.52055
  0
ARC
  8
0
  6
CONTINUOUS
 62
     7
 10
18.152777
 20
151.57777
 40
0.5625
 50
126.8699
 51
233.1301
  0
ARC
  8
0
  6
CONTINUOUS
 62
     7
 10
21.977777
 20
151.57777
 40
0.5625
 50
306.86991
 51
53.130105
  0
ARC
  8
0
  6
CONTINUOUS
 62
     7
 10
26.477777
 20
151.57777
 40
0.5625
 50
306.86991
 51
53.130105
  0
ARC
  8
0
  6
CONTINUOUS
 62
     7
 10
24.792008
 20
151.57777
 40
5.7617307
 50
184.47945
 51
216.00833
  0
ARC
  8
0
  6
CONTINUOUS
 62
     7
 10
24.792008
 20
151.57777
 40
4.8617306
 50
185.31088
 51
216.00833
  0
ARC
  8
0
  6
CONTINUOUS
 62
     7
 10
19.838546
 20
151.57777
 40
5.7617307
 50
4.4794498
 51
36.008327
  0
LINE
  8
0
  6
CONTINUOUS
 62
     7
 10
-67.184723
 20
152.02777
 11
-65.952123
 21
152.02777
  0
LINE
  8
0
  6
CONTINUOUS
 62
     7
 10
-67.184723
 20
151.12777
 11
-65.952123
 21
151.12777
  0
LINE
  8
0
  6
CONTINUOUS
 62
     7
 10
-59.417323
 20
151.12777
 11
-58.184723
 21
151.12777
  0
LINE
  8
0
  6
CONTINUOUS
 62
     7
 10
-59.417323
 20
152.02777
 11
-58.184723
 21
152.02777
  0
LINE
  8
0
  6
CONTINUOUS
 62
     7
 10
-65.048852
 20
151.12777
 11
-62.684723
 21
151.12777
  0
LINE
  8
0
  6
CONTINUOUS
 62
     7
 10
-65.048852
 20
152.02777
 11
-62.684723
 21
152.02777
  0
ARC
  8
0
  6
CONTINUOUS
 62
     7
 10
-62.684723
 20
153.37777
 40
1.8
 50
36.008327
 51
143.99168
  0
ARC
  8
0
  6
CONTINUOUS
 62
     7
 10
-62.684723
 20
153.37777
 40
2.7
 50
36.008327
 51
143.99168
  0
ARC
  8
0
  6
CONTINUOUS
 62
     7
 10
-62.684723
 20
149.77777
 40
1.8
 50
216.00833
 51
323.99168
  0
ARC
  8
0
  6
CONTINUOUS
 62
     7
 10
-62.684723
 20
149.77777
 40
2.7
 50
216.00833
 51
323.99168
  0
ARC
  8
0
  6
CONTINUOUS
 62
     7
 10
-60.207992
 20
151.57777
 40
5.7617307
 50
143.99168
 51
175.52056
  0
ARC
  8
0
  6
CONTINUOUS
 62
     7
 10
-60.207992
 20
151.57777
 40
4.8617306
 50
143.99168
 51
174.68912
  0
ARC
  8
0
  6
CONTINUOUS
 62
     7
 10
-65.161454
 20
151.57777
 40
4.8617306
 50
323.99167
 51
36.008327
  0
ARC
  8
0
  6
CONTINUOUS
 62
     7
 10
-65.161454
 20
151.57777
 40
5.7617307
 50
323.99167
 51
355.52055
  0
ARC
  8
0
  6
CONTINUOUS
 62
     7
 10
-66.847223
 20
151.57777
 40
0.5625
 50
126.8699
 51
233.1301
  0
ARC
  8
0
  6
CONTINUOUS
 62
     7
 10
-63.022223
 20
151.57777
 40
0.5625
 50
306.86991
 51
53.130105
  0
ARC
  8
0
  6
CONTINUOUS
 62
     7
 10
-58.522223
 20
151.57777
 40
0.5625
 50
306.86991
 51
53.130105
  0
ARC
  8
0
  6
CONTINUOUS
 62
     7
 10
-60.207992
 20
151.57777
 40
5.7617307
 50
184.47945
 51
216.00833
  0
ARC
  8
0
  6
CONTINUOUS
 62
     7
 10
-60.207992
 20
151.57777
 40
4.8617306
 50
185.31088
 51
216.00833
  0
ARC
  8
0
  6
CONTINUOUS
 62
     7
 10
-65.161454
 20
151.57777
 40
5.7617307
 50
4.4794498
 51
36.008327
  0
LINE
  8
0
  6
CONTINUOUS
 62
     7
 10
-152.18472
 20
152.02777
 11
-150.95212
 21
152.02777
  0
LINE
  8
0
  6
CONTINUOUS
 62
     7
 10
-152.18472
 20
151.12777
 11
-150.95212
 21
151.12777
  0
LINE
  8
0
  6
CONTINUOUS
 62
     7
 10
-144.41732
 20
151.12777
 11
-143.18472
 21
151.12777
  0
LINE
  8
0
  6
CONTINUOUS
 62
     7
 10
-144.41732
 20
152.02777
 11
-143.18472
 21
152.02777
  0
LINE
  8
0
  6
CONTINUOUS
 62
     7
 10
-150.04885
 20
151.12777
 11
-147.68472
 21
151.12777
  0
LINE
  8
0
  6
CONTINUOUS
 62
     7
 10
-150.04885
 20
152.02777
 11
-147.68472
 21
152.02777
  0
ARC
  8
0
  6
CONTINUOUS
 62
     7
 10
-147.68472
 20
153.37777
 40
1.8
 50
36.008327
 51
143.99168
  0
ARC
  8
0
  6
CONTINUOUS
 62
     7
 10
-147.68472
 20
153.37777
 40
2.7
 50
36.008327
 51
143.99168
  0
ARC
  8
0
  6
CONTINUOUS
 62
     7
 10
-147.68472
 20
149.77777
 40
1.8
 50
216.00833
 51
323.99168
  0
ARC
  8
0
  6
CONTINUOUS
 62
     7
 10
-147.68472
 20
149.77777
 40
2.7
 50
216.00833
 51
323.99168
  0
ARC
  8
0
  6
CONTINUOUS
 62
     7
 10
-145.20799
 20
151.57777
 40
5.7617307
 50
143.99168
 51
175.52056
  0
ARC
  8
0
  6
CONTINUOUS
 62
     7
 10
-145.20799
 20
151.57777
 40
4.8617306
 50
143.99168
 51
174.68912
  0
ARC
  8
0
  6
CONTINUOUS
 62
     7
 10
-150.16145
 20
151.57777
 40
4.8617306
 50
323.99167
 51
36.008327
  0
ARC
  8
0
  6
CONTINUOUS
 62
     7
 10
-150.16145
 20
151.57777
 40
5.7617307
 50
323.99167
 51
355.52055
  0
ARC
  8
0
  6
CONTINUOUS
 62
     7
 10
-151.84722
 20
151.57777
 40
0.5625
 50
126.8699
 51
233.1301
  0
ARC
  8
0
  6
CONTINUOUS
 62
     7
 10
-148.02222
 20
151.57777
 40
0.5625
 50
306.86991
 51
53.130105
  0
ARC
  8
0
  6
CONTINUOUS
 62
     7
 10
-143.52222
 20
151.57777
 40
0.5625
 50
306.86991
 51
53.130105
  0
ARC
  8
0
  6
CONTINUOUS
 62
     7
 10
-145.20799
 20
151.57777
 40
5.7617307
 50
184.47945
 51
216.00833
  0
ARC
  8
0
  6
CONTINUOUS
 62
     7
 10
-145.20799
 20
151.57777
 40
4.8617306
 50
185.31088
 51
216.00833
  0
ARC
  8
0
  6
CONTINUOUS
 62
     7
 10
-150.16145
 20
151.57777
 40
5.7617307
 50
4.4794498
 51
36.008327
  0
LINE
  8
0
  6
CONTINUOUS
 62
     7
 10
-227.18472
 20
152.02777
 11
-225.95212
 21
152.02777
  0
LINE
  8
0
  6
CONTINUOUS
 62
     7
 10
-227.18472
 20
151.12777
 11
-225.95212
 21
151.12777
  0
LINE
  8
0
  6
CONTINUOUS
 62
     7
 10
-219.41732
 20
151.12777
 11
-218.18472
 21
151.12777
  0
LINE
  8
0
  6
CONTINUOUS
 62
     7
 10
-219.41732
 20
152.02777
 11
-218.18472
 21
152.02777
  0
LINE
  8
0
  6
CONTINUOUS
 62
     7
 10
-225.04885
 20
151.12777
 11
-222.68472
 21
151.12777
  0
LINE
  8
0
  6
CONTINUOUS
 62
     7
 10
-225.04885
 20
152.02777
 11
-222.68472
 21
152.02777
  0
ARC
  8
0
  6
CONTINUOUS
 62
     7
 10
-222.68472
 20
153.37777
 40
1.8
 50
36.008327
 51
143.99168
  0
ARC
  8
0
  6
CONTINUOUS
 62
     7
 10
-222.68472
 20
153.37777
 40
2.7
 50
36.008327
 51
143.99168
  0
ARC
  8
0
  6
CONTINUOUS
 62
     7
 10
-222.68472
 20
149.77777
 40
1.8
 50
216.00833
 51
323.99168
  0
ARC
  8
0
  6
CONTINUOUS
 62
     7
 10
-222.68472
 20
149.77777
 40
2.7
 50
216.00833
 51
323.99168
  0
ARC
  8
0
  6
CONTINUOUS
 62
     7
 10
-220.20799
 20
151.57777
 40
5.7617307
 50
143.99168
 51
175.52056
  0
ARC
  8
0
  6
CONTINUOUS
 62
     7
 10
-220.20799
 20
151.57777
 40
4.8617306
 50
143.99168
 51
174.68912
  0
ARC
  8
0
  6
CONTINUOUS
 62
     7
 10
-225.16145
 20
151.57777
 40
4.8617306
 50
323.99167
 51
36.008327
  0
ARC
  8
0
  6
CONTINUOUS
 62
     7
 10
-225.16145
 20
151.57777
 40
5.7617307
 50
323.99167
 51
355.52055
  0
ARC
  8
0
  6
CONTINUOUS
 62
     7
 10
-226.84722
 20
151.57777
 40
0.5625
 50
126.8699
 51
233.1301
  0
ARC
  8
0
  6
CONTINUOUS
 62
     7
 10
-223.02222
 20
151.57777
 40
0.5625
 50
306.86991
 51
53.130105
  0
ARC
  8
0
  6
CONTINUOUS
 62
     7
 10
-218.52222
 20
151.57777
 40
0.5625
 50
306.86991
 51
53.130105
  0
ARC
  8
0
  6
CONTINUOUS
 62
     7
 10
-220.20799
 20
151.57777
 40
5.7617307
 50
184.47945
 51
216.00833
  0
ARC
  8
0
  6
CONTINUOUS
 62
     7
 10
-220.20799
 20
151.57777
 40
4.8617306
 50
185.31088
 51
216.00833
  0
ARC
  8
0
  6
CONTINUOUS
 62
     7
 10
-225.16145
 20
151.57777
 40
5.7617307
 50
4.4794498
 51
36.008327
  0
LINE
  8
0
  6
CONTINUOUS
 62
     7
 10
-295.68472
 20
151.87777
 11
-294.86299
 21
151.87777
  0
LINE
  8
0
  6
CONTINUOUS
 62
     7
 10
-295.68472
 20
151.27777
 11
-294.86299
 21
151.27777
  0
LINE
  8
0
  6
CONTINUOUS
 62
     7
 10
-290.50646
 20
151.27777
 11
-289.68472
 21
151.27777
  0
LINE
  8
0
  6
CONTINUOUS
 62
     7
 10
-290.50646
 20
151.87777
 11
-289.68472
 21
151.87777
  0
LINE
  8
0
  6
CONTINUOUS
 62
     7
 10
-294.26081
 20
151.27777
 11
-292.68472
 21
151.27777
  0
LINE
  8
0
  6
CONTINUOUS
 62
     7
 10
-294.26081
 20
151.87777
 11
-292.68472
 21
151.87777
  0
ARC
  8
0
  6
CONTINUOUS
 62
     7
 10
-292.68472
 20
152.77777
 40
1.2
 50
36.008327
 51
143.99168
  0
ARC
  8
0
  6
CONTINUOUS
 62
     7
 10
-292.68472
 20
152.77777
 40
1.8
 50
36.008327
 51
143.99168
  0
ARC
  8
0
  6
CONTINUOUS
 62
     7
 10
-292.68472
 20
150.37777
 40
1.2
 50
216.00833
 51
323.99168
  0
ARC
  8
0
  6
CONTINUOUS
 62
     7
 10
-292.68472
 20
150.37777
 40
1.8
 50
216.00833
 51
323.99168
  0
ARC
  8
0
  6
CONTINUOUS
 62
     7
 10
-291.03357
 20
151.57777
 40
3.8411539
 50
143.99168
 51
175.52056
  0
ARC
  8
0
  6
CONTINUOUS
 62
     7
 10
-291.03357
 20
151.57777
 40
3.241154
 50
143.99168
 51
174.68912
  0
ARC
  8
0
  6
CONTINUOUS
 62
     7
 10
-294.33588
 20
151.57777
 40
3.241154
 50
323.99167
 51
36.008327
  0
ARC
  8
0
  6
CONTINUOUS
 62
     7
 10
-294.33588
 20
151.57777
 40
3.8411539
 50
323.99167
 51
355.52055
  0
ARC
  8
0
  6
CONTINUOUS
 62
     7
 10
-295.45972
 20
151.57777
 40
0.375
 50
126.8699
 51
233.1301
  0
ARC
  8
0
  6
CONTINUOUS
 62
     7
 10
-292.90972
 20
151.57777
 40
0.375
 50
306.86991
 51
53.130105
  0
ARC
  8
0
  6
CONTINUOUS
 62
     7
 10
-289.90972
 20
151.57777
 40
0.375
 50
306.86991
 51
53.130105
  0
ARC
  8
0
  6
CONTINUOUS
 62
     7
 10
-294.33588
 20
151.57777
 40
3.8411539
 50
4.4794498
 51
36.008327
  0
ARC
  8
0
  6
CONTINUOUS
 62
     7
 10
-291.03357
 20
151.57777
 40
3.241154
 50
185.31088
 51
216.00833
  0
ARC
  8
0
  6
CONTINUOUS
 62
     7
 10
-291.03357
 20
151.57777
 40
3.8411539
 50
184.47945
 51
216.00833
  0
POINT
  8
1
  6
CONTINUOUS
 62
     7
 10
410
 20
-297.5
  0
LINE
  8
1
  6
CONTINUOUS
 62
     7
 10
-429
 20
-297.5
 11
410
 21
-297.5
  0
LINE
  8
1
  6
CONTINUOUS
 62
     7
 10
-429
 20
297.5
 11
-429
 21
-297.5
  0
LINE
  8
1
  6
CONTINUOUS
 62
     7
 10
410
 20
297.5
 11
410
 21
-297.5
  0
LINE
  8
1
  6
CONTINUOUS
 62
     7
 10
-429
 20
297.5
 11
410
 21
297.5
  0
ENDSEC
  0
EOF
