  0
SECTION
  2
HEADER
  9
$EXTMAX
 10
1259
 20
-913.5
  9
$EXTMIN
 10
417
 20
-1507.5
  0
ENDSEC
  0
SECTION
  2
TABLES
  0
TABLE
  2
LTYPE
 70
    22
  0
LTYPE
  2
CONTINUOUS
 70
    64
  3
Solid line
 72
    65
 73
     0
 40
0.000000
  0
LTYPE
  2
DASHED
 70
    64
  3
__ __ __ __ __ __ __ __ __ __ __ __ __ __ __
 72
    65
 73
     2
 40
3.500000
 49
2.000000
 49
-1.500000
  0
LTYPE
  2
CENTER
 70
    64
  3
____ _ ____ _ ____ _ ____ _ ____ _ ____ _ ____
 72
    65
 73
     4
 40
17.500000
 49
13.000000
 49
-1.500000
 49
1.500000
 49
-1.500000
  0
LTYPE
  2
PHANTOM
 70
    64
  3
_____ _ _ _____ _ _ _____ _ _ _____ _ _ ____  
 72
    65
 73
     6
 40
15.500000
 49
8.000000
 49
-1.500000
 49
1.500000
 49
-1.500000
 49
1.500000
 49
-1.500000
  0
LTYPE
  2
DOT
 70
    64
  3
. . . . . . . . . . . . . . . . . . . . . . . .
 72
    65
 73
     2
 40
0.25
 49
0.0
 49
-0.25
  0
ENDTAB
  0
TABLE
  2
LAYER
 70
     2
  0
LAYER
  2
0
 70
     0
 62
     7
  6
CONTINUOUS
  0
LAYER
  2
1
 70
     0
 62
     7
  6
CONTINUOUS
  0
ENDTAB
  0
TABLE
  2
STYLE
 70
     1
  0
STYLE
  2
STANDARD
 70
     0
 40
0.000000
 41
1.000000
 50
0.000000
 71
     0
 42
0.200000
  3
txt
  4
BIGFONT
  0
ENDTAB
  0
TABLE
  2
VIEW
 70
     0
  0
ENDTAB
  0
ENDSEC
  0
SECTION
  2
BLOCKS
  0
ENDSEC
  0
SECTION
  2
ENTITIES
  0
POINT
  8
0
  6
CONTINUOUS
 62
     7
 10
-275.38977
 20
194.48949
  0
POINT
  8
0
  6
CONTINUOUS
 62
     7
 10
-196.88977
 20
194.48949
  0
POINT
  8
0
  6
CONTINUOUS
 62
     7
 10
-106.88976
 20
194.48949
  0
POINT
  8
0
  6
CONTINUOUS
 62
     7
 10
-145.08723
 20
50.514397
  0
POINT
  8
0
  6
CONTINUOUS
 62
     7
 10
-25.087242
 20
50.514397
  0
POINT
  8
0
  6
CONTINUOUS
 62
     7
 10
104.91276
 20
50.514397
  0
POINT
  8
0
  6
CONTINUOUS
 62
     7
 10
228.62468
 20
-134.59644
  0
POINT
  8
0
  6
CONTINUOUS
 62
     7
 10
38.624687
 20
-134.59644
  0
POINT
  8
0
  6
CONTINUOUS
 62
     7
 10
-131.37532
 20
-134.59644
  0
LINE
  8
0
  6
CENTER
 62
     7
 10
-291.97137
 20
194.48949
 11
-244.18977
 21
194.48949
  0
LINE
  8
0
  6
CENTER
 62
     7
 10
-275.38977
 20
210.33882
 11
-275.38977
 21
163.28949
  0
LINE
  8
0
  6
CONTINUOUS
 62
     7
 10
-261.88977
 20
207.98949
 11
-248.38977
 21
207.98949
  0
LINE
  8
0
  6
CONTINUOUS
 62
     7
 10
-288.88977
 20
180.98949
 11
-288.88977
 21
167.48949
  0
LINE
  8
0
  6
CONTINUOUS
 62
     7
 10
-261.88977
 20
177.98949
 11
-261.88977
 21
167.48949
  0
LINE
  8
0
  6
CONTINUOUS
 62
     7
 10
-258.88977
 20
180.98949
 11
-248.38977
 21
180.98949
  0
LINE
  8
0
  6
CONTINUOUS
 62
     7
 10
-248.38977
 20
180.98949
 11
-248.38977
 21
207.98949
  0
LINE
  8
0
  6
CONTINUOUS
 62
     7
 10
-288.88977
 20
167.48949
 11
-261.88977
 21
167.48949
  0
LINE
  8
0
  6
CENTER
 62
     7
 10
-216.96486
 20
194.48949
 11
-160.68976
 21
194.48949
  0
LINE
  8
0
  6
CENTER
 62
     7
 10
-196.88977
 20
214.47235
 11
-196.88977
 21
158.28949
  0
LINE
  8
0
  6
CONTINUOUS
 62
     7
 10
-180.38976
 20
210.98949
 11
-164.88976
 21
210.98949
  0
LINE
  8
0
  6
CONTINUOUS
 62
     7
 10
-213.38977
 20
177.98949
 11
-213.38977
 21
162.48949
  0
LINE
  8
0
  6
CONTINUOUS
 62
     7
 10
-180.38976
 20
173.98949
 11
-180.38976
 21
162.48949
  0
LINE
  8
0
  6
CONTINUOUS
 62
     7
 10
-176.38976
 20
177.98949
 11
-164.88976
 21
177.98949
  0
LINE
  8
0
  6
CONTINUOUS
 62
     7
 10
-213.38977
 20
162.48949
 11
-180.38976
 21
162.48949
  0
LINE
  8
0
  6
CONTINUOUS
 62
     7
 10
-164.88976
 20
177.98949
 11
-164.88976
 21
210.98949
  0
LINE
  8
0
  6
CENTER
 62
     7
 10
-129.64412
 20
194.48949
 11
-63.889763
 21
194.48949
  0
LINE
  8
0
  6
CENTER
 62
     7
 10
-106.88976
 20
216.93257
 11
-106.88976
 21
151.48949
  0
LINE
  8
0
  6
CONTINUOUS
 62
     7
 10
-86.389763
 20
214.98949
 11
-68.889763
 21
214.98949
  0
LINE
  8
0
  6
CONTINUOUS
 62
     7
 10
-127.38976
 20
173.98949
 11
-127.38976
 21
156.48949
  0
LINE
  8
0
  6
CONTINUOUS
 62
     7
 10
-86.389763
 20
169.98949
 11
-86.389763
 21
156.48949
  0
LINE
  8
0
  6
CONTINUOUS
 62
     7
 10
-82.389763
 20
173.98949
 11
-68.889763
 21
173.98949
  0
LINE
  8
0
  6
CONTINUOUS
 62
     7
 10
-68.889763
 20
173.98949
 11
-68.889763
 21
214.98949
  0
LINE
  8
0
  6
CONTINUOUS
 62
     7
 10
-127.38976
 20
156.48949
 11
-86.389763
 21
156.48949
  0
LINE
  8
0
  6
CENTER
 62
     7
 10
-175.55635
 20
50.514397
 11
-94.087242
 21
50.514397
  0
LINE
  8
0
  6
CENTER
 62
     7
 10
-145.08723
 20
78.245979
 11
-145.08723
 21
-0.48560682
  0
LINE
  8
0
  6
CONTINUOUS
 62
     7
 10
-120.08724
 20
75.514397
 11
-99.087242
 21
75.514397
  0
LINE
  8
0
  6
CONTINUOUS
 62
     7
 10
-170.08723
 20
25.514391
 11
-170.08723
 21
4.5143933
  0
LINE
  8
0
  6
CONTINUOUS
 62
     7
 10
-120.08724
 20
20.514391
 11
-120.08724
 21
4.5143933
  0
LINE
  8
0
  6
CONTINUOUS
 62
     7
 10
-115.08724
 20
25.514391
 11
-99.087242
 21
25.514391
  0
LINE
  8
0
  6
CONTINUOUS
 62
     7
 10
-170.08723
 20
4.5143933
 11
-120.08724
 21
4.5143933
  0
LINE
  8
0
  6
CONTINUOUS
 62
     7
 10
-99.087242
 20
25.514391
 11
-99.087242
 21
75.514397
  0
LINE
  8
0
  6
CENTER
 62
     7
 10
-60.630798
 20
50.514397
 11
27.912758
 21
50.514397
  0
LINE
  8
0
  6
CENTER
 62
     7
 10
-25.087242
 20
81.633614
 11
-25.087242
 21
-2.4856069
  0
LINE
  8
0
  6
CONTINUOUS
 62
     7
 10
2.9127576
 20
78.514397
 11
22.912758
 21
78.514397
  0
LINE
  8
0
  6
CONTINUOUS
 62
     7
 10
-53.087238
 20
22.514391
 11
-53.087238
 21
2.5143931
  0
LINE
  8
0
  6
CONTINUOUS
 62
     7
 10
2.9127576
 20
16.514391
 11
2.9127576
 21
2.5143931
  0
LINE
  8
0
  6
CONTINUOUS
 62
     7
 10
8.9127579
 20
22.514391
 11
22.912758
 21
22.514391
  0
LINE
  8
0
  6
CONTINUOUS
 62
     7
 10
22.912758
 20
22.514391
 11
22.912758
 21
78.514397
  0
LINE
  8
0
  6
CONTINUOUS
 62
     7
 10
-53.087238
 20
2.5144083
 11
2.9127576
 21
2.5144083
  0
LINE
  8
0
  6
CENTER
 62
     7
 10
65.85202
 20
50.514397
 11
166.91277
 21
50.514397
  0
LINE
  8
0
  6
CENTER
 62
     7
 10
104.91276
 20
87.527145
 11
104.91276
 21
-11.485608
  0
LINE
  8
0
  6
CONTINUOUS
 62
     7
 10
139.41277
 20
85.014397
 11
161.91277
 21
85.014397
  0
LINE
  8
0
  6
CONTINUOUS
 62
     7
 10
70.412758
 20
16.014391
 11
70.412758
 21
-6.4856067
  0
LINE
  8
0
  6
CONTINUOUS
 62
     7
 10
139.41277
 20
9.0143909
 11
139.41277
 21
-6.4856067
  0
LINE
  8
0
  6
CONTINUOUS
 62
     7
 10
146.41277
 20
16.014391
 11
161.91277
 21
16.014391
  0
LINE
  8
0
  6
CONTINUOUS
 62
     7
 10
70.412758
 20
-6.4856067
 11
139.41277
 21
-6.4856067
  0
LINE
  8
0
  6
CONTINUOUS
 62
     7
 10
161.91277
 20
16.014391
 11
161.91277
 21
85.014397
  0
LINE
  8
0
  6
CENTER
 62
     7
 10
-177.26262
 20
-134.59644
 11
-55.375313
 21
-134.59644
  0
LINE
  8
0
  6
CENTER
 62
     7
 10
-131.37532
 20
-89.662445
 11
-131.37532
 21
-210.59645
  0
LINE
  8
0
  6
CONTINUOUS
 62
     7
 10
-74.375313
 20
-89.096443
 11
-62.375313
 21
-89.096443
  0
LINE
  8
0
  6
CONTINUOUS
 62
     7
 10
-74.375313
 20
-180.09645
 11
-62.375313
 21
-180.09645
  0
LINE
  8
0
  6
CONTINUOUS
 62
     7
 10
-88.37532
 20
-91.596443
 11
-79.248711
 21
-91.596443
  0
LINE
  8
0
  6
CONTINUOUS
 62
     7
 10
-80.875313
 20
-177.59645
 11
-79.248711
 21
-177.59645
  0
LINE
  8
0
  6
CONTINUOUS
 62
     7
 10
-85.87532
 20
-191.59645
 11
-85.87532
 21
-203.59645
  0
LINE
  8
0
  6
CONTINUOUS
 62
     7
 10
-176.87532
 20
-191.59645
 11
-176.87532
 21
-203.59645
  0
LINE
  8
0
  6
CONTINUOUS
 62
     7
 10
-88.37532
 20
-185.09645
 11
-88.37532
 21
-186.72305
  0
LINE
  8
0
  6
CONTINUOUS
 62
     7
 10
-174.37532
 20
-177.59645
 11
-174.37532
 21
-186.72305
  0
LINE
  8
0
  6
CONTINUOUS
 62
     7
 10
-176.87537
 20
-203.59645
 11
-85.87532
 21
-203.59645
  0
LINE
  8
0
  6
CONTINUOUS
 62
     7
 10
-176.87532
 20
-191.59645
 11
-85.87532
 21
-191.59645
  0
LINE
  8
0
  6
CONTINUOUS
 62
     7
 10
-62.375313
 20
-180.09645
 11
-62.375313
 21
-89.096443
  0
LINE
  8
0
  6
CONTINUOUS
 62
     7
 10
-74.375313
 20
-180.09645
 11
-74.375313
 21
-89.096443
  0
LINE
  8
0
  6
CONTINUOUS
 62
     7
 10
103.62467
 20
-82.096443
 11
116.62467
 21
-82.096443
  0
LINE
  8
0
  6
CONTINUOUS
 62
     7
 10
103.62467
 20
-187.09645
 11
116.62467
 21
-187.09645
  0
LINE
  8
0
  6
CONTINUOUS
 62
     7
 10
88.124672
 20
-85.096443
 11
96.483238
 21
-85.096443
  0
LINE
  8
0
  6
CONTINUOUS
 62
     7
 10
96.124672
 20
-184.09645
 11
96.483238
 21
-184.09645
  0
LINE
  8
0
  6
CONTINUOUS
 62
     7
 10
91.124672
 20
-199.59645
 11
91.124672
 21
-212.59645
  0
LINE
  8
0
  6
CONTINUOUS
 62
     7
 10
-13.875315
 20
-199.59645
 11
-13.875315
 21
-212.59645
  0
LINE
  8
0
  6
CONTINUOUS
 62
     7
 10
88.124672
 20
-192.09645
 11
88.124672
 21
-192.455
  0
LINE
  8
0
  6
CONTINUOUS
 62
     7
 10
-10.875315
 20
-184.09645
 11
-10.875315
 21
-192.45502
  0
LINE
  8
0
  6
CENTER
 62
     7
 10
38.624687
 20
-78.812775
 11
38.624687
 21
-219.99644
  0
LINE
  8
0
  6
CENTER
 62
     7
 10
-18.491465
 20
-134.59644
 11
124.02467
 21
-134.59644
  0
LINE
  8
0
  6
CONTINUOUS
 62
     7
 10
-13.875315
 20
-212.59642
 11
91.124672
 21
-212.59642
  0
LINE
  8
0
  6
CONTINUOUS
 62
     7
 10
-13.875315
 20
-199.59644
 11
91.124672
 21
-199.59644
  0
LINE
  8
0
  6
CONTINUOUS
 62
     7
 10
116.62466
 20
-187.09645
 11
116.62466
 21
-82.096443
  0
LINE
  8
0
  6
CONTINUOUS
 62
     7
 10
103.62466
 20
-187.09645
 11
103.62466
 21
-82.096443
  0
LINE
  8
0
  6
CENTER
 62
     7
 10
156.94679
 20
-134.59644
 11
331.82465
 21
-134.59644
  0
LINE
  8
0
  6
CONTINUOUS
 62
     7
 10
309.62466
 20
-68.096436
 11
325.62466
 21
-68.096436
  0
LINE
  8
0
  6
CONTINUOUS
 62
     7
 10
309.62466
 20
-201.09645
 11
325.62466
 21
-201.09645
  0
LINE
  8
0
  6
CONTINUOUS
 62
     7
 10
292.12466
 20
-71.096436
 11
302.48325
 21
-71.096436
  0
LINE
  8
0
  6
CONTINUOUS
 62
     7
 10
295.12466
 20
-215.59645
 11
295.12466
 21
-231.59645
  0
LINE
  8
0
  6
CONTINUOUS
 62
     7
 10
162.12468
 20
-215.59645
 11
162.12468
 21
-231.59645
  0
LINE
  8
0
  6
CONTINUOUS
 62
     7
 10
165.12468
 20
-198.09645
 11
165.12468
 21
-208.45502
  0
LINE
  8
0
  6
CONTINUOUS
 62
     7
 10
302.12466
 20
-198.09645
 11
302.48325
 21
-198.09645
  0
LINE
  8
0
  6
CONTINUOUS
 62
     7
 10
292.12466
 20
-208.09645
 11
292.12466
 21
-208.45502
  0
LINE
  8
0
  6
CENTER
 62
     7
 10
228.62468
 20
-67.50148
 11
228.62468
 21
-239.79645
  0
LINE
  8
0
  6
CONTINUOUS
 62
     7
 10
162.12468
 20
-231.59645
 11
295.12466
 21
-231.59645
  0
LINE
  8
0
  6
CONTINUOUS
 62
     7
 10
162.12468
 20
-215.59645
 11
295.12466
 21
-215.59645
  0
LINE
  8
0
  6
CONTINUOUS
 62
     7
 10
309.62466
 20
-201.09645
 11
309.62466
 21
-68.096436
  0
LINE
  8
0
  6
CONTINUOUS
 62
     7
 10
325.62466
 20
-201.09645
 11
325.62466
 21
-68.096436
  0
LINE
  8
0
  6
CONTINUOUS
 62
     7
 10
-104.70382
 20
193.15207
 11
-103.54172
 21
191.98996
  0
LINE
  8
0
  6
CONTINUOUS
 62
     7
 10
-105.55235
 20
192.30354
 11
-104.39024
 21
191.14143
  0
LINE
  8
0
  6
CONTINUOUS
 62
     7
 10
-98.229172
 20
184.98036
 11
-97.06707
 21
183.81827
  0
LINE
  8
0
  6
CONTINUOUS
 62
     7
 10
-97.380646
 20
185.82889
 11
-96.218544
 21
184.66679
  0
LINE
  8
0
  6
CONTINUOUS
 62
     7
 10
-103.53864
 20
190.28983
 11
-101.30971
 21
188.0609
  0
LINE
  8
0
  6
CONTINUOUS
 62
     7
 10
-102.69011
 20
191.13835
 11
-100.46118
 21
188.90942
  0
LINE
  8
0
  6
CONTINUOUS
 62
     7
 10
-141.58328
 20
47.858967
 11
-140.42117
 21
46.696854
  0
LINE
  8
0
  6
CONTINUOUS
 62
     7
 10
-142.43182
 20
47.010437
 11
-141.2697
 21
45.84832
  0
LINE
  8
0
  6
CONTINUOUS
 62
     7
 10
-135.10864
 20
39.687263
 11
-133.94655
 21
38.525158
  0
LINE
  8
0
  6
CONTINUOUS
 62
     7
 10
-134.26012
 20
40.535793
 11
-133.09801
 21
39.373692
  0
LINE
  8
0
  6
CONTINUOUS
 62
     7
 10
-140.41809
 20
44.996708
 11
-138.18918
 21
42.767799
  0
LINE
  8
0
  6
CONTINUOUS
 62
     7
 10
-139.56956
 20
45.845242
 11
-137.34065
 21
43.616333
  0
LINE
  8
0
  6
CONTINUOUS
 62
     7
 10
-20.704611
 20
46.980286
 11
-19.542501
 21
45.818176
  0
LINE
  8
0
  6
CONTINUOUS
 62
     7
 10
-21.553141
 20
46.13176
 11
-20.391031
 21
44.96965
  0
LINE
  8
0
  6
CONTINUOUS
 62
     7
 10
-14.229965
 20
38.808582
 11
-13.067859
 21
37.646477
  0
LINE
  8
0
  6
CONTINUOUS
 62
     7
 10
-13.381437
 20
39.657112
 11
-12.21933
 21
38.495007
  0
LINE
  8
0
  6
CONTINUOUS
 62
     7
 10
-19.539419
 20
44.118038
 11
-17.310499
 21
41.889118
  0
LINE
  8
0
  6
CONTINUOUS
 62
     7
 10
-18.690891
 20
44.966564
 11
-16.461971
 21
42.737648
  0
LINE
  8
0
  6
CONTINUOUS
 62
     7
 10
47.395332
 20
-142.09428
 11
49.138489
 21
-143.83745
  0
LINE
  8
0
  6
CONTINUOUS
 62
     7
 10
46.12254
 20
-143.36708
 11
47.865696
 21
-145.11024
  0
LINE
  8
0
  6
CONTINUOUS
 62
     7
 10
57.107304
 20
-154.35185
 11
58.85046
 21
-156.095
  0
LINE
  8
0
  6
CONTINUOUS
 62
     7
 10
58.3801
 20
-153.07906
 11
60.123257
 21
-154.8222
  0
LINE
  8
0
  6
CONTINUOUS
 62
     7
 10
49.143116
 20
-146.38766
 11
52.4865
 21
-149.73105
  0
LINE
  8
0
  6
CONTINUOUS
 62
     7
 10
50.415913
 20
-145.11487
 11
53.759293
 21
-148.45825
  0
LINE
  8
0
  6
CONTINUOUS
 62
     7
 10
241.49583
 20
-146.19479
 11
243.239
 21
-147.93796
  0
LINE
  8
0
  6
CONTINUOUS
 62
     7
 10
240.22304
 20
-147.46759
 11
241.9662
 21
-149.21075
  0
LINE
  8
0
  6
CONTINUOUS
 62
     7
 10
251.20782
 20
-158.45236
 11
252.95096
 21
-160.19551
  0
LINE
  8
0
  6
CONTINUOUS
 62
     7
 10
252.48062
 20
-157.17957
 11
254.22375
 21
-158.92271
  0
LINE
  8
0
  6
CONTINUOUS
 62
     7
 10
243.24364
 20
-150.48817
 11
246.58701
 21
-153.83154
  0
LINE
  8
0
  6
CONTINUOUS
 62
     7
 10
244.51643
 20
-149.21538
 11
247.8598
 21
-152.55875
  0
LINE
  8
0
  6
CONTINUOUS
 62
     7
 10
110.2446
 20
46.243206
 11
111.69723
 21
44.790573
  0
LINE
  8
0
  6
CONTINUOUS
 62
     7
 10
109.18394
 20
45.182545
 11
110.63657
 21
43.729916
  0
LINE
  8
0
  6
CONTINUOUS
 62
     7
 10
118.33791
 20
36.028576
 11
119.79054
 21
34.575943
  0
LINE
  8
0
  6
CONTINUOUS
 62
     7
 10
119.39857
 20
37.089237
 11
120.8512
 21
35.636604
  0
LINE
  8
0
  6
CONTINUOUS
 62
     7
 10
111.70109
 20
42.665398
 11
114.48724
 21
39.879246
  0
LINE
  8
0
  6
CONTINUOUS
 62
     7
 10
112.76174
 20
43.726059
 11
115.5479
 21
40.939907
  0
LINE
  8
0
  6
CONTINUOUS
 62
     7
 10
-194.92082
 20
193.15694
 11
-194.04924
 21
192.28535
  0
LINE
  8
0
  6
CONTINUOUS
 62
     7
 10
-195.55721
 20
192.52055
 11
-194.68562
 21
191.64897
  0
LINE
  8
0
  6
CONTINUOUS
 62
     7
 10
-190.0648
 20
187.02815
 11
-189.19325
 21
186.15659
  0
LINE
  8
0
  6
CONTINUOUS
 62
     7
 10
-189.42842
 20
187.66454
 11
-188.55685
 21
186.79298
  0
LINE
  8
0
  6
CONTINUOUS
 62
     7
 10
-194.04691
 20
191.01024
 11
-192.37523
 21
189.33856
  0
LINE
  8
0
  6
CONTINUOUS
 62
     7
 10
-193.41051
 20
191.64664
 11
-191.73883
 21
189.97496
  0
LINE
  8
0
  6
CONTINUOUS
 62
     7
 10
-274.2995
 20
194.03561
 11
-273.42792
 21
193.16403
  0
LINE
  8
0
  6
CONTINUOUS
 62
     7
 10
-274.93588
 20
193.39922
 11
-274.0643
 21
192.52763
  0
LINE
  8
0
  6
CONTINUOUS
 62
     7
 10
-269.44351
 20
187.90681
 11
-268.57193
 21
187.03525
  0
LINE
  8
0
  6
CONTINUOUS
 62
     7
 10
-268.8071
 20
188.54321
 11
-267.93555
 21
187.67165
  0
LINE
  8
0
  6
CONTINUOUS
 62
     7
 10
-273.4256
 20
191.88892
 11
-271.75391
 21
190.21724
  0
LINE
  8
0
  6
CONTINUOUS
 62
     7
 10
-272.78918
 20
192.52531
 11
-271.11752
 21
190.85364
  0
LINE
  8
0
  6
CONTINUOUS
 62
     7
 10
-126.04348
 20
-138.86761
 11
-124.59084
 21
-140.32025
  0
LINE
  8
0
  6
CONTINUOUS
 62
     7
 10
-127.10414
 20
-139.92828
 11
-125.6515
 21
-141.38092
  0
LINE
  8
0
  6
CONTINUOUS
 62
     7
 10
-117.95016
 20
-149.08224
 11
-116.49754
 21
-150.53488
  0
LINE
  8
0
  6
CONTINUOUS
 62
     7
 10
-116.8895
 20
-148.02159
 11
-115.43687
 21
-149.47423
  0
LINE
  8
0
  6
CONTINUOUS
 62
     7
 10
-124.58698
 20
-142.44543
 11
-121.80083
 21
-145.23158
  0
LINE
  8
0
  6
CONTINUOUS
 62
     7
 10
-123.52633
 20
-141.38478
 11
-120.74018
 21
-144.17091
  0
ARC
  8
0
  6
CONTINUOUS
 62
     7
 10
-258.88977
 20
177.98949
 40
3
 50
89.999982
 51
179.99996
  0
ARC
  8
0
  6
CONTINUOUS
 62
     7
 10
-261.88977
 20
180.98949
 40
27
 50
89.999982
 51
179.99996
  0
ARC
  8
0
  6
CONTINUOUS
 62
     7
 10
-176.38976
 20
173.98949
 40
4
 50
89.999982
 51
179.99996
  0
ARC
  8
0
  6
CONTINUOUS
 62
     7
 10
-180.38976
 20
177.98949
 40
33
 50
89.999982
 51
179.99996
  0
ARC
  8
0
  6
CONTINUOUS
 62
     7
 10
-82.389763
 20
169.98949
 40
4
 50
89.999982
 51
179.99996
  0
ARC
  8
0
  6
CONTINUOUS
 62
     7
 10
-86.389763
 20
173.98949
 40
41
 50
89.999982
 51
179.99996
  0
ARC
  8
0
  6
CONTINUOUS
 62
     7
 10
-115.08724
 20
20.514391
 40
5
 50
89.999982
 51
179.99996
  0
ARC
  8
0
  6
CONTINUOUS
 62
     7
 10
-120.08724
 20
25.514391
 40
50
 50
89.999982
 51
179.99996
  0
ARC
  8
0
  6
CONTINUOUS
 62
     7
 10
-48.065754
 20
18.014391
 40
2.5
 50
62.964796
 51
67.585159
  0
ARC
  8
0
  6
CONTINUOUS
 62
     7
 10
8.9127579
 20
16.514391
 40
6
 50
89.999982
 51
179.99996
  0
ARC
  8
0
  6
CONTINUOUS
 62
     7
 10
2.9127576
 20
22.514391
 40
56
 50
89.999982
 51
179.99996
  0
ARC
  8
0
  6
CONTINUOUS
 62
     7
 10
146.41277
 20
9.0143909
 40
7
 50
89.999982
 51
179.99996
  0
ARC
  8
0
  6
CONTINUOUS
 62
     7
 10
139.41277
 20
16.014391
 40
69
 50
89.999982
 51
179.99996
  0
ARC
  8
0
  6
CONTINUOUS
 62
     7
 10
-79.248711
 20
-85.596443
 40
6
 50
270
 51
324.31468
  0
ARC
  8
0
  6
CONTINUOUS
 62
     7
 10
-79.248711
 20
-183.59645
 40
6
 50
35.685334
 51
90.000003
  0
ARC
  8
0
  6
CONTINUOUS
 62
     7
 10
-82.375313
 20
-186.72305
 40
6
 50
180.00001
 51
234.31468
  0
ARC
  8
0
  6
CONTINUOUS
 62
     7
 10
-180.37534
 20
-186.72305
 40
6
 50
305.68534
 51
6.8301892E-006
  0
ARC
  8
0
  6
CONTINUOUS
 62
     7
 10
-80.875313
 20
-185.09645
 40
7.5
 50
89.999982
 51
179.99996
  0
ARC
  8
0
  6
CONTINUOUS
 62
     7
 10
-88.37532
 20
-177.59645
 40
86
 50
89.999982
 51
179.99996
  0
ARC
  8
0
  6
CONTINUOUS
 62
     7
 10
96.483238
 20
-75.096436
 40
10
 50
270
 51
315.57299
  0
ARC
  8
0
  6
CONTINUOUS
 62
     7
 10
96.483238
 20
-194.09645
 40
10
 50
44.427003
 51
90.000003
  0
ARC
  8
0
  6
CONTINUOUS
 62
     7
 10
98.124672
 20
-192.455
 40
10
 50
180.00001
 51
225.573
  0
ARC
  8
0
  6
CONTINUOUS
 62
     7
 10
-20.875315
 20
-192.45502
 40
10
 50
314.42701
 51
6.8301892E-006
  0
ARC
  8
0
  6
CONTINUOUS
 62
     7
 10
96.124672
 20
-192.09645
 40
8
 50
89.999982
 51
179.99996
  0
ARC
  8
0
  6
CONTINUOUS
 62
     7
 10
88.124672
 20
-184.09645
 40
99
 50
89.999982
 51
179.99996
  0
ARC
  8
0
  6
CONTINUOUS
 62
     7
 10
302.48325
 20
-61.096436
 40
10
 50
270
 51
315.57299
  0
ARC
  8
0
  6
CONTINUOUS
 62
     7
 10
302.48325
 20
-208.09645
 40
10
 50
44.427003
 51
90.000003
  0
ARC
  8
0
  6
CONTINUOUS
 62
     7
 10
302.12466
 20
-208.45502
 40
10
 50
180.00001
 51
225.573
  0
ARC
  8
0
  6
CONTINUOUS
 62
     7
 10
155.12468
 20
-208.45503
 40
10
 50
314.42701
 51
6.8301892E-006
  0
ARC
  8
0
  6
CONTINUOUS
 62
     7
 10
302.12466
 20
-208.09645
 40
10
 50
89.999982
 51
179.99996
  0
ARC
  8
0
  6
CONTINUOUS
 62
     7
 10
292.12466
 20
-198.09645
 40
127
 50
89.999982
 51
179.99996
  0
ARC
  8
0
  6
CONTINUOUS
 62
     7
 10
-99.188393
 20
190.18222
 40
2.4000001
 50
351.00832
 51
98.991673
  0
ARC
  8
0
  6
CONTINUOUS
 62
     7
 10
-99.188393
 20
190.18222
 40
3.5999999
 50
351.00832
 51
98.991673
  0
ARC
  8
0
  6
CONTINUOUS
 62
     7
 10
-102.5825
 20
186.78812
 40
2.4000001
 50
171.00833
 51
278.99167
  0
ARC
  8
0
  6
CONTINUOUS
 62
     7
 10
-102.5825
 20
186.78812
 40
3.5999999
 50
171.00833
 51
278.99167
  0
ARC
  8
0
  6
CONTINUOUS
 62
     7
 10
-98.550362
 20
186.15009
 40
7.6823077
 50
98.991673
 51
130.52056
  0
ARC
  8
0
  6
CONTINUOUS
 62
     7
 10
-98.550362
 20
186.15009
 40
6.4823079
 50
98.991673
 51
129.68912
  0
ARC
  8
0
  6
CONTINUOUS
 62
     7
 10
-103.22053
 20
190.82025
 40
6.4823079
 50
278.99167
 51
351.00832
  0
ARC
  8
0
  6
CONTINUOUS
 62
     7
 10
-103.22053
 20
190.82025
 40
7.6823077
 50
278.99167
 51
310.52055
  0
ARC
  8
0
  6
CONTINUOUS
 62
     7
 10
-104.80988
 20
192.40961
 40
0.75
 50
81.869899
 51
188.1301
  0
ARC
  8
0
  6
CONTINUOUS
 62
     7
 10
-101.20364
 20
188.80336
 40
0.75
 50
261.8699
 51
8.1301031
  0
ARC
  8
0
  6
CONTINUOUS
 62
     7
 10
-96.961006
 20
184.56073
 40
0.75
 50
261.8699
 51
8.1301031
  0
ARC
  8
0
  6
CONTINUOUS
 62
     7
 10
-98.550362
 20
186.15009
 40
6.4823079
 50
140.31088
 51
171.00833
  0
ARC
  8
0
  6
CONTINUOUS
 62
     7
 10
-98.550362
 20
186.15009
 40
7.6823077
 50
139.47946
 51
171.00833
  0
ARC
  8
0
  6
CONTINUOUS
 62
     7
 10
-103.22053
 20
190.82025
 40
7.6823077
 50
319.47945
 51
351.00832
  0
ARC
  8
0
  6
CONTINUOUS
 62
     7
 10
-136.06786
 20
44.889122
 40
2.4000001
 50
351.00832
 51
98.991673
  0
ARC
  8
0
  6
CONTINUOUS
 62
     7
 10
-136.06786
 20
44.889122
 40
3.5999999
 50
351.00832
 51
98.991673
  0
ARC
  8
0
  6
CONTINUOUS
 62
     7
 10
-139.46196
 20
41.49501
 40
2.4000001
 50
171.00833
 51
278.99167
  0
ARC
  8
0
  6
CONTINUOUS
 62
     7
 10
-139.46196
 20
41.49501
 40
3.5999999
 50
171.00833
 51
278.99167
  0
ARC
  8
0
  6
CONTINUOUS
 62
     7
 10
-135.42982
 20
40.856979
 40
7.6823077
 50
98.991673
 51
130.52056
  0
ARC
  8
0
  6
CONTINUOUS
 62
     7
 10
-135.42982
 20
40.856979
 40
6.4823079
 50
98.991673
 51
129.68912
  0
ARC
  8
0
  6
CONTINUOUS
 62
     7
 10
-140.09999
 20
45.527145
 40
6.4823079
 50
278.99167
 51
351.00832
  0
ARC
  8
0
  6
CONTINUOUS
 62
     7
 10
-140.09999
 20
45.527145
 40
7.6823077
 50
278.99167
 51
310.52055
  0
ARC
  8
0
  6
CONTINUOUS
 62
     7
 10
-141.68935
 20
47.116508
 40
0.75
 50
81.869899
 51
188.1301
  0
ARC
  8
0
  6
CONTINUOUS
 62
     7
 10
-138.0831
 20
43.510262
 40
0.75
 50
261.8699
 51
8.1301031
  0
ARC
  8
0
  6
CONTINUOUS
 62
     7
 10
-133.84047
 20
39.26762
 40
0.75
 50
261.8699
 51
8.1301031
  0
ARC
  8
0
  6
CONTINUOUS
 62
     7
 10
-135.42982
 20
40.856979
 40
6.4823079
 50
140.31088
 51
171.00833
  0
ARC
  8
0
  6
CONTINUOUS
 62
     7
 10
-135.42982
 20
40.856979
 40
7.6823077
 50
139.47946
 51
171.00833
  0
ARC
  8
0
  6
CONTINUOUS
 62
     7
 10
-140.09999
 20
45.527145
 40
7.6823077
 50
319.47945
 51
351.00832
  0
ARC
  8
0
  6
CONTINUOUS
 62
     7
 10
-15.189178
 20
44.010437
 40
2.4000001
 50
351.00832
 51
98.991673
  0
ARC
  8
0
  6
CONTINUOUS
 62
     7
 10
-15.189178
 20
44.010437
 40
3.5999999
 50
351.00832
 51
98.991673
  0
ARC
  8
0
  6
CONTINUOUS
 62
     7
 10
-18.583288
 20
40.616325
 40
2.4000001
 50
171.00833
 51
278.99167
  0
ARC
  8
0
  6
CONTINUOUS
 62
     7
 10
-18.583288
 20
40.616325
 40
3.5999999
 50
171.00833
 51
278.99167
  0
ARC
  8
0
  6
CONTINUOUS
 62
     7
 10
-14.551148
 20
39.978298
 40
7.6823077
 50
98.991673
 51
130.52056
  0
ARC
  8
0
  6
CONTINUOUS
 62
     7
 10
-14.551148
 20
39.978298
 40
6.4823079
 50
98.991673
 51
129.68912
  0
ARC
  8
0
  6
CONTINUOUS
 62
     7
 10
-19.221317
 20
44.648468
 40
6.4823079
 50
278.99167
 51
351.00832
  0
ARC
  8
0
  6
CONTINUOUS
 62
     7
 10
-19.221317
 20
44.648468
 40
7.6823077
 50
278.99167
 51
310.52055
  0
ARC
  8
0
  6
CONTINUOUS
 62
     7
 10
-20.810675
 20
46.237823
 40
0.75
 50
81.869899
 51
188.1301
  0
ARC
  8
0
  6
CONTINUOUS
 62
     7
 10
-17.20443
 20
42.631584
 40
0.75
 50
261.8699
 51
8.1301031
  0
ARC
  8
0
  6
CONTINUOUS
 62
     7
 10
-12.961791
 20
38.388939
 40
0.75
 50
261.8699
 51
8.1301031
  0
ARC
  8
0
  6
CONTINUOUS
 62
     7
 10
-14.551148
 20
39.978298
 40
6.4823079
 50
140.31088
 51
171.00833
  0
ARC
  8
0
  6
CONTINUOUS
 62
     7
 10
-14.551148
 20
39.978298
 40
7.6823077
 50
139.47946
 51
171.00833
  0
ARC
  8
0
  6
CONTINUOUS
 62
     7
 10
-19.221317
 20
44.648468
 40
7.6823077
 50
319.47945
 51
351.00832
  0
ARC
  8
0
  6
CONTINUOUS
 62
     7
 10
55.668484
 20
-146.54907
 40
3.5999999
 50
351.00832
 51
98.991673
  0
ARC
  8
0
  6
CONTINUOUS
 62
     7
 10
55.668484
 20
-146.54907
 40
5.4000001
 50
351.00832
 51
98.991673
  0
ARC
  8
0
  6
CONTINUOUS
 62
     7
 10
50.577316
 20
-151.64024
 40
3.5999999
 50
171.00833
 51
278.99167
  0
ARC
  8
0
  6
CONTINUOUS
 62
     7
 10
50.577316
 20
-151.64024
 40
5.4000001
 50
171.00833
 51
278.99167
  0
ARC
  8
0
  6
CONTINUOUS
 62
     7
 10
56.625526
 20
-152.59727
 40
11.523461
 50
98.991673
 51
130.52056
  0
ARC
  8
0
  6
CONTINUOUS
 62
     7
 10
56.625526
 20
-152.59727
 40
9.7234612
 50
98.991673
 51
129.68912
  0
ARC
  8
0
  6
CONTINUOUS
 62
     7
 10
49.620274
 20
-145.59203
 40
9.7234612
 50
278.99167
 51
351.00832
  0
ARC
  8
0
  6
CONTINUOUS
 62
     7
 10
49.620274
 20
-145.59203
 40
11.523461
 50
278.99167
 51
310.52055
  0
ARC
  8
0
  6
CONTINUOUS
 62
     7
 10
47.236237
 20
-143.20798
 40
1.125
 50
81.869899
 51
188.1301
  0
ARC
  8
0
  6
CONTINUOUS
 62
     7
 10
52.645603
 20
-148.61736
 40
1.125
 50
261.8699
 51
8.1301031
  0
ARC
  8
0
  6
CONTINUOUS
 62
     7
 10
59.009563
 20
-154.98132
 40
1.125
 50
261.8699
 51
8.1301031
  0
ARC
  8
0
  6
CONTINUOUS
 62
     7
 10
56.625526
 20
-152.59727
 40
11.523461
 50
139.47946
 51
171.00833
  0
ARC
  8
0
  6
CONTINUOUS
 62
     7
 10
56.625526
 20
-152.59727
 40
9.7234612
 50
140.31088
 51
171.00833
  0
ARC
  8
0
  6
CONTINUOUS
 62
     7
 10
49.620274
 20
-145.59203
 40
11.523461
 50
319.47945
 51
351.00832
  0
ARC
  8
0
  6
CONTINUOUS
 62
     7
 10
249.76898
 20
-150.64958
 40
3.5999999
 50
351.00832
 51
98.991673
  0
ARC
  8
0
  6
CONTINUOUS
 62
     7
 10
249.76898
 20
-150.64958
 40
5.4000001
 50
351.00832
 51
98.991673
  0
ARC
  8
0
  6
CONTINUOUS
 62
     7
 10
244.67783
 20
-155.74075
 40
3.5999999
 50
171.00833
 51
278.99167
  0
ARC
  8
0
  6
CONTINUOUS
 62
     7
 10
244.67783
 20
-155.74075
 40
5.4000001
 50
171.00833
 51
278.99167
  0
ARC
  8
0
  6
CONTINUOUS
 62
     7
 10
250.72603
 20
-156.69778
 40
11.523461
 50
98.991673
 51
130.52056
  0
ARC
  8
0
  6
CONTINUOUS
 62
     7
 10
250.72603
 20
-156.69778
 40
9.7234612
 50
98.991673
 51
129.68912
  0
ARC
  8
0
  6
CONTINUOUS
 62
     7
 10
243.72078
 20
-149.69254
 40
9.7234612
 50
278.99167
 51
351.00832
  0
ARC
  8
0
  6
CONTINUOUS
 62
     7
 10
243.72078
 20
-149.69254
 40
11.523461
 50
278.99167
 51
310.52055
  0
ARC
  8
0
  6
CONTINUOUS
 62
     7
 10
241.33675
 20
-147.3085
 40
1.125
 50
81.869899
 51
188.1301
  0
ARC
  8
0
  6
CONTINUOUS
 62
     7
 10
246.74611
 20
-152.71786
 40
1.125
 50
261.8699
 51
8.1301031
  0
ARC
  8
0
  6
CONTINUOUS
 62
     7
 10
253.11006
 20
-159.08183
 40
1.125
 50
261.8699
 51
8.1301031
  0
ARC
  8
0
  6
CONTINUOUS
 62
     7
 10
250.72603
 20
-156.69778
 40
11.523461
 50
139.47946
 51
171.00833
  0
ARC
  8
0
  6
CONTINUOUS
 62
     7
 10
250.72603
 20
-156.69778
 40
9.7234612
 50
140.31088
 51
171.00833
  0
ARC
  8
0
  6
CONTINUOUS
 62
     7
 10
243.72078
 20
-149.69254
 40
11.523461
 50
319.47945
 51
351.00832
  0
ARC
  8
0
  6
CONTINUOUS
 62
     7
 10
117.13889
 20
42.530899
 40
3
 50
351.00832
 51
98.991673
  0
ARC
  8
0
  6
CONTINUOUS
 62
     7
 10
117.13889
 20
42.530899
 40
4.5
 50
351.00832
 51
98.991673
  0
ARC
  8
0
  6
CONTINUOUS
 62
     7
 10
112.89625
 20
38.288258
 40
3
 50
171.00833
 51
278.99167
  0
ARC
  8
0
  6
CONTINUOUS
 62
     7
 10
112.89625
 20
38.288258
 40
4.5
 50
171.00833
 51
278.99167
  0
ARC
  8
0
  6
CONTINUOUS
 62
     7
 10
117.93642
 20
37.490723
 40
9.6028843
 50
98.991673
 51
130.52056
  0
ARC
  8
0
  6
CONTINUOUS
 62
     7
 10
117.93642
 20
37.490723
 40
8.1028843
 50
98.991673
 51
129.68912
  0
ARC
  8
0
  6
CONTINUOUS
 62
     7
 10
112.09872
 20
43.32843
 40
8.1028843
 50
278.99167
 51
351.00832
  0
ARC
  8
0
  6
CONTINUOUS
 62
     7
 10
112.09872
 20
43.32843
 40
9.6028843
 50
278.99167
 51
310.52055
  0
ARC
  8
0
  6
CONTINUOUS
 62
     7
 10
110.11201
 20
45.315132
 40
0.9375
 50
81.869899
 51
188.1301
  0
ARC
  8
0
  6
CONTINUOUS
 62
     7
 10
114.61982
 20
40.807327
 40
0.9375
 50
261.8699
 51
8.1301031
  0
ARC
  8
0
  6
CONTINUOUS
 62
     7
 10
119.92313
 20
35.504025
 40
0.9375
 50
261.8699
 51
8.1301031
  0
ARC
  8
0
  6
CONTINUOUS
 62
     7
 10
117.93642
 20
37.490723
 40
9.6028843
 50
139.47946
 51
171.00833
  0
ARC
  8
0
  6
CONTINUOUS
 62
     7
 10
117.93642
 20
37.490723
 40
8.1028843
 50
140.31088
 51
171.00833
  0
ARC
  8
0
  6
CONTINUOUS
 62
     7
 10
112.09872
 20
43.32843
 40
9.6028843
 50
319.47945
 51
351.00832
  0
ARC
  8
0
  6
CONTINUOUS
 62
     7
 10
-190.78423
 20
190.92955
 40
1.8
 50
351.00832
 51
98.991673
  0
ARC
  8
0
  6
CONTINUOUS
 62
     7
 10
-190.78423
 20
190.92955
 40
2.7
 50
351.00832
 51
98.991673
  0
ARC
  8
0
  6
CONTINUOUS
 62
     7
 10
-193.3298
 20
188.38396
 40
1.8
 50
171.00833
 51
278.99167
  0
ARC
  8
0
  6
CONTINUOUS
 62
     7
 10
-193.3298
 20
188.38396
 40
2.7
 50
171.00833
 51
278.99167
  0
ARC
  8
0
  6
CONTINUOUS
 62
     7
 10
-190.30571
 20
187.90544
 40
5.7617307
 50
98.991673
 51
130.52056
  0
ARC
  8
0
  6
CONTINUOUS
 62
     7
 10
-190.30571
 20
187.90544
 40
4.8617306
 50
98.991673
 51
129.68912
  0
ARC
  8
0
  6
CONTINUOUS
 62
     7
 10
-193.80833
 20
191.40807
 40
4.8617306
 50
278.99167
 51
351.00832
  0
ARC
  8
0
  6
CONTINUOUS
 62
     7
 10
-193.80833
 20
191.40807
 40
5.7617307
 50
278.99167
 51
310.52055
  0
ARC
  8
0
  6
CONTINUOUS
 62
     7
 10
-195.00035
 20
192.60008
 40
0.5625
 50
81.869899
 51
188.1301
  0
ARC
  8
0
  6
CONTINUOUS
 62
     7
 10
-192.29567
 20
189.8954
 40
0.5625
 50
261.8699
 51
8.1301031
  0
ARC
  8
0
  6
CONTINUOUS
 62
     7
 10
-189.11369
 20
186.71342
 40
0.5625
 50
261.8699
 51
8.1301031
  0
ARC
  8
0
  6
CONTINUOUS
 62
     7
 10
-190.30571
 20
187.90544
 40
5.7617307
 50
139.47946
 51
171.00833
  0
ARC
  8
0
  6
CONTINUOUS
 62
     7
 10
-190.30571
 20
187.90544
 40
4.8617306
 50
140.31088
 51
171.00833
  0
ARC
  8
0
  6
CONTINUOUS
 62
     7
 10
-193.80833
 20
191.40807
 40
5.7617307
 50
319.47945
 51
351.00832
  0
ARC
  8
0
  6
CONTINUOUS
 62
     7
 10
-270.1629
 20
191.80823
 40
1.8
 50
351.00832
 51
98.991673
  0
ARC
  8
0
  6
CONTINUOUS
 62
     7
 10
-270.1629
 20
191.80823
 40
2.7
 50
351.00832
 51
98.991673
  0
ARC
  8
0
  6
CONTINUOUS
 62
     7
 10
-272.7085
 20
189.26263
 40
1.8
 50
171.00833
 51
278.99167
  0
ARC
  8
0
  6
CONTINUOUS
 62
     7
 10
-272.7085
 20
189.26263
 40
2.7
 50
171.00833
 51
278.99167
  0
ARC
  8
0
  6
CONTINUOUS
 62
     7
 10
-269.68439
 20
188.78412
 40
5.7617307
 50
98.991673
 51
130.52056
  0
ARC
  8
0
  6
CONTINUOUS
 62
     7
 10
-269.68439
 20
188.78412
 40
4.8617306
 50
98.991673
 51
129.68912
  0
ARC
  8
0
  6
CONTINUOUS
 62
     7
 10
-273.18701
 20
192.28674
 40
4.8617306
 50
278.99167
 51
351.00832
  0
ARC
  8
0
  6
CONTINUOUS
 62
     7
 10
-273.18701
 20
192.28674
 40
5.7617307
 50
278.99167
 51
310.52055
  0
ARC
  8
0
  6
CONTINUOUS
 62
     7
 10
-274.37903
 20
193.47876
 40
0.5625
 50
81.869899
 51
188.1301
  0
ARC
  8
0
  6
CONTINUOUS
 62
     7
 10
-271.67435
 20
190.77408
 40
0.5625
 50
261.8699
 51
8.1301031
  0
ARC
  8
0
  6
CONTINUOUS
 62
     7
 10
-268.49237
 20
187.5921
 40
0.5625
 50
261.8699
 51
8.1301031
  0
ARC
  8
0
  6
CONTINUOUS
 62
     7
 10
-269.68439
 20
188.78412
 40
5.7617307
 50
139.47946
 51
171.00833
  0
ARC
  8
0
  6
CONTINUOUS
 62
     7
 10
-269.68439
 20
188.78412
 40
4.8617306
 50
140.31088
 51
171.00833
  0
ARC
  8
0
  6
CONTINUOUS
 62
     7
 10
-273.18701
 20
192.28674
 40
5.7617307
 50
319.47945
 51
351.00832
  0
ARC
  8
0
  6
CONTINUOUS
 62
     7
 10
-119.14919
 20
-142.57993
 40
3
 50
351.00832
 51
98.991673
  0
ARC
  8
0
  6
CONTINUOUS
 62
     7
 10
-119.14919
 20
-142.57993
 40
4.5
 50
351.00832
 51
98.991673
  0
ARC
  8
0
  6
CONTINUOUS
 62
     7
 10
-123.39183
 20
-146.82259
 40
3
 50
171.00833
 51
278.99167
  0
ARC
  8
0
  6
CONTINUOUS
 62
     7
 10
-123.39183
 20
-146.82259
 40
4.5
 50
171.00833
 51
278.99167
  0
ARC
  8
0
  6
CONTINUOUS
 62
     7
 10
-118.35165
 20
-147.62012
 40
9.6028843
 50
98.991673
 51
130.52056
  0
ARC
  8
0
  6
CONTINUOUS
 62
     7
 10
-118.35165
 20
-147.62012
 40
8.1028843
 50
98.991673
 51
129.68912
  0
ARC
  8
0
  6
CONTINUOUS
 62
     7
 10
-124.18936
 20
-141.78239
 40
8.1028843
 50
278.99167
 51
351.00832
  0
ARC
  8
0
  6
CONTINUOUS
 62
     7
 10
-124.18936
 20
-141.78239
 40
9.6028843
 50
278.99167
 51
310.52055
  0
ARC
  8
0
  6
CONTINUOUS
 62
     7
 10
-126.17606
 20
-139.7957
 40
0.9375
 50
81.869899
 51
188.1301
  0
ARC
  8
0
  6
CONTINUOUS
 62
     7
 10
-121.66826
 20
-144.3035
 40
0.9375
 50
261.8699
 51
8.1301031
  0
ARC
  8
0
  6
CONTINUOUS
 62
     7
 10
-116.36496
 20
-149.60681
 40
0.9375
 50
261.8699
 51
8.1301031
  0
ARC
  8
0
  6
CONTINUOUS
 62
     7
 10
-118.35165
 20
-147.62012
 40
9.6028843
 50
139.47946
 51
171.00833
  0
ARC
  8
0
  6
CONTINUOUS
 62
     7
 10
-118.35165
 20
-147.62012
 40
8.1028843
 50
140.31088
 51
171.00833
  0
ARC
  8
0
  6
CONTINUOUS
 62
     7
 10
-124.18936
 20
-141.78239
 40
9.6028843
 50
319.47945
 51
351.00832
  0
TEXT
  8
0
  6
CONTINUOUS
 62
     7
 10
-283.22281
 20
226.18127
 40
8
 41
0.85534224
  1
１／２
  0
TEXT
  8
0
  6
CONTINUOUS
 62
     7
 10
-202.91017
 20
229.11954
 40
8
 41
0.85534224
  1
３／４
  0
TEXT
  8
0
  6
CONTINUOUS
 62
     7
 10
-99.091405
 20
231.07838
 40
8
 41
0.90036054
  1
１
  0
TEXT
  8
0
  6
CONTINUOUS
 62
     7
 10
-152.00938
 20
98.575554
 40
8
 41
0.85124966
  1
１１／４
  0
TEXT
  8
0
  6
CONTINUOUS
 62
     7
 10
-23.705054
 20
100.5344
 40
8
 41
0.85124966
  1
１１／２
  0
TEXT
  8
0
  6
CONTINUOUS
 62
     7
 10
113.41408
 20
107.39036
 40
8
 41
0.90036054
  1
２
  0
TEXT
  8
0
  6
CONTINUOUS
 62
     7
 10
-133.90886
 20
-68.143349
 40
8
 41
0.85124966
  1
２１／２
  0
TEXT
  8
0
  6
CONTINUOUS
 62
     7
 10
49.243118
 20
-65.205078
 40
8
 41
0.90036054
  1
３
  0
TEXT
  8
0
  6
CONTINUOUS
 62
     7
 10
251.98355
 20
-42.678368
 40
8
 41
0.90036054
  1
４
  0
TEXT
  8
0
  6
CONTINUOUS
 62
     7
 10
-379.08815
 20
266.396
 40
12
 41
0.8437661
  1
ＲＣＦ－Ｋ　Ｌ（エルボ）
  0
POINT
  8
1
  6
CONTINUOUS
 62
     7
 10
410
 20
-297.5
  0
LINE
  8
1
  6
CONTINUOUS
 62
     7
 10
-429
 20
-297.5
 11
410
 21
-297.5
  0
LINE
  8
1
  6
CONTINUOUS
 62
     7
 10
-429
 20
297.5
 11
-429
 21
-297.5
  0
LINE
  8
1
  6
CONTINUOUS
 62
     7
 10
410
 20
297.5
 11
410
 21
-297.5
  0
LINE
  8
1
  6
CONTINUOUS
 62
     7
 10
-429
 20
297.5
 11
410
 21
297.5
  0
ENDSEC
  0
EOF
