  0
SECTION
  2
HEADER
  9
$EXTMAX
 10
0
 20
297
  9
$EXTMIN
 10
-420
 20
0
  0
ENDSEC
  0
SECTION
  2
TABLES
  0
TABLE
  2
LTYPE
 70
    22
  0
LTYPE
  2
CONTINUOUS
 70
    64
  3
Solid line
 72
    65
 73
     0
 40
0.000000
  0
LTYPE
  2
DASHED
 70
    64
  3
__ __ __ __ __ __ __ __ __ __ __ __ __ __ __
 72
    65
 73
     2
 40
3.500000
 49
2.000000
 49
-1.500000
  0
LTYPE
  2
CENTER
 70
    64
  3
____ _ ____ _ ____ _ ____ _ ____ _ ____ _ ____
 72
    65
 73
     4
 40
17.500000
 49
13.000000
 49
-1.500000
 49
1.500000
 49
-1.500000
  0
LTYPE
  2
PHANTOM
 70
    64
  3
_____ _ _ _____ _ _ _____ _ _ _____ _ _ ____  
 72
    65
 73
     6
 40
15.500000
 49
8.000000
 49
-1.500000
 49
1.500000
 49
-1.500000
 49
1.500000
 49
-1.500000
  0
LTYPE
  2
DOT
 70
    64
  3
. . . . . . . . . . . . . . . . . . . . . . . .
 72
    65
 73
     2
 40
0.25
 49
0.0
 49
-0.25
  0
ENDTAB
  0
TABLE
  2
LAYER
 70
     2
  0
LAYER
  2
0
 70
     0
 62
     7
  6
CONTINUOUS
  0
LAYER
  2
1
 70
     0
 62
     7
  6
CONTINUOUS
  0
ENDTAB
  0
TABLE
  2
STYLE
 70
     1
  0
STYLE
  2
STANDARD
 70
     0
 40
0.000000
 41
1.000000
 50
0.000000
 71
     0
 42
0.200000
  3
txt
  4
BIGFONT
  0
ENDTAB
  0
TABLE
  2
VIEW
 70
     0
  0
ENDTAB
  0
ENDSEC
  0
SECTION
  2
BLOCKS
  0
ENDSEC
  0
SECTION
  2
ENTITIES
  0
POINT
  8
0
  6
CONTINUOUS
 62
     7
 10
-359.97501
 20
214.55
  0
POINT
  8
0
  6
CONTINUOUS
 62
     7
 10
-285.9816
 20
214.55
  0
POINT
  8
0
  6
CONTINUOUS
 62
     7
 10
-205.48131
 20
214.55
  0
POINT
  8
0
  6
CONTINUOUS
 62
     7
 10
-115.95345
 20
214.55
  0
POINT
  8
0
  6
CONTINUOUS
 62
     7
 10
-256.31213
 20
97.43438
  0
POINT
  8
0
  6
CONTINUOUS
 62
     7
 10
-374.41483
 20
97.43438
  0
POINT
  8
0
  6
CONTINUOUS
 62
     7
 10
-340.375
 20
207.55
  0
LINE
  8
0
  6
CONTINUOUS
 62
     7
 10
-285.9816
 20
232.55
 11
-285.9816
 21
196.55
  0
LINE
  8
0
  6
CONTINUOUS
 62
     7
 10
-232.9816
 20
226.60851
 11
-232.9816
 21
202.4915
  0
LINE
  8
0
  6
CONTINUOUS
 62
     7
 10
-234.18108
 20
227.80799
 11
-249.98159
 21
228.30175
  0
LINE
  8
0
  6
CONTINUOUS
 62
     7
 10
-232.9816
 20
226.6085
 11
-251.14147
 21
227.176
  0
LINE
  8
0
  6
CONTINUOUS
 62
     7
 10
-234.18108
 20
227.80798
 11
-232.9816
 21
226.6085
  0
LINE
  8
0
  6
CONTINUOUS
 62
     7
 10
-249.9816
 20
228.30176
 11
-249.9816
 21
200.79825
  0
LINE
  8
0
  6
CONTINUOUS
 62
     7
 10
-285.9816
 20
232.55
 11
-265.4816
 21
232.55
  0
LINE
  8
0
  6
CONTINUOUS
 62
     7
 10
-254.52715
 20
226.55
 11
-253.28998
 21
226.55
  0
LINE
  8
0
  6
CONTINUOUS
 62
     7
 10
-285.9816
 20
216.55
 11
-272.9816
 21
216.55
  0
LINE
  8
0
  6
CONTINUOUS
 62
     7
 10
-285.9816
 20
212.55
 11
-272.9816
 21
212.55
  0
LINE
  8
0
  6
CONTINUOUS
 62
     7
 10
-231.4816
 20
225.05
 11
-231.4816
 21
204.05
  0
LINE
  8
0
  6
CONTINUOUS
 62
     7
 10
-232.9816
 20
225.05
 11
-231.4816
 21
225.05
  0
LINE
  8
0
  6
CENTER
 62
     7
 10
-364.875
 20
214.55
 11
-309.08707
 21
214.55
  0
LINE
  8
0
  6
CONTINUOUS
 62
     7
 10
-359.97501
 20
229.05
 11
-359.97501
 21
200.05
  0
LINE
  8
0
  6
CONTINUOUS
 62
     7
 10
-314.97501
 20
223.86551
 11
-314.97501
 21
205.2345
  0
LINE
  8
0
  6
CONTINUOUS
 62
     7
 10
-359.97501
 20
200.05
 11
-341.77429
 21
200.05
  0
LINE
  8
0
  6
CONTINUOUS
 62
     7
 10
-359.97501
 20
229.05
 11
-341.77429
 21
229.05
  0
LINE
  8
0
  6
CONTINUOUS
 62
     7
 10
-313.47501
 20
222.05
 11
-313.47501
 21
207.05
  0
LINE
  8
0
  6
CONTINUOUS
 62
     7
 10
-314.97501
 20
207.05
 11
-313.47501
 21
207.05
  0
LINE
  8
0
  6
CONTINUOUS
 62
     7
 10
-314.97501
 20
222.05
 11
-313.47501
 21
222.05
  0
LINE
  8
0
  6
CONTINUOUS
 62
     7
 10
-329.97501
 20
225.49626
 11
-316.1745
 21
225.06499
  0
LINE
  8
0
  6
CONTINUOUS
 62
     7
 10
-330.97499
 20
224.3655
 11
-314.97502
 21
223.8655
  0
LINE
  8
0
  6
CONTINUOUS
 62
     7
 10
-316.1745
 20
225.06499
 11
-314.97502
 21
223.86551
  0
LINE
  8
0
  6
CONTINUOUS
 62
     7
 10
-330.97499
 20
204.73451
 11
-314.97499
 21
205.23451
  0
LINE
  8
0
  6
CONTINUOUS
 62
     7
 10
-316.17448
 20
204.03501
 11
-314.975
 21
205.2345
  0
LINE
  8
0
  6
CONTINUOUS
 62
     7
 10
-329.97501
 20
203.60375
 11
-316.1745
 21
204.03502
  0
LINE
  8
0
  6
CONTINUOUS
 62
     7
 10
-359.97501
 20
212.55
 11
-346.97501
 21
212.55
  0
LINE
  8
0
  6
CONTINUOUS
 62
     7
 10
-359.97501
 20
216.55
 11
-346.97501
 21
216.55
  0
LINE
  8
0
  6
CONTINUOUS
 62
     7
 10
-329.97501
 20
225.49626
 11
-329.97501
 21
203.60374
  0
LINE
  8
0
  6
CONTINUOUS
 62
     7
 10
-316.1745
 20
225.06499
 11
-316.1745
 21
204.03502
  0
LINE
  8
0
  6
CONTINUOUS
 62
     7
 10
-234.18108
 20
201.29202
 11
-249.98159
 21
200.79825
  0
LINE
  8
0
  6
CONTINUOUS
 62
     7
 10
-232.9816
 20
202.49151
 11
-251.14147
 21
201.92401
  0
LINE
  8
0
  6
CONTINUOUS
 62
     7
 10
-234.18109
 20
201.29203
 11
-232.98161
 21
202.49151
  0
LINE
  8
0
  6
CONTINUOUS
 62
     7
 10
-285.9816
 20
196.55
 11
-265.4816
 21
196.55
  0
LINE
  8
0
  6
CONTINUOUS
 62
     7
 10
-254.52715
 20
202.55
 11
-253.28998
 21
202.55
  0
LINE
  8
0
  6
CONTINUOUS
 62
     7
 10
-232.9816
 20
204.05
 11
-231.4816
 21
204.05
  0
LINE
  8
0
  6
CONTINUOUS
 62
     7
 10
-234.18108
 20
227.80798
 11
-234.18108
 21
201.29202
  0
LINE
  8
0
  6
CONTINUOUS
 62
     7
 10
-205.48131
 20
236.55
 11
-205.48131
 21
192.55
  0
LINE
  8
0
  6
CONTINUOUS
 62
     7
 10
-145.48131
 20
229.6955
 11
-145.48131
 21
199.40451
  0
LINE
  8
0
  6
CONTINUOUS
 62
     7
 10
-205.48131
 20
236.55
 11
-181.48131
 21
236.55
  0
LINE
  8
0
  6
CONTINUOUS
 62
     7
 10
-147.00803
 20
231.22222
 11
-164.48131
 21
231.76826
  0
LINE
  8
0
  6
CONTINUOUS
 62
     7
 10
-145.48131
 20
229.6955
 11
-165.09135
 21
230.30831
  0
LINE
  8
0
  6
CONTINUOUS
 62
     7
 10
-147.00801
 20
231.22221
 11
-145.48131
 21
229.6955
  0
LINE
  8
0
  6
CONTINUOUS
 62
     7
 10
-147.00803
 20
231.22221
 11
-147.00803
 21
197.87779
  0
LINE
  8
0
  6
CONTINUOUS
 62
     7
 10
-164.48131
 20
231.76825
 11
-164.48131
 21
197.33176
  0
LINE
  8
0
  6
CONTINUOUS
 62
     7
 10
-145.48131
 20
228.05
 11
-143.48131
 21
228.05
  0
LINE
  8
0
  6
CONTINUOUS
 62
     7
 10
-143.48131
 20
228.05
 11
-143.48131
 21
201.05
  0
LINE
  8
0
  6
CONTINUOUS
 62
     7
 10
-205.48131
 20
217.05
 11
-187.98131
 21
217.05
  0
LINE
  8
0
  6
CONTINUOUS
 62
     7
 10
-205.48131
 20
212.05
 11
-187.98131
 21
212.05
  0
LINE
  8
0
  6
CONTINUOUS
 62
     7
 10
-205.48131
 20
192.55
 11
-181.48131
 21
192.55
  0
LINE
  8
0
  6
CONTINUOUS
 62
     7
 10
-147.00803
 20
197.87779
 11
-164.48131
 21
197.33175
  0
LINE
  8
0
  6
CONTINUOUS
 62
     7
 10
-145.48131
 20
199.40451
 11
-165.09135
 21
198.7917
  0
LINE
  8
0
  6
CONTINUOUS
 62
     7
 10
-147.00801
 20
197.87779
 11
-145.48131
 21
199.4045
  0
LINE
  8
0
  6
CONTINUOUS
 62
     7
 10
-145.48131
 20
201.05
 11
-143.48131
 21
201.05
  0
LINE
  8
0
  6
CONTINUOUS
 62
     7
 10
-115.95345
 20
240.55
 11
-115.95345
 21
188.55
  0
LINE
  8
0
  6
CONTINUOUS
 62
     7
 10
-50.953461
 20
234.026
 11
-50.953461
 21
195.07401
  0
LINE
  8
0
  6
CONTINUOUS
 62
     7
 10
-48.953461
 20
232.05
 11
-48.953461
 21
197.05
  0
LINE
  8
0
  6
CONTINUOUS
 62
     7
 10
-50.953461
 20
232.05
 11
-48.953461
 21
232.05
  0
LINE
  8
0
  6
CONTINUOUS
 62
     7
 10
-115.95345
 20
240.55
 11
-89.953445
 21
240.55
  0
LINE
  8
0
  6
CONTINUOUS
 62
     7
 10
-50.953461
 20
234.026
 11
-74.485901
 21
234.76139
  0
LINE
  8
0
  6
CONTINUOUS
 62
     7
 10
-52.480164
 20
235.55271
 11
-72.953445
 21
236.1925
  0
LINE
  8
0
  6
CONTINUOUS
 62
     7
 10
-72.953445
 20
236.1925
 11
-72.953445
 21
192.9075
  0
LINE
  8
0
  6
CONTINUOUS
 62
     7
 10
-52.480164
 20
235.55271
 11
-50.953461
 21
234.02601
  0
LINE
  8
0
  6
CONTINUOUS
 62
     7
 10
-52.480164
 20
235.55272
 11
-52.480164
 21
193.54729
  0
LINE
  8
0
  6
CONTINUOUS
 62
     7
 10
-78.131866
 20
234.05
 11
-77.056458
 21
234.05
  0
LINE
  8
0
  6
CONTINUOUS
 62
     7
 10
-115.95345
 20
217.05
 11
-94.453445
 21
217.05
  0
LINE
  8
0
  6
CONTINUOUS
 62
     7
 10
-115.95345
 20
212.05
 11
-94.453445
 21
212.05
  0
LINE
  8
0
  6
CONTINUOUS
 62
     7
 10
-78.131866
 20
195.05
 11
-77.056458
 21
195.05
  0
LINE
  8
0
  6
CONTINUOUS
 62
     7
 10
-50.953461
 20
197.05
 11
-48.953461
 21
197.05
  0
LINE
  8
0
  6
CONTINUOUS
 62
     7
 10
-115.95345
 20
188.55
 11
-89.953445
 21
188.55
  0
LINE
  8
0
  6
CONTINUOUS
 62
     7
 10
-50.953461
 20
195.07401
 11
-74.485901
 21
194.33862
  0
LINE
  8
0
  6
CONTINUOUS
 62
     7
 10
-52.480164
 20
193.54729
 11
-72.953445
 21
192.9075
  0
LINE
  8
0
  6
CONTINUOUS
 62
     7
 10
-52.480164
 20
193.54729
 11
-50.953461
 21
195.07401
  0
LINE
  8
0
  6
CENTER
 62
     7
 10
-380.27979
 20
97.43438
 11
-298.55856
 21
97.43438
  0
LINE
  8
0
  6
CONTINUOUS
 62
     7
 10
-374.41483
 20
126.93438
 11
-374.41483
 21
67.934372
  0
LINE
  8
0
  6
CONTINUOUS
 62
     7
 10
-305.41483
 20
119.85688
 11
-305.41483
 21
75.011887
  0
LINE
  8
0
  6
CONTINUOUS
 62
     7
 10
-303.41483
 20
117.93438
 11
-303.41483
 21
76.934372
  0
LINE
  8
0
  6
CONTINUOUS
 62
     7
 10
-374.41483
 20
126.93438
 11
-346.41483
 21
126.93438
  0
LINE
  8
0
  6
CONTINUOUS
 62
     7
 10
-305.41483
 20
117.93438
 11
-303.41483
 21
117.93438
  0
LINE
  8
0
  6
CONTINUOUS
 62
     7
 10
-327.41482
 20
122.02338
 11
-306.94154
 21
121.38359
  0
LINE
  8
0
  6
CONTINUOUS
 62
     7
 10
-328.99815
 20
120.59386
 11
-305.41484
 21
119.85688
  0
LINE
  8
0
  6
CONTINUOUS
 62
     7
 10
-327.41483
 20
122.02338
 11
-327.41483
 21
72.845383
  0
LINE
  8
0
  6
CONTINUOUS
 62
     7
 10
-306.94154
 20
121.38361
 11
-305.41483
 21
119.8569
  0
LINE
  8
0
  6
CONTINUOUS
 62
     7
 10
-332.9241
 20
119.93438
 11
-331.48004
 21
119.93438
  0
LINE
  8
0
  6
CONTINUOUS
 62
     7
 10
-374.41483
 20
94.93438
 11
-351.91483
 21
94.93438
  0
LINE
  8
0
  6
CONTINUOUS
 62
     7
 10
-374.41483
 20
99.93438
 11
-351.91483
 21
99.93438
  0
LINE
  8
0
  6
CONTINUOUS
 62
     7
 10
-332.9241
 20
74.934372
 11
-331.48004
 21
74.934372
  0
LINE
  8
0
  6
CONTINUOUS
 62
     7
 10
-374.41483
 20
67.934372
 11
-346.41483
 21
67.934372
  0
LINE
  8
0
  6
CONTINUOUS
 62
     7
 10
-305.41483
 20
76.934372
 11
-303.41483
 21
76.934372
  0
LINE
  8
0
  6
CONTINUOUS
 62
     7
 10
-327.41483
 20
72.845383
 11
-306.94155
 21
73.485168
  0
LINE
  8
0
  6
CONTINUOUS
 62
     7
 10
-328.99815
 20
74.274902
 11
-305.41482
 21
75.011887
  0
LINE
  8
0
  6
CONTINUOUS
 62
     7
 10
-306.94155
 20
73.485184
 11
-305.41483
 21
75.011902
  0
LINE
  8
0
  6
CONTINUOUS
 62
     7
 10
-306.94153
 20
121.38359
 11
-306.94153
 21
73.485168
  0
LINE
  8
0
  6
CONTINUOUS
 62
     7
 10
-256.31213
 20
133.93439
 11
-256.31213
 21
60.934387
  0
LINE
  8
0
  6
CONTINUOUS
 62
     7
 10
-180.31213
 20
125.76238
 11
-180.31213
 21
69.106384
  0
LINE
  8
0
  6
CONTINUOUS
 62
     7
 10
-178.31213
 20
123.43438
 11
-178.31213
 21
71.434372
  0
LINE
  8
0
  6
CONTINUOUS
 62
     7
 10
-180.31213
 20
123.43438
 11
-178.31213
 21
123.43438
  0
LINE
  8
0
  6
CONTINUOUS
 62
     7
 10
-256.31213
 20
133.93439
 11
-225.31213
 21
133.93439
  0
LINE
  8
0
  6
CONTINUOUS
 62
     7
 10
-206.31215
 20
128.05389
 11
-181.83884
 21
127.28909
  0
LINE
  8
0
  6
CONTINUOUS
 62
     7
 10
-207.65643
 20
126.61689
 11
-180.31213
 21
125.76238
  0
LINE
  8
0
  6
CONTINUOUS
 62
     7
 10
-181.83884
 20
127.28909
 11
-180.31213
 21
125.76238
  0
LINE
  8
0
  6
CONTINUOUS
 62
     7
 10
-206.31213
 20
128.05388
 11
-206.31213
 21
66.81488
  0
LINE
  8
0
  6
CONTINUOUS
 62
     7
 10
-211.61223
 20
125.68438
 11
-210.56425
 21
125.68438
  0
LINE
  8
0
  6
CONTINUOUS
 62
     7
 10
-256.31213
 20
99.93438
 11
-230.81213
 21
99.93438
  0
LINE
  8
0
  6
CONTINUOUS
 62
     7
 10
-256.31213
 20
94.93438
 11
-230.81213
 21
94.93438
  0
LINE
  8
0
  6
CONTINUOUS
 62
     7
 10
-211.61223
 20
69.184372
 11
-210.56425
 21
69.184372
  0
LINE
  8
0
  6
CONTINUOUS
 62
     7
 10
-180.31213
 20
71.434372
 11
-178.31213
 21
71.434372
  0
LINE
  8
0
  6
CONTINUOUS
 62
     7
 10
-256.31213
 20
60.934387
 11
-225.31213
 21
60.934387
  0
LINE
  8
0
  6
CONTINUOUS
 62
     7
 10
-206.31214
 20
66.81488
 11
-181.83885
 21
67.579666
  0
LINE
  8
0
  6
CONTINUOUS
 62
     7
 10
-207.65642
 20
68.251877
 11
-180.31215
 21
69.106384
  0
LINE
  8
0
  6
CONTINUOUS
 62
     7
 10
-181.83885
 20
67.579666
 11
-180.31213
 21
69.106384
  0
LINE
  8
0
  6
CENTER
 62
     7
 10
-262.46088
 20
97.43438
 11
-173.2193
 21
97.43438
  0
LINE
  8
0
  6
CENTER
 62
     7
 10
-291.53958
 20
214.55
 11
-228.36858
 21
214.55
  0
LINE
  8
0
  6
CENTER
 62
     7
 10
-208.81566
 20
214.55
 11
-140.63109
 21
214.55
  0
LINE
  8
0
  6
CENTER
 62
     7
 10
-120.57681
 20
214.55
 11
-44.871887
 21
214.55
  0
LINE
  8
0
  6
CONTINUOUS
 62
     7
 10
-106.00281
 20
208.36703
 11
-106.00281
 21
207.13445
  0
LINE
  8
0
  6
CONTINUOUS
 62
     7
 10
-106.90283
 20
208.36703
 11
-106.90283
 21
207.13445
  0
LINE
  8
0
  6
CONTINUOUS
 62
     7
 10
-106.90283
 20
200.59964
 11
-106.90283
 21
199.36703
  0
LINE
  8
0
  6
CONTINUOUS
 62
     7
 10
-106.00281
 20
200.59964
 11
-106.00281
 21
199.36703
  0
LINE
  8
0
  6
CONTINUOUS
 62
     7
 10
-106.90283
 20
206.23117
 11
-106.90283
 21
203.86703
  0
LINE
  8
0
  6
CONTINUOUS
 62
     7
 10
-106.00281
 20
206.23117
 11
-106.00281
 21
203.86703
  0
LINE
  8
0
  6
CONTINUOUS
 62
     7
 10
-241.2744
 20
89.87159
 11
-241.2744
 21
88.228127
  0
LINE
  8
0
  6
CONTINUOUS
 62
     7
 10
-242.47441
 20
89.87159
 11
-242.47441
 21
88.228127
  0
LINE
  8
0
  6
CONTINUOUS
 62
     7
 10
-242.47441
 20
79.51506
 11
-242.47441
 21
77.871597
  0
LINE
  8
0
  6
CONTINUOUS
 62
     7
 10
-241.2744
 20
79.51506
 11
-241.2744
 21
77.871597
  0
LINE
  8
0
  6
CONTINUOUS
 62
     7
 10
-242.47441
 20
87.023766
 11
-242.47441
 21
83.871597
  0
LINE
  8
0
  6
CONTINUOUS
 62
     7
 10
-241.2744
 20
87.023766
 11
-241.2744
 21
83.871597
  0
LINE
  8
0
  6
CONTINUOUS
 62
     7
 10
-278.72781
 20
210.11703
 11
-278.72781
 21
208.88445
  0
LINE
  8
0
  6
CONTINUOUS
 62
     7
 10
-279.62784
 20
210.11703
 11
-279.62784
 21
208.88445
  0
LINE
  8
0
  6
CONTINUOUS
 62
     7
 10
-279.62784
 20
202.34964
 11
-279.62784
 21
201.11703
  0
LINE
  8
0
  6
CONTINUOUS
 62
     7
 10
-278.72781
 20
202.34964
 11
-278.72781
 21
201.11703
  0
LINE
  8
0
  6
CONTINUOUS
 62
     7
 10
-279.62784
 20
207.98117
 11
-279.62784
 21
205.61703
  0
LINE
  8
0
  6
CONTINUOUS
 62
     7
 10
-278.72781
 20
207.98117
 11
-278.72781
 21
205.61703
  0
LINE
  8
0
  6
CONTINUOUS
 62
     7
 10
-195.60281
 20
208.36703
 11
-195.60281
 21
207.13445
  0
LINE
  8
0
  6
CONTINUOUS
 62
     7
 10
-196.50284
 20
208.36703
 11
-196.50284
 21
207.13445
  0
LINE
  8
0
  6
CONTINUOUS
 62
     7
 10
-196.50284
 20
200.59964
 11
-196.50284
 21
199.36703
  0
LINE
  8
0
  6
CONTINUOUS
 62
     7
 10
-195.60281
 20
200.59964
 11
-195.60281
 21
199.36703
  0
LINE
  8
0
  6
CONTINUOUS
 62
     7
 10
-196.50284
 20
206.23117
 11
-196.50284
 21
203.86703
  0
LINE
  8
0
  6
CONTINUOUS
 62
     7
 10
-195.60281
 20
206.23117
 11
-195.60281
 21
203.86703
  0
LINE
  8
0
  6
CONTINUOUS
 62
     7
 10
-361.67441
 20
91.62159
 11
-361.67441
 21
89.978127
  0
LINE
  8
0
  6
CONTINUOUS
 62
     7
 10
-362.87442
 20
91.62159
 11
-362.87442
 21
89.978127
  0
LINE
  8
0
  6
CONTINUOUS
 62
     7
 10
-362.87442
 20
81.26506
 11
-362.87442
 21
79.621597
  0
LINE
  8
0
  6
CONTINUOUS
 62
     7
 10
-361.67441
 20
81.26506
 11
-361.67441
 21
79.621597
  0
LINE
  8
0
  6
CONTINUOUS
 62
     7
 10
-362.87442
 20
88.773766
 11
-362.87442
 21
85.62159
  0
LINE
  8
0
  6
CONTINUOUS
 62
     7
 10
-361.67441
 20
88.773766
 11
-361.67441
 21
85.62159
  0
LINE
  8
0
  6
CONTINUOUS
 62
     7
 10
-352.93808
 20
210.48863
 11
-352.93808
 21
209.6669
  0
LINE
  8
0
  6
CONTINUOUS
 62
     7
 10
-353.53809
 20
210.48863
 11
-353.53809
 21
209.6669
  0
LINE
  8
0
  6
CONTINUOUS
 62
     7
 10
-353.53809
 20
205.31036
 11
-353.53809
 21
204.48863
  0
LINE
  8
0
  6
CONTINUOUS
 62
     7
 10
-352.93808
 20
205.31036
 11
-352.93808
 21
204.48863
  0
LINE
  8
0
  6
CONTINUOUS
 62
     7
 10
-353.53809
 20
209.06471
 11
-353.53809
 21
207.48863
  0
LINE
  8
0
  6
CONTINUOUS
 62
     7
 10
-352.93808
 20
209.06471
 11
-352.93808
 21
207.48863
  0
ARC
  8
0
  6
CONTINUOUS
 62
     7
 10
-253.28998
 20
230.55
 40
4
 50
270
 51
325.80145
  0
ARC
  8
0
  6
CONTINUOUS
 62
     7
 10
-265.4816
 20
224.55
 40
8
 50
32.578971
 51
90.000003
  0
ARC
  8
0
  6
CONTINUOUS
 62
     7
 10
-254.52715
 20
231.55
 40
5
 50
212.57897
 51
270
  0
ARC
  8
0
  6
CONTINUOUS
 62
     7
 10
-272.9816
 20
214.55
 40
2
 50
270
 51
90.000003
  0
ARC
  8
0
  6
CONTINUOUS
 62
     7
 10
-332.97443
 20
227.3
 40
3.5
 50
208.35935
 51
328.97867
  0
ARC
  8
0
  6
CONTINUOUS
 62
     7
 10
-341.77429
 20
222.55
 40
6.5
 50
28.35935
 51
90.000003
  0
ARC
  8
0
  6
CONTINUOUS
 62
     7
 10
-332.97443
 20
201.8
 40
3.5
 50
31.021329
 51
151.64065
  0
ARC
  8
0
  6
CONTINUOUS
 62
     7
 10
-341.77429
 20
206.55
 40
6.5
 50
270
 51
331.64065
  0
ARC
  8
0
  6
CONTINUOUS
 62
     7
 10
-346.97501
 20
214.55
 40
2
 50
270
 51
90.000003
  0
ARC
  8
0
  6
CONTINUOUS
 62
     7
 10
-254.52715
 20
197.55
 40
5
 50
90.000003
 51
147.42103
  0
ARC
  8
0
  6
CONTINUOUS
 62
     7
 10
-253.28998
 20
198.55
 40
4
 50
34.198552
 51
90.000003
  0
ARC
  8
0
  6
CONTINUOUS
 62
     7
 10
-265.4816
 20
204.55
 40
8
 50
270
 51
327.42103
  0
ARC
  8
0
  6
CONTINUOUS
 62
     7
 10
-168.40417
 20
232.55
 40
4
 50
270
 51
348.72972
  0
ARC
  8
0
  6
CONTINUOUS
 62
     7
 10
-181.48131
 20
226.55
 40
10
 50
27.81814
 51
90.000003
  0
ARC
  8
0
  6
CONTINUOUS
 62
     7
 10
-168.21481
 20
233.55
 40
5
 50
207.81814
 51
270
  0
ARC
  8
0
  6
CONTINUOUS
 62
     7
 10
-187.98131
 20
214.55
 40
2.5
 50
270
 51
90.000003
  0
ARC
  8
0
  6
CONTINUOUS
 62
     7
 10
-168.40417
 20
196.55
 40
4
 50
11.270283
 51
90.000003
  0
ARC
  8
0
  6
CONTINUOUS
 62
     7
 10
-181.48131
 20
202.55
 40
10
 50
270
 51
332.18186
  0
ARC
  8
0
  6
CONTINUOUS
 62
     7
 10
-168.21481
 20
195.55
 40
5
 50
90.000003
 51
152.18186
  0
ARC
  8
0
  6
CONTINUOUS
 62
     7
 10
-89.953445
 20
231.55
 40
9
 50
32.392367
 51
90.000003
  0
ARC
  8
0
  6
CONTINUOUS
 62
     7
 10
-77.056458
 20
239.05
 40
5
 50
270
 51
325.14511
  0
ARC
  8
0
  6
CONTINUOUS
 62
     7
 10
-78.131866
 20
239.05
 40
5
 50
212.39237
 51
270
  0
ARC
  8
0
  6
CONTINUOUS
 62
     7
 10
-94.453445
 20
214.55
 40
2.5
 50
270
 51
90.000003
  0
ARC
  8
0
  6
CONTINUOUS
 62
     7
 10
-78.131866
 20
190.05
 40
5
 50
90.000003
 51
147.60763
  0
ARC
  8
0
  6
CONTINUOUS
 62
     7
 10
-89.953445
 20
197.55
 40
9
 50
270
 51
327.60763
  0
ARC
  8
0
  6
CONTINUOUS
 62
     7
 10
-77.056458
 20
190.05
 40
5
 50
34.854892
 51
90.000003
  0
ARC
  8
0
  6
CONTINUOUS
 62
     7
 10
-346.41483
 20
116.43438
 40
10.5
 50
35.152702
 51
90.000003
  0
ARC
  8
0
  6
CONTINUOUS
 62
     7
 10
-331.48004
 20
124.93438
 40
5
 50
270
 51
324.39457
  0
ARC
  8
0
  6
CONTINUOUS
 62
     7
 10
-332.9241
 20
125.93438
 40
6
 50
215.1527
 51
270
  0
ARC
  8
0
  6
CONTINUOUS
 62
     7
 10
-351.91483
 20
97.43438
 40
2.5
 50
270
 51
90.000003
  0
ARC
  8
0
  6
CONTINUOUS
 62
     7
 10
-332.9241
 20
68.934372
 40
6
 50
90.000003
 51
144.8473
  0
ARC
  8
0
  6
CONTINUOUS
 62
     7
 10
-331.48004
 20
69.934372
 40
5
 50
35.605428
 51
90.000003
  0
ARC
  8
0
  6
CONTINUOUS
 62
     7
 10
-346.41483
 20
78.434372
 40
10.5
 50
270
 51
324.8473
  0
ARC
  8
0
  6
CONTINUOUS
 62
     7
 10
-225.31213
 20
123.43438
 40
10.5
 50
27.887819
 51
90.000003
  0
ARC
  8
0
  6
CONTINUOUS
 62
     7
 10
-210.56425
 20
130.68439
 40
5
 50
270
 51
328.25768
  0
ARC
  8
0
  6
CONTINUOUS
 62
     7
 10
-211.61223
 20
130.68439
 40
5
 50
207.88782
 51
270
  0
ARC
  8
0
  6
CONTINUOUS
 62
     7
 10
-230.81213
 20
97.43438
 40
2.5
 50
270
 51
90.000003
  0
ARC
  8
0
  6
CONTINUOUS
 62
     7
 10
-211.61223
 20
64.184372
 40
5
 50
90.000003
 51
152.11218
  0
ARC
  8
0
  6
CONTINUOUS
 62
     7
 10
-225.31213
 20
71.434372
 40
10.5
 50
270
 51
332.11218
  0
ARC
  8
0
  6
CONTINUOUS
 62
     7
 10
-210.56425
 20
64.184372
 40
5
 50
31.742324
 51
90.000003
  0
ARC
  8
0
  6
CONTINUOUS
 62
     7
 10
-104.65283
 20
203.86703
 40
1.8
 50
306.00832
 51
53.991676
  0
ARC
  8
0
  6
CONTINUOUS
 62
     7
 10
-104.65283
 20
203.86703
 40
2.7
 50
306.00832
 51
53.991676
  0
ARC
  8
0
  6
CONTINUOUS
 62
     7
 10
-108.25281
 20
203.86703
 40
1.8
 50
126.00833
 51
233.99168
  0
ARC
  8
0
  6
CONTINUOUS
 62
     7
 10
-108.25281
 20
203.86703
 40
2.7
 50
126.00833
 51
233.99168
  0
ARC
  8
0
  6
CONTINUOUS
 62
     7
 10
-106.45282
 20
201.3903
 40
5.7617307
 50
53.991676
 51
85.520553
  0
ARC
  8
0
  6
CONTINUOUS
 62
     7
 10
-106.45282
 20
201.3903
 40
4.8617306
 50
53.991676
 51
84.689121
  0
ARC
  8
0
  6
CONTINUOUS
 62
     7
 10
-106.45282
 20
206.34377
 40
4.8617306
 50
233.99167
 51
306.00832
  0
ARC
  8
0
  6
CONTINUOUS
 62
     7
 10
-106.45282
 20
206.34377
 40
5.7617307
 50
233.99167
 51
265.52055
  0
ARC
  8
0
  6
CONTINUOUS
 62
     7
 10
-106.45282
 20
208.02954
 40
0.5625
 50
36.869897
 51
143.1301
  0
ARC
  8
0
  6
CONTINUOUS
 62
     7
 10
-106.45282
 20
204.20454
 40
0.5625
 50
216.8699
 51
323.1301
  0
ARC
  8
0
  6
CONTINUOUS
 62
     7
 10
-106.45282
 20
199.70454
 40
0.5625
 50
216.8699
 51
323.1301
  0
ARC
  8
0
  6
CONTINUOUS
 62
     7
 10
-106.45282
 20
201.3903
 40
5.7617307
 50
94.479452
 51
126.00833
  0
ARC
  8
0
  6
CONTINUOUS
 62
     7
 10
-106.45282
 20
201.3903
 40
4.8617306
 50
95.310878
 51
126.00833
  0
ARC
  8
0
  6
CONTINUOUS
 62
     7
 10
-106.45282
 20
206.34377
 40
5.7617307
 50
274.47945
 51
306.00832
  0
ARC
  8
0
  6
CONTINUOUS
 62
     7
 10
-241.87444
 20
87.173897
 40
7.6823077
 50
274.47945
 51
306.00832
  0
ARC
  8
0
  6
CONTINUOUS
 62
     7
 10
-239.47441
 20
83.871597
 40
2.4000001
 50
306.00832
 51
53.991676
  0
ARC
  8
0
  6
CONTINUOUS
 62
     7
 10
-239.47441
 20
83.871597
 40
3.5999999
 50
306.00832
 51
53.991676
  0
ARC
  8
0
  6
CONTINUOUS
 62
     7
 10
-244.2744
 20
83.871597
 40
2.4000001
 50
126.00833
 51
233.99168
  0
ARC
  8
0
  6
CONTINUOUS
 62
     7
 10
-244.2744
 20
83.871597
 40
3.5999999
 50
126.00833
 51
233.99168
  0
ARC
  8
0
  6
CONTINUOUS
 62
     7
 10
-241.87444
 20
80.56929
 40
7.6823077
 50
53.991676
 51
85.520553
  0
ARC
  8
0
  6
CONTINUOUS
 62
     7
 10
-241.87444
 20
80.56929
 40
6.4823079
 50
53.991676
 51
84.689121
  0
ARC
  8
0
  6
CONTINUOUS
 62
     7
 10
-241.87444
 20
87.173897
 40
6.4823079
 50
233.99167
 51
306.00832
  0
ARC
  8
0
  6
CONTINUOUS
 62
     7
 10
-241.87444
 20
87.173897
 40
7.6823077
 50
233.99167
 51
265.52055
  0
ARC
  8
0
  6
CONTINUOUS
 62
     7
 10
-241.87444
 20
89.421593
 40
0.75
 50
36.869897
 51
143.1301
  0
ARC
  8
0
  6
CONTINUOUS
 62
     7
 10
-241.87444
 20
84.321594
 40
0.75
 50
216.8699
 51
323.1301
  0
ARC
  8
0
  6
CONTINUOUS
 62
     7
 10
-241.87444
 20
78.321594
 40
0.75
 50
216.8699
 51
323.1301
  0
ARC
  8
0
  6
CONTINUOUS
 62
     7
 10
-241.87444
 20
80.56929
 40
6.4823079
 50
95.310878
 51
126.00833
  0
ARC
  8
0
  6
CONTINUOUS
 62
     7
 10
-241.87444
 20
80.56929
 40
7.6823077
 50
94.479452
 51
126.00833
  0
ARC
  8
0
  6
CONTINUOUS
 62
     7
 10
-277.37784
 20
205.61703
 40
1.8
 50
306.00832
 51
53.991676
  0
ARC
  8
0
  6
CONTINUOUS
 62
     7
 10
-277.37784
 20
205.61703
 40
2.7
 50
306.00832
 51
53.991676
  0
ARC
  8
0
  6
CONTINUOUS
 62
     7
 10
-280.97781
 20
205.61703
 40
1.8
 50
126.00833
 51
233.99168
  0
ARC
  8
0
  6
CONTINUOUS
 62
     7
 10
-280.97781
 20
205.61703
 40
2.7
 50
126.00833
 51
233.99168
  0
ARC
  8
0
  6
CONTINUOUS
 62
     7
 10
-279.17783
 20
203.1403
 40
5.7617307
 50
53.991676
 51
85.520553
  0
ARC
  8
0
  6
CONTINUOUS
 62
     7
 10
-279.17783
 20
203.1403
 40
4.8617306
 50
53.991676
 51
84.689121
  0
ARC
  8
0
  6
CONTINUOUS
 62
     7
 10
-279.17783
 20
208.09377
 40
4.8617306
 50
233.99167
 51
306.00832
  0
ARC
  8
0
  6
CONTINUOUS
 62
     7
 10
-279.17783
 20
208.09377
 40
5.7617307
 50
233.99167
 51
265.52055
  0
ARC
  8
0
  6
CONTINUOUS
 62
     7
 10
-279.17783
 20
209.77954
 40
0.5625
 50
36.869897
 51
143.1301
  0
ARC
  8
0
  6
CONTINUOUS
 62
     7
 10
-279.17783
 20
205.95454
 40
0.5625
 50
216.8699
 51
323.1301
  0
ARC
  8
0
  6
CONTINUOUS
 62
     7
 10
-279.17783
 20
201.45454
 40
0.5625
 50
216.8699
 51
323.1301
  0
ARC
  8
0
  6
CONTINUOUS
 62
     7
 10
-279.17783
 20
203.1403
 40
5.7617307
 50
94.479452
 51
126.00833
  0
ARC
  8
0
  6
CONTINUOUS
 62
     7
 10
-279.17783
 20
203.1403
 40
4.8617306
 50
95.310878
 51
126.00833
  0
ARC
  8
0
  6
CONTINUOUS
 62
     7
 10
-279.17783
 20
208.09377
 40
5.7617307
 50
274.47945
 51
306.00832
  0
ARC
  8
0
  6
CONTINUOUS
 62
     7
 10
-194.25284
 20
203.86703
 40
1.8
 50
306.00832
 51
53.991676
  0
ARC
  8
0
  6
CONTINUOUS
 62
     7
 10
-194.25284
 20
203.86703
 40
2.7
 50
306.00832
 51
53.991676
  0
ARC
  8
0
  6
CONTINUOUS
 62
     7
 10
-197.85281
 20
203.86703
 40
1.8
 50
126.00833
 51
233.99168
  0
ARC
  8
0
  6
CONTINUOUS
 62
     7
 10
-197.85281
 20
203.86703
 40
2.7
 50
126.00833
 51
233.99168
  0
ARC
  8
0
  6
CONTINUOUS
 62
     7
 10
-196.05283
 20
201.3903
 40
5.7617307
 50
53.991676
 51
85.520553
  0
ARC
  8
0
  6
CONTINUOUS
 62
     7
 10
-196.05283
 20
201.3903
 40
4.8617306
 50
53.991676
 51
84.689121
  0
ARC
  8
0
  6
CONTINUOUS
 62
     7
 10
-196.05283
 20
206.34377
 40
4.8617306
 50
233.99167
 51
306.00832
  0
ARC
  8
0
  6
CONTINUOUS
 62
     7
 10
-196.05283
 20
206.34377
 40
5.7617307
 50
233.99167
 51
265.52055
  0
ARC
  8
0
  6
CONTINUOUS
 62
     7
 10
-196.05283
 20
208.02954
 40
0.5625
 50
36.869897
 51
143.1301
  0
ARC
  8
0
  6
CONTINUOUS
 62
     7
 10
-196.05283
 20
204.20454
 40
0.5625
 50
216.8699
 51
323.1301
  0
ARC
  8
0
  6
CONTINUOUS
 62
     7
 10
-196.05283
 20
199.70454
 40
0.5625
 50
216.8699
 51
323.1301
  0
ARC
  8
0
  6
CONTINUOUS
 62
     7
 10
-196.05283
 20
201.3903
 40
5.7617307
 50
94.479452
 51
126.00833
  0
ARC
  8
0
  6
CONTINUOUS
 62
     7
 10
-196.05283
 20
201.3903
 40
4.8617306
 50
95.310878
 51
126.00833
  0
ARC
  8
0
  6
CONTINUOUS
 62
     7
 10
-196.05283
 20
206.34377
 40
5.7617307
 50
274.47945
 51
306.00832
  0
ARC
  8
0
  6
CONTINUOUS
 62
     7
 10
-362.27444
 20
88.923897
 40
7.6823077
 50
274.47945
 51
306.00832
  0
ARC
  8
0
  6
CONTINUOUS
 62
     7
 10
-359.87442
 20
85.62159
 40
2.4000001
 50
306.00832
 51
53.991676
  0
ARC
  8
0
  6
CONTINUOUS
 62
     7
 10
-359.87442
 20
85.62159
 40
3.5999999
 50
306.00832
 51
53.991676
  0
ARC
  8
0
  6
CONTINUOUS
 62
     7
 10
-364.67441
 20
85.62159
 40
2.4000001
 50
126.00833
 51
233.99168
  0
ARC
  8
0
  6
CONTINUOUS
 62
     7
 10
-364.67441
 20
85.62159
 40
3.5999999
 50
126.00833
 51
233.99168
  0
ARC
  8
0
  6
CONTINUOUS
 62
     7
 10
-362.27444
 20
82.31929
 40
7.6823077
 50
53.991676
 51
85.520553
  0
ARC
  8
0
  6
CONTINUOUS
 62
     7
 10
-362.27444
 20
82.31929
 40
6.4823079
 50
53.991676
 51
84.689121
  0
ARC
  8
0
  6
CONTINUOUS
 62
     7
 10
-362.27444
 20
88.923897
 40
6.4823079
 50
233.99167
 51
306.00832
  0
ARC
  8
0
  6
CONTINUOUS
 62
     7
 10
-362.27444
 20
88.923897
 40
7.6823077
 50
233.99167
 51
265.52055
  0
ARC
  8
0
  6
CONTINUOUS
 62
     7
 10
-362.27444
 20
91.171593
 40
0.75
 50
36.869897
 51
143.1301
  0
ARC
  8
0
  6
CONTINUOUS
 62
     7
 10
-362.27444
 20
86.071594
 40
0.75
 50
216.8699
 51
323.1301
  0
ARC
  8
0
  6
CONTINUOUS
 62
     7
 10
-362.27444
 20
80.071594
 40
0.75
 50
216.8699
 51
323.1301
  0
ARC
  8
0
  6
CONTINUOUS
 62
     7
 10
-362.27444
 20
82.31929
 40
6.4823079
 50
95.310878
 51
126.00833
  0
ARC
  8
0
  6
CONTINUOUS
 62
     7
 10
-362.27444
 20
82.31929
 40
7.6823077
 50
94.479452
 51
126.00833
  0
ARC
  8
0
  6
CONTINUOUS
 62
     7
 10
-352.03809
 20
207.48863
 40
1.2
 50
306.00832
 51
53.991676
  0
ARC
  8
0
  6
CONTINUOUS
 62
     7
 10
-352.03809
 20
207.48863
 40
1.8
 50
306.00832
 51
53.991676
  0
ARC
  8
0
  6
CONTINUOUS
 62
     7
 10
-354.43808
 20
207.48863
 40
1.2
 50
126.00833
 51
233.99168
  0
ARC
  8
0
  6
CONTINUOUS
 62
     7
 10
-354.43808
 20
207.48863
 40
1.8
 50
126.00833
 51
233.99168
  0
ARC
  8
0
  6
CONTINUOUS
 62
     7
 10
-353.23807
 20
205.83748
 40
3.8411539
 50
53.991676
 51
85.520553
  0
ARC
  8
0
  6
CONTINUOUS
 62
     7
 10
-353.23807
 20
205.83748
 40
3.241154
 50
53.991676
 51
84.689121
  0
ARC
  8
0
  6
CONTINUOUS
 62
     7
 10
-353.23807
 20
209.13979
 40
3.241154
 50
233.99167
 51
306.00832
  0
ARC
  8
0
  6
CONTINUOUS
 62
     7
 10
-353.23807
 20
209.13979
 40
3.8411539
 50
233.99167
 51
265.52055
  0
ARC
  8
0
  6
CONTINUOUS
 62
     7
 10
-353.23807
 20
210.26363
 40
0.375
 50
36.869897
 51
143.1301
  0
ARC
  8
0
  6
CONTINUOUS
 62
     7
 10
-353.23807
 20
207.71364
 40
0.375
 50
216.8699
 51
323.1301
  0
ARC
  8
0
  6
CONTINUOUS
 62
     7
 10
-353.23807
 20
204.71364
 40
0.375
 50
216.8699
 51
323.1301
  0
ARC
  8
0
  6
CONTINUOUS
 62
     7
 10
-353.23807
 20
209.13979
 40
3.8411539
 50
274.47945
 51
306.00832
  0
ARC
  8
0
  6
CONTINUOUS
 62
     7
 10
-353.23807
 20
205.83748
 40
3.241154
 50
95.310878
 51
126.00833
  0
ARC
  8
0
  6
CONTINUOUS
 62
     7
 10
-353.23807
 20
205.83748
 40
3.8411539
 50
94.479452
 51
126.00833
  0
TEXT
  8
0
  6
CONTINUOUS
 62
     7
 10
-401.13572
 20
283.10001
 40
5
 41
0.84237086
  1
ＲＣＦ－Ｋ　　ＢＸ（オスメス　ソケット）
  0
TEXT
  8
0
  6
CONTINUOUS
 62
     7
 10
-343.96787
 20
244.79999
 40
3.2
 41
1.0178573
  1
1/2
  0
TEXT
  8
0
  6
CONTINUOUS
 62
     7
 10
-263.46787
 20
245.50001
 40
3.2
 41
1.0178573
  1
3/4
  0
TEXT
  8
0
  6
CONTINUOUS
 62
     7
 10
-178.76786
 20
250.4
 40
3.2
 41
1.0714291
  1
1
  0
TEXT
  8
0
  6
CONTINUOUS
 62
     7
 10
-82.867864
 20
253.9
 40
3.2
 41
1.0129871
  1
11/4
  0
TEXT
  8
0
  6
CONTINUOUS
 62
     7
 10
-339.41785
 20
138.75001
 40
3.2
 41
1.0129871
  1
11/2
  0
TEXT
  8
0
  6
CONTINUOUS
 62
     7
 10
-221.11786
 20
143.29999
 40
3.2
 41
1.0714291
  1
2
  0
POINT
  8
1
  6
CONTINUOUS
 62
     7
 10
0
 20
0
  0
POINT
  8
1
  6
CONTINUOUS
 62
     7
 10
-420
 20
0
  0
POINT
  8
1
  6
CONTINUOUS
 62
     7
 10
0
 20
0
  0
POINT
  8
1
  6
CONTINUOUS
 62
     7
 10
0
 20
297
  0
POINT
  8
1
  6
CONTINUOUS
 62
     7
 10
-420
 20
297
  0
LINE
  8
1
  6
CONTINUOUS
 62
     7
 10
0
 20
297
 11
0
 21
0
  0
LINE
  8
1
  6
CONTINUOUS
 62
     7
 10
-420
 20
297
 11
-420
 21
0
  0
LINE
  8
1
  6
CONTINUOUS
 62
     7
 10
-420
 20
0
 11
0
 21
0
  0
LINE
  8
1
  6
CONTINUOUS
 62
     7
 10
-420
 20
297
 11
0
 21
297
  0
LINE
  8
1
  6
CONTINUOUS
 62
     7
 10
-420
 20
297
 11
0
 21
297
  0
ARC
  8
1
  6
CONTINUOUS
 62
     7
 10
116.6
 20
10.178727
 40
0.40000001
 50
285
 51
0
  0
ENDSEC
  0
EOF
