  0
SECTION
  2
HEADER
  9
$EXTMAX
 10
0
 20
297
  9
$EXTMIN
 10
-210
 20
0
  0
ENDSEC
  0
SECTION
  2
TABLES
  0
TABLE
  2
LTYPE
 70
    22
  0
LTYPE
  2
CONTINUOUS
 70
    64
  3
Solid line
 72
    65
 73
     0
 40
0.000000
  0
LTYPE
  2
DASHED
 70
    64
  3
__ __ __ __ __ __ __ __ __ __ __ __ __ __ __
 72
    65
 73
     2
 40
3.500000
 49
2.000000
 49
-1.500000
  0
LTYPE
  2
CENTER
 70
    64
  3
____ _ ____ _ ____ _ ____ _ ____ _ ____ _ ____
 72
    65
 73
     4
 40
17.500000
 49
13.000000
 49
-1.500000
 49
1.500000
 49
-1.500000
  0
LTYPE
  2
PHANTOM
 70
    64
  3
_____ _ _ _____ _ _ _____ _ _ _____ _ _ ____  
 72
    65
 73
     6
 40
15.500000
 49
8.000000
 49
-1.500000
 49
1.500000
 49
-1.500000
 49
1.500000
 49
-1.500000
  0
LTYPE
  2
DOT
 70
    64
  3
. . . . . . . . . . . . . . . . . . . . . . . .
 72
    65
 73
     2
 40
0.25
 49
0.0
 49
-0.25
  0
ENDTAB
  0
TABLE
  2
LAYER
 70
     2
  0
LAYER
  2
0
 70
     0
 62
     7
  6
CONTINUOUS
  0
LAYER
  2
1
 70
     0
 62
     7
  6
CONTINUOUS
  0
ENDTAB
  0
TABLE
  2
STYLE
 70
     1
  0
STYLE
  2
STANDARD
 70
     0
 40
0.000000
 41
1.000000
 50
0.000000
 71
     0
 42
0.200000
  3
txt
  4
BIGFONT
  0
ENDTAB
  0
TABLE
  2
VIEW
 70
     0
  0
ENDTAB
  0
ENDSEC
  0
SECTION
  2
BLOCKS
  0
ENDSEC
  0
SECTION
  2
ENTITIES
  0
POINT
  8
0
  6
CONTINUOUS
 62
     7
 10
-112.68584
 20
134.03793
  0
POINT
  8
0
  6
CONTINUOUS
 62
     7
 10
-112.68584
 20
198.74506
  0
POINT
  8
0
  6
CONTINUOUS
 62
     7
 10
-82.685844
 20
198.74506
  0
POINT
  8
0
  6
CONTINUOUS
 62
     7
 10
-82.685844
 20
198.74506
  0
POINT
  8
0
  6
CONTINUOUS
 62
     7
 10
-82.685844
 20
134.03793
  0
POINT
  8
0
  6
CONTINUOUS
 62
     7
 10
-112.68584
 20
221.74506
  0
POINT
  8
0
  6
CONTINUOUS
 62
     7
 10
-112.68584
 20
175.74506
  0
LINE
  8
0
  6
CONTINUOUS
 62
     7
 10
-96.185844
 20
116.53795
 11
-96.185844
 21
113.63602
  0
LINE
  8
0
  6
CONTINUOUS
 62
     7
 10
-129.18585
 20
116.53795
 11
-129.18585
 21
113.63603
  0
LINE
  8
0
  6
CONTINUOUS
 62
     7
 10
-102.74361
 20
212.24506
 11
-91.283928
 21
212.24506
  0
LINE
  8
0
  6
CONTINUOUS
 62
     7
 10
-92.185844
 20
120.53793
 11
-91.283928
 21
120.53793
  0
LINE
  8
0
  6
CENTER
 62
     7
 10
-94.867607
 20
134.03793
 11
-78.485847
 21
134.03793
  0
LINE
  8
0
  6
CENTER
 62
     7
 10
-112.68584
 20
152.23793
 11
-112.68584
 21
100.83795
  0
LINE
  8
0
  6
CONTINUOUS
 62
     7
 10
-82.685844
 20
213.74506
 11
-82.685844
 21
183.74506
  0
LINE
  8
0
  6
CONTINUOUS
 62
     7
 10
-130.68585
 20
105.03795
 11
-94.685844
 21
105.03795
  0
LINE
  8
0
  6
CONTINUOUS
 62
     7
 10
-130.68585
 20
111.03795
 11
-130.68585
 21
105.03795
  0
LINE
  8
0
  6
CONTINUOUS
 62
     7
 10
-94.685844
 20
111.03795
 11
-94.685844
 21
105.03795
  0
LINE
  8
0
  6
CONTINUOUS
 62
     7
 10
-130.68585
 20
111.03795
 11
-94.685844
 21
111.03795
  0
LINE
  8
0
  6
CONTINUOUS
 62
     7
 10
-88.685844
 20
213.74506
 11
-88.685844
 21
183.74506
  0
LINE
  8
0
  6
CONTINUOUS
 62
     7
 10
-88.685844
 20
213.74506
 11
-82.685844
 21
213.74506
  0
LINE
  8
0
  6
CONTINUOUS
 62
     7
 10
-88.685844
 20
183.74506
 11
-82.685844
 21
183.74506
  0
LINE
  8
0
  6
CONTINUOUS
 62
     7
 10
-117.18481
 20
116.64542
 11
-115.95222
 21
116.64542
  0
LINE
  8
0
  6
CONTINUOUS
 62
     7
 10
-117.18481
 20
115.74542
 11
-115.95222
 21
115.74542
  0
LINE
  8
0
  6
CONTINUOUS
 62
     7
 10
-109.41741
 20
115.74542
 11
-108.18481
 21
115.74542
  0
LINE
  8
0
  6
CONTINUOUS
 62
     7
 10
-109.41741
 20
116.64542
 11
-108.18481
 21
116.64542
  0
LINE
  8
0
  6
CONTINUOUS
 62
     7
 10
-115.04894
 20
115.74542
 11
-112.68481
 21
115.74542
  0
LINE
  8
0
  6
CONTINUOUS
 62
     7
 10
-115.04894
 20
116.64542
 11
-112.68481
 21
116.64542
  0
LINE
  8
0
  6
CONTINUOUS
 62
     7
 10
-125.18584
 20
150.03793
 11
-100.18584
 21
150.03793
  0
LINE
  8
0
  6
CONTINUOUS
 62
     7
 10
-100.18584
 20
150.03793
 11
-100.18584
 21
145.03793
  0
LINE
  8
0
  6
CONTINUOUS
 62
     7
 10
-125.18584
 20
150.03793
 11
-125.18584
 21
145.03793
  0
LINE
  8
0
  6
CONTINUOUS
 62
     7
 10
-125.18584
 20
145.03793
 11
-100.18584
 21
145.03793
  0
LINE
  8
0
  6
CENTER
 62
     7
 10
-136.13786
 20
198.74506
 11
-76.731148
 21
198.74506
  0
LINE
  8
0
  6
CONTINUOUS
 62
     7
 10
-82.685844
 20
149.03793
 11
-82.685844
 21
119.03793
  0
LINE
  8
0
  6
CONTINUOUS
 62
     7
 10
-88.685844
 20
149.03793
 11
-82.685844
 21
149.03793
  0
LINE
  8
0
  6
CONTINUOUS
 62
     7
 10
-88.685844
 20
149.03793
 11
-88.685844
 21
119.03793
  0
LINE
  8
0
  6
CONTINUOUS
 62
     7
 10
-88.685844
 20
119.03793
 11
-82.685844
 21
119.03793
  0
LINE
  8
0
  6
CONTINUOUS
 62
     7
 10
-97.227806
 20
147.53793
 11
-91.283928
 21
147.53793
  0
LINE
  8
0
  6
CONTINUOUS
 62
     7
 10
-102.74361
 20
185.24506
 11
-91.283928
 21
185.24506
  0
LINE
  8
0
  6
CENTER
 62
     7
 10
-112.68584
 20
233.67097
 11
-112.68584
 21
163.49271
  0
LINE
  8
0
  6
CENTER
 62
     7
 10
-124.55029
 20
221.74506
 11
-99.416679
 21
221.74506
  0
LINE
  8
0
  6
CENTER
 62
     7
 10
-128.14081
 20
175.74506
 11
-98.763855
 21
175.74506
  0
LINE
  8
0
  6
CONTINUOUS
 62
     7
 10
-125.18585
 20
198.74505
 11
-120.54601
 21
174.25582
  0
LINE
  8
0
  6
CONTINUOUS
 62
     7
 10
-100.18584
 20
198.74505
 11
-104.82568
 21
174.25583
  0
LINE
  8
0
  6
CONTINUOUS
 62
     7
 10
-100.18585
 20
198.74504
 11
-104.82568
 21
223.23427
  0
LINE
  8
0
  6
CONTINUOUS
 62
     7
 10
-125.18584
 20
198.74506
 11
-120.54601
 21
223.23427
  0
LINE
  8
0
  6
CONTINUOUS
 62
     7
 10
-90.300003
 20
212.24506
 11
-90.300003
 21
185.24506
  0
LINE
  8
0
  6
CONTINUOUS
 62
     7
 10
-95.300003
 20
212.24506
 11
-95.300003
 21
185.24506
  0
LINE
  8
0
  6
CONTINUOUS
 62
     7
 10
-95.300003
 20
147.53793
 11
-95.300003
 21
120.53793
  0
LINE
  8
0
  6
CONTINUOUS
 62
     7
 10
-90.300003
 20
147.53793
 11
-90.300003
 21
120.53793
  0
ARC
  8
0
  6
CONTINUOUS
 62
     7
 10
-98.185829
 20
116.53795
 40
31
 50
113.16813
 51
179.99998
  0
ARC
  8
0
  6
CONTINUOUS
 62
     7
 10
-92.185829
 20
116.53795
 40
4
 50
89.999996
 51
179.99998
  0
ARC
  8
0
  6
CENTER
 62
     7
 10
-94.867592
 20
116.21971
 40
17.818237
 50
89.999996
 51
179.99998
  0
ARC
  8
0
  6
CONTINUOUS
 62
     7
 10
-93.185844
 20
113.63602
 40
3
 50
179.99999
 51
240.00001
  0
ARC
  8
0
  6
CONTINUOUS
 62
     7
 10
-132.18585
 20
113.63603
 40
3
 50
299.99966
 51
0
  0
ARC
  8
0
  6
CONTINUOUS
 62
     7
 10
-91.283928
 20
215.24506
 40
3
 50
270
 51
330
  0
ARC
  8
0
  6
CONTINUOUS
 62
     7
 10
-91.283928
 20
182.24506
 40
3
 50
30.000001
 51
90.000003
  0
ARC
  8
0
  6
CONTINUOUS
 62
     7
 10
-112.68481
 20
117.99542
 40
1.8
 50
36.008324
 51
143.99167
  0
ARC
  8
0
  6
CONTINUOUS
 62
     7
 10
-112.68481
 20
117.99542
 40
2.7
 50
36.008324
 51
143.99167
  0
ARC
  8
0
  6
CONTINUOUS
 62
     7
 10
-112.68481
 20
114.39542
 40
1.8
 50
216.00833
 51
323.99168
  0
ARC
  8
0
  6
CONTINUOUS
 62
     7
 10
-112.68481
 20
114.39542
 40
2.7
 50
216.00833
 51
323.99168
  0
ARC
  8
0
  6
CONTINUOUS
 62
     7
 10
-110.20808
 20
116.19543
 40
5.7617307
 50
143.99167
 51
175.52055
  0
ARC
  8
0
  6
CONTINUOUS
 62
     7
 10
-110.20808
 20
116.19543
 40
4.8617306
 50
143.99167
 51
174.68912
  0
ARC
  8
0
  6
CONTINUOUS
 62
     7
 10
-115.16154
 20
116.19543
 40
4.8617306
 50
323.99167
 51
36.008324
  0
ARC
  8
0
  6
CONTINUOUS
 62
     7
 10
-115.16154
 20
116.19543
 40
5.7617307
 50
323.99167
 51
355.52055
  0
ARC
  8
0
  6
CONTINUOUS
 62
     7
 10
-116.84731
 20
116.19543
 40
0.5625
 50
126.8699
 51
233.13009
  0
ARC
  8
0
  6
CONTINUOUS
 62
     7
 10
-113.02232
 20
116.19543
 40
0.5625
 50
306.8699
 51
53.130102
  0
ARC
  8
0
  6
CONTINUOUS
 62
     7
 10
-108.52232
 20
116.19543
 40
0.5625
 50
306.8699
 51
53.130102
  0
ARC
  8
0
  6
CONTINUOUS
 62
     7
 10
-110.20808
 20
116.19543
 40
5.7617307
 50
184.47945
 51
216.00833
  0
ARC
  8
0
  6
CONTINUOUS
 62
     7
 10
-110.20808
 20
116.19543
 40
4.8617306
 50
185.31088
 51
216.00833
  0
ARC
  8
0
  6
CONTINUOUS
 62
     7
 10
-115.16154
 20
116.19543
 40
5.7617307
 50
4.4794472
 51
36.008324
  0
ARC
  8
0
  6
CONTINUOUS
 62
     7
 10
-123.18085
 20
141.03793
 40
4
 50
315.57303
 51
90.000003
  0
ARC
  8
0
  6
CONTINUOUS
 62
     7
 10
-97.227806
 20
150.53793
 40
3
 50
189.59407
 51
270
  0
ARC
  8
0
  6
CONTINUOUS
 62
     7
 10
-112.68584
 20
198.74506
 40
18
 50
122.29578
 51
237.70422
  0
ARC
  8
0
  6
CONTINUOUS
 62
     7
 10
-91.283928
 20
150.53793
 40
3
 50
270
 51
330
  0
ARC
  8
0
  6
CONTINUOUS
 62
     7
 10
-91.283928
 20
117.53793
 40
3
 50
30.000001
 51
90.000003
  0
CIRCLE
  8
0
  6
CONTINUOUS
 62
     7
 10
-112.68584
 20
175.74506
 40
3
  0
CIRCLE
  8
0
  6
CONTINUOUS
 62
     7
 10
-112.68584
 20
221.74506
 40
3
  0
ARC
  8
0
  6
CONTINUOUS
 62
     7
 10
-112.68584
 20
221.74506
 40
8
 50
10.72834
 51
169.27166
  0
ARC
  8
0
  6
CONTINUOUS
 62
     7
 10
-112.68584
 20
175.74506
 40
8
 50
190.72834
 51
0
  0
ARC
  8
0
  6
CONTINUOUS
 62
     7
 10
-112.68584
 20
198.74506
 40
16.5
 50
127.37359
 51
232.62641
  0
TEXT
  8
0
  6
CONTINUOUS
 62
     7
 10
-186.56013
 20
276.28214
 40
5
 41
0.84173205
  1
ＲＣＦ－Ｋ　ＡＴＲＬ（樹脂ねじ付き座付き水栓径違いエルボ）
  0
TEXT
  8
0
  6
CONTINUOUS
 62
     7
 10
-178.77444
 20
232.97818
 40
5
 41
0.84633858
  1
３／４Ｘ１／２
  0
TEXT
  8
0
  6
CONTINUOUS
 62
     7
 10
-91.076422
 20
121.50531
 40
3.2
 41
0.67915094
  1
１／２　器具側　１３
 50
90.000003
  0
TEXT
  8
0
  6
CONTINUOUS
 62
     7
 10
-91.311079
 20
186.74053
 40
3.2
 41
0.67915094
  1
１／２　器具側　１３
 50
90.000003
  0
POINT
  8
1
  6
CONTINUOUS
 62
     7
 10
-210
 20
0
  0
POINT
  8
1
  6
CONTINUOUS
 62
     7
 10
0
 20
0
  0
POINT
  8
1
  6
CONTINUOUS
 62
     7
 10
0
 20
0
  0
POINT
  8
1
  6
CONTINUOUS
 62
     7
 10
-210
 20
297
  0
POINT
  8
1
  6
CONTINUOUS
 62
     7
 10
-210
 20
0
  0
POINT
  8
1
  6
CONTINUOUS
 62
     7
 10
0
 20
0
  0
POINT
  8
1
  6
CONTINUOUS
 62
     7
 10
0
 20
297
  0
LINE
  8
1
  6
CONTINUOUS
 62
     7
 10
-210
 20
0
 11
0
 21
0
  0
LINE
  8
1
  6
CONTINUOUS
 62
     7
 10
-210
 20
297
 11
0
 21
297
  0
LINE
  8
1
  6
CONTINUOUS
 62
     7
 10
0
 20
297
 11
0
 21
0
  0
LINE
  8
1
  6
CONTINUOUS
 62
     7
 10
-210
 20
297
 11
-210
 21
0
  0
ENDSEC
  0
EOF
