  0
SECTION
  2
HEADER
  9
$EXTMAX
 10
0
 20
297
  9
$EXTMIN
 10
-210
 20
0
  0
ENDSEC
  0
SECTION
  2
TABLES
  0
TABLE
  2
LTYPE
 70
    22
  0
LTYPE
  2
CONTINUOUS
 70
    64
  3
Solid line
 72
    65
 73
     0
 40
0.000000
  0
LTYPE
  2
DASHED
 70
    64
  3
__ __ __ __ __ __ __ __ __ __ __ __ __ __ __
 72
    65
 73
     2
 40
3.500000
 49
2.000000
 49
-1.500000
  0
LTYPE
  2
CENTER
 70
    64
  3
____ _ ____ _ ____ _ ____ _ ____ _ ____ _ ____
 72
    65
 73
     4
 40
17.500000
 49
13.000000
 49
-1.500000
 49
1.500000
 49
-1.500000
  0
LTYPE
  2
PHANTOM
 70
    64
  3
_____ _ _ _____ _ _ _____ _ _ _____ _ _ ____  
 72
    65
 73
     6
 40
15.500000
 49
8.000000
 49
-1.500000
 49
1.500000
 49
-1.500000
 49
1.500000
 49
-1.500000
  0
LTYPE
  2
DOT
 70
    64
  3
. . . . . . . . . . . . . . . . . . . . . . . .
 72
    65
 73
     2
 40
0.25
 49
0.0
 49
-0.25
  0
ENDTAB
  0
TABLE
  2
LAYER
 70
     2
  0
LAYER
  2
0
 70
     0
 62
     7
  6
CONTINUOUS
  0
LAYER
  2
1
 70
     0
 62
     7
  6
CONTINUOUS
  0
ENDTAB
  0
TABLE
  2
STYLE
 70
     1
  0
STYLE
  2
STANDARD
 70
     0
 40
0.000000
 41
1.000000
 50
0.000000
 71
     0
 42
0.200000
  3
txt
  4
BIGFONT
  0
ENDTAB
  0
TABLE
  2
VIEW
 70
     0
  0
ENDTAB
  0
ENDSEC
  0
SECTION
  2
BLOCKS
  0
ENDSEC
  0
SECTION
  2
ENTITIES
  0
POINT
  8
0
  6
CONTINUOUS
 62
     7
 10
-82.86763
 20
235.0726
  0
POINT
  8
0
  6
CONTINUOUS
 62
     7
 10
-84.683197
 20
164.87071
  0
POINT
  8
0
  6
CONTINUOUS
 62
     7
 10
-88.919518
 20
83.775406
  0
POINT
  8
0
  6
CONTINUOUS
 62
     7
 10
-82.86763
 20
235.0726
  0
POINT
  8
0
  6
CONTINUOUS
 62
     7
 10
-84.683197
 20
164.87071
  0
POINT
  8
0
  6
CONTINUOUS
 62
     7
 10
-88.919518
 20
83.775406
  0
LINE
  8
0
  6
CONTINUOUS
 62
     7
 10
-65.367622
 20
250.0726
 11
-65.367622
 21
220.0726
  0
LINE
  8
0
  6
CONTINUOUS
 62
     7
 10
-77.240341
 20
248.5726
 11
-91.769554
 21
248.5726
  0
LINE
  8
0
  6
CONTINUOUS
 62
     7
 10
-100.36763
 20
250.0726
 11
-100.36763
 21
220.0726
  0
LINE
  8
0
  6
CENTER
 62
     7
 10
-102.75245
 20
235.0726
 11
-63.021461
 21
235.0726
  0
LINE
  8
0
  6
CONTINUOUS
 62
     7
 10
-77.240341
 20
221.5726
 11
-91.769554
 21
221.5726
  0
LINE
  8
0
  6
CENTER
 62
     7
 10
-102.75245
 20
235.0726
 11
-63.021461
 21
235.0726
  0
LINE
  8
0
  6
CONTINUOUS
 62
     7
 10
-94.36763
 20
250.0726
 11
-94.36763
 21
220.0726
  0
LINE
  8
0
  6
CONTINUOUS
 62
     7
 10
-71.367622
 20
250.0726
 11
-71.367622
 21
220.0726
  0
LINE
  8
0
  6
CONTINUOUS
 62
     7
 10
-100.36763
 20
250.0726
 11
-65.367622
 21
250.0726
  0
LINE
  8
0
  6
CONTINUOUS
 62
     7
 10
-100.36763
 20
220.0726
 11
-65.367622
 21
220.0726
  0
LINE
  8
0
  6
CONTINUOUS
 62
     7
 10
-64.683197
 20
182.87071
 11
-64.683197
 21
146.87071
  0
LINE
  8
0
  6
CONTINUOUS
 62
     7
 10
-76.660797
 20
181.37071
 11
-96.085114
 21
181.37071
  0
LINE
  8
0
  6
CONTINUOUS
 62
     7
 10
-104.6832
 20
182.87071
 11
-104.6832
 21
146.87071
  0
LINE
  8
0
  6
CENTER
 62
     7
 10
-109.51758
 20
164.87071
 11
-61.148823
 21
164.87071
  0
LINE
  8
0
  6
CONTINUOUS
 62
     7
 10
-76.660797
 20
148.37071
 11
-96.085114
 21
148.37071
  0
LINE
  8
0
  6
CENTER
 62
     7
 10
-109.51758
 20
164.87071
 11
-61.148823
 21
164.87071
  0
LINE
  8
0
  6
CONTINUOUS
 62
     7
 10
-98.683197
 20
182.87071
 11
-98.683197
 21
146.87071
  0
LINE
  8
0
  6
CONTINUOUS
 62
     7
 10
-70.683197
 20
182.87071
 11
-70.683197
 21
146.87071
  0
LINE
  8
0
  6
CONTINUOUS
 62
     7
 10
-104.6832
 20
146.87071
 11
-64.683197
 21
146.87071
  0
LINE
  8
0
  6
CONTINUOUS
 62
     7
 10
-104.6832
 20
182.87071
 11
-64.683197
 21
182.87071
  0
LINE
  8
0
  6
CONTINUOUS
 62
     7
 10
-66.419518
 20
105.77541
 11
-66.419518
 21
61.775421
  0
LINE
  8
0
  6
CONTINUOUS
 62
     7
 10
-79.606819
 20
104.27541
 11
-101.82143
 21
104.27541
  0
LINE
  8
0
  6
CONTINUOUS
 62
     7
 10
-111.41952
 20
105.77541
 11
-111.41952
 21
61.775421
  0
LINE
  8
0
  6
CENTER
 62
     7
 10
-116.64452
 20
83.775406
 11
-60.994534
 21
83.775406
  0
LINE
  8
0
  6
CONTINUOUS
 62
     7
 10
-79.606819
 20
63.275421
 11
-101.82143
 21
63.275421
  0
LINE
  8
0
  6
CENTER
 62
     7
 10
-116.64452
 20
83.775406
 11
-60.994534
 21
83.775406
  0
LINE
  8
0
  6
CONTINUOUS
 62
     7
 10
-104.41952
 20
105.77541
 11
-104.41952
 21
61.775421
  0
LINE
  8
0
  6
CONTINUOUS
 62
     7
 10
-73.419518
 20
105.77541
 11
-73.419518
 21
61.775421
  0
LINE
  8
0
  6
CONTINUOUS
 62
     7
 10
-111.41952
 20
105.77541
 11
-66.419518
 21
105.77541
  0
LINE
  8
0
  6
CONTINUOUS
 62
     7
 10
-111.41952
 20
61.775421
 11
-66.419518
 21
61.775421
  0
LINE
  8
0
  6
CONTINUOUS
 62
     7
 10
-84.2332
 20
169.37071
 11
-84.2332
 21
168.13811
  0
LINE
  8
0
  6
CONTINUOUS
 62
     7
 10
-85.133194
 20
169.37071
 11
-85.133194
 21
168.13811
  0
LINE
  8
0
  6
CONTINUOUS
 62
     7
 10
-85.133194
 20
161.60332
 11
-85.133194
 21
160.37071
  0
LINE
  8
0
  6
CONTINUOUS
 62
     7
 10
-84.2332
 20
161.60332
 11
-84.2332
 21
160.37071
  0
LINE
  8
0
  6
CONTINUOUS
 62
     7
 10
-85.133194
 20
167.23485
 11
-85.133194
 21
164.87071
  0
LINE
  8
0
  6
CONTINUOUS
 62
     7
 10
-84.2332
 20
167.23485
 11
-84.2332
 21
164.87071
  0
LINE
  8
0
  6
CONTINUOUS
 62
     7
 10
-82.417633
 20
239.5726
 11
-82.417633
 21
238.34
  0
LINE
  8
0
  6
CONTINUOUS
 62
     7
 10
-83.317635
 20
239.5726
 11
-83.317635
 21
238.34
  0
LINE
  8
0
  6
CONTINUOUS
 62
     7
 10
-83.317635
 20
231.80521
 11
-83.317635
 21
230.5726
  0
LINE
  8
0
  6
CONTINUOUS
 62
     7
 10
-82.417633
 20
231.80521
 11
-82.417633
 21
230.5726
  0
LINE
  8
0
  6
CONTINUOUS
 62
     7
 10
-83.317635
 20
237.43674
 11
-83.317635
 21
235.0726
  0
LINE
  8
0
  6
CONTINUOUS
 62
     7
 10
-82.417633
 20
237.43674
 11
-82.417633
 21
235.0726
  0
LINE
  8
0
  6
CONTINUOUS
 62
     7
 10
-88.319511
 20
89.775406
 11
-88.319511
 21
88.131943
  0
LINE
  8
0
  6
CONTINUOUS
 62
     7
 10
-89.519524
 20
89.775406
 11
-89.519524
 21
88.131943
  0
LINE
  8
0
  6
CONTINUOUS
 62
     7
 10
-89.519524
 20
79.418869
 11
-89.519524
 21
77.775406
  0
LINE
  8
0
  6
CONTINUOUS
 62
     7
 10
-88.319511
 20
79.418869
 11
-88.319511
 21
77.775406
  0
LINE
  8
0
  6
CONTINUOUS
 62
     7
 10
-89.519524
 20
86.927597
 11
-89.519524
 21
83.775406
  0
LINE
  8
0
  6
CONTINUOUS
 62
     7
 10
-88.319511
 20
86.927597
 11
-88.319511
 21
83.775406
  0
LINE
  8
0
  6
CONTINUOUS
 62
     7
 10
-72.240341
 20
250.0726
 11
-72.240341
 21
220.0726
  0
LINE
  8
0
  6
CONTINUOUS
 62
     7
 10
-77.240341
 20
250.0726
 11
-77.240341
 21
220.0726
  0
LINE
  8
0
  6
CONTINUOUS
 62
     7
 10
-71.660797
 20
182.87071
 11
-71.660797
 21
146.87071
  0
LINE
  8
0
  6
CONTINUOUS
 62
     7
 10
-76.660797
 20
182.87071
 11
-76.660797
 21
146.87071
  0
LINE
  8
0
  6
CONTINUOUS
 62
     7
 10
-74.606819
 20
105.77541
 11
-74.606819
 21
61.775421
  0
LINE
  8
0
  6
CONTINUOUS
 62
     7
 10
-79.606819
 20
105.77541
 11
-79.606819
 21
61.775421
  0
ARC
  8
0
  6
CONTINUOUS
 62
     7
 10
-73.965698
 20
251.5726
 40
3
 50
305.10797
 51
330
  0
ARC
  8
0
  6
CONTINUOUS
 62
     7
 10
-91.769554
 20
251.5726
 40
3
 50
210
 51
270
  0
ARC
  8
0
  6
CONTINUOUS
 62
     7
 10
-91.769554
 20
218.5726
 40
3
 50
90.000003
 51
150
  0
ARC
  8
0
  6
CONTINUOUS
 62
     7
 10
-73.965698
 20
218.5726
 40
3
 50
30.000001
 51
54.892028
  0
ARC
  8
0
  6
CONTINUOUS
 62
     7
 10
-96.085114
 20
145.37071
 40
3
 50
90.000003
 51
150
  0
ARC
  8
0
  6
CONTINUOUS
 62
     7
 10
-73.281281
 20
145.37071
 40
3
 50
30.000001
 51
57.305355
  0
ARC
  8
0
  6
CONTINUOUS
 62
     7
 10
-96.085114
 20
184.37071
 40
3
 50
210
 51
270
  0
ARC
  8
0
  6
CONTINUOUS
 62
     7
 10
-73.281281
 20
184.37071
 40
3
 50
302.69464
 51
330
  0
ARC
  8
0
  6
CONTINUOUS
 62
     7
 10
-101.82143
 20
107.27541
 40
3
 50
210
 51
270
  0
ARC
  8
0
  6
CONTINUOUS
 62
     7
 10
-76.017601
 20
107.27541
 40
3
 50
298.05124
 51
330
  0
ARC
  8
0
  6
CONTINUOUS
 62
     7
 10
-76.017601
 20
60.275421
 40
3
 50
30.000001
 51
61.948764
  0
ARC
  8
0
  6
CONTINUOUS
 62
     7
 10
-101.82143
 20
60.275421
 40
3
 50
90.000003
 51
150
  0
ARC
  8
0
  6
CONTINUOUS
 62
     7
 10
-82.883194
 20
164.87071
 40
1.8
 50
306.00832
 51
53.991676
  0
ARC
  8
0
  6
CONTINUOUS
 62
     7
 10
-82.883194
 20
164.87071
 40
2.7
 50
306.00832
 51
53.991676
  0
ARC
  8
0
  6
CONTINUOUS
 62
     7
 10
-86.4832
 20
164.87071
 40
1.8
 50
126.00833
 51
233.99168
  0
ARC
  8
0
  6
CONTINUOUS
 62
     7
 10
-86.4832
 20
164.87071
 40
2.7
 50
126.00833
 51
233.99168
  0
ARC
  8
0
  6
CONTINUOUS
 62
     7
 10
-84.683197
 20
162.39398
 40
5.7617307
 50
53.991676
 51
85.520553
  0
ARC
  8
0
  6
CONTINUOUS
 62
     7
 10
-84.683197
 20
162.39398
 40
4.8617306
 50
53.991676
 51
84.689121
  0
ARC
  8
0
  6
CONTINUOUS
 62
     7
 10
-84.683197
 20
167.34744
 40
4.8617306
 50
233.99167
 51
306.00832
  0
ARC
  8
0
  6
CONTINUOUS
 62
     7
 10
-84.683197
 20
167.34744
 40
5.7617307
 50
233.99167
 51
265.52055
  0
ARC
  8
0
  6
CONTINUOUS
 62
     7
 10
-84.683197
 20
169.03322
 40
0.5625
 50
36.869897
 51
143.1301
  0
ARC
  8
0
  6
CONTINUOUS
 62
     7
 10
-84.683197
 20
165.20821
 40
0.5625
 50
216.8699
 51
323.1301
  0
ARC
  8
0
  6
CONTINUOUS
 62
     7
 10
-84.683197
 20
160.70821
 40
0.5625
 50
216.8699
 51
323.1301
  0
ARC
  8
0
  6
CONTINUOUS
 62
     7
 10
-84.683197
 20
162.39398
 40
5.7617307
 50
94.479452
 51
126.00833
  0
ARC
  8
0
  6
CONTINUOUS
 62
     7
 10
-84.683197
 20
162.39398
 40
4.8617306
 50
95.310878
 51
126.00833
  0
ARC
  8
0
  6
CONTINUOUS
 62
     7
 10
-84.683197
 20
167.34744
 40
5.7617307
 50
274.47945
 51
306.00832
  0
ARC
  8
0
  6
CONTINUOUS
 62
     7
 10
-81.067635
 20
235.0726
 40
1.8
 50
306.00832
 51
53.991676
  0
ARC
  8
0
  6
CONTINUOUS
 62
     7
 10
-81.067635
 20
235.0726
 40
2.7
 50
306.00832
 51
53.991676
  0
ARC
  8
0
  6
CONTINUOUS
 62
     7
 10
-84.667633
 20
235.0726
 40
1.8
 50
126.00833
 51
233.99168
  0
ARC
  8
0
  6
CONTINUOUS
 62
     7
 10
-84.667633
 20
235.0726
 40
2.7
 50
126.00833
 51
233.99168
  0
ARC
  8
0
  6
CONTINUOUS
 62
     7
 10
-82.86763
 20
232.59587
 40
5.7617307
 50
53.991676
 51
85.520553
  0
ARC
  8
0
  6
CONTINUOUS
 62
     7
 10
-82.86763
 20
232.59587
 40
4.8617306
 50
53.991676
 51
84.689121
  0
ARC
  8
0
  6
CONTINUOUS
 62
     7
 10
-82.86763
 20
237.54933
 40
4.8617306
 50
233.99167
 51
306.00832
  0
ARC
  8
0
  6
CONTINUOUS
 62
     7
 10
-82.86763
 20
237.54933
 40
5.7617307
 50
233.99167
 51
265.52055
  0
ARC
  8
0
  6
CONTINUOUS
 62
     7
 10
-82.86763
 20
239.23511
 40
0.5625
 50
36.869897
 51
143.1301
  0
ARC
  8
0
  6
CONTINUOUS
 62
     7
 10
-82.86763
 20
235.4101
 40
0.5625
 50
216.8699
 51
323.1301
  0
ARC
  8
0
  6
CONTINUOUS
 62
     7
 10
-82.86763
 20
230.9101
 40
0.5625
 50
216.8699
 51
323.1301
  0
ARC
  8
0
  6
CONTINUOUS
 62
     7
 10
-82.86763
 20
232.59587
 40
5.7617307
 50
94.479452
 51
126.00833
  0
ARC
  8
0
  6
CONTINUOUS
 62
     7
 10
-82.86763
 20
232.59587
 40
4.8617306
 50
95.310878
 51
126.00833
  0
ARC
  8
0
  6
CONTINUOUS
 62
     7
 10
-82.86763
 20
237.54933
 40
5.7617307
 50
274.47945
 51
306.00832
  0
ARC
  8
0
  6
CONTINUOUS
 62
     7
 10
-86.519524
 20
83.775406
 40
2.4000001
 50
306.00832
 51
53.991676
  0
ARC
  8
0
  6
CONTINUOUS
 62
     7
 10
-86.519524
 20
83.775406
 40
3.5999999
 50
306.00832
 51
53.991676
  0
ARC
  8
0
  6
CONTINUOUS
 62
     7
 10
-91.319511
 20
83.775406
 40
2.4000001
 50
126.00833
 51
233.99168
  0
ARC
  8
0
  6
CONTINUOUS
 62
     7
 10
-91.319511
 20
83.775406
 40
3.5999999
 50
126.00833
 51
233.99168
  0
ARC
  8
0
  6
CONTINUOUS
 62
     7
 10
-88.919518
 20
80.473099
 40
7.6823077
 50
53.991676
 51
85.520553
  0
ARC
  8
0
  6
CONTINUOUS
 62
     7
 10
-88.919518
 20
80.473099
 40
6.4823079
 50
53.991676
 51
84.689121
  0
ARC
  8
0
  6
CONTINUOUS
 62
     7
 10
-88.919518
 20
87.077713
 40
6.4823079
 50
233.99167
 51
306.00832
  0
ARC
  8
0
  6
CONTINUOUS
 62
     7
 10
-88.919518
 20
87.077713
 40
7.6823077
 50
233.99167
 51
265.52055
  0
ARC
  8
0
  6
CONTINUOUS
 62
     7
 10
-88.919518
 20
89.325424
 40
0.75
 50
36.869897
 51
143.1301
  0
ARC
  8
0
  6
CONTINUOUS
 62
     7
 10
-88.919518
 20
84.225418
 40
0.75
 50
216.8699
 51
323.1301
  0
ARC
  8
0
  6
CONTINUOUS
 62
     7
 10
-88.919518
 20
78.225418
 40
0.75
 50
216.8699
 51
323.1301
  0
ARC
  8
0
  6
CONTINUOUS
 62
     7
 10
-88.919518
 20
80.473099
 40
6.4823079
 50
95.310878
 51
126.00833
  0
ARC
  8
0
  6
CONTINUOUS
 62
     7
 10
-88.919518
 20
80.473099
 40
7.6823077
 50
94.479452
 51
126.00833
  0
ARC
  8
0
  6
CONTINUOUS
 62
     7
 10
-88.919518
 20
87.077713
 40
7.6823077
 50
274.47945
 51
306.00832
  0
TEXT
  8
0
  6
CONTINUOUS
 62
     7
 10
-186.56013
 20
276.28214
 40
5
 41
0.84218304
  1
ＲＣＦ－Ｋ　ＡＳ（樹脂ねじ付き水栓ソケット）
  0
TEXT
  8
0
  6
CONTINUOUS
 62
     7
 10
-150.31747
 20
158.65247
 40
5
 41
1.0178573
  1
3/4
  0
TEXT
  8
0
  6
CONTINUOUS
 62
     7
 10
-143.9591
 20
79.172943
 40
5
 41
1.0714291
  1
1
  0
TEXT
  8
0
  6
CONTINUOUS
 62
     7
 10
-149.0458
 20
234.31696
 40
5
 41
1.0178573
  1
1/2
  0
TEXT
  8
0
  6
CONTINUOUS
 62
     7
 10
-73.055113
 20
221.36724
 40
3.2
 41
0.67915094
  1
１／２　器具側　１３
 50
90.000003
  0
TEXT
  8
0
  6
CONTINUOUS
 62
     7
 10
-72.572157
 20
148.8935
 40
3.2
 41
0.84447575
  1
３／４　器具側　２０
 50
90.000003
  0
TEXT
  8
0
  6
CONTINUOUS
 62
     7
 10
-75.518179
 20
68.91624
 40
3.2
 41
0.8449534
  1
１　　器具側　２５
 50
90.000003
  0
POINT
  8
1
  6
CONTINUOUS
 62
     7
 10
-210
 20
0
  0
POINT
  8
1
  6
CONTINUOUS
 62
     7
 10
0
 20
0
  0
POINT
  8
1
  6
CONTINUOUS
 62
     7
 10
0
 20
0
  0
POINT
  8
1
  6
CONTINUOUS
 62
     7
 10
-210
 20
297
  0
POINT
  8
1
  6
CONTINUOUS
 62
     7
 10
-210
 20
0
  0
POINT
  8
1
  6
CONTINUOUS
 62
     7
 10
0
 20
0
  0
POINT
  8
1
  6
CONTINUOUS
 62
     7
 10
0
 20
297
  0
LINE
  8
1
  6
CONTINUOUS
 62
     7
 10
-210
 20
0
 11
0
 21
0
  0
LINE
  8
1
  6
CONTINUOUS
 62
     7
 10
-210
 20
297
 11
0
 21
297
  0
LINE
  8
1
  6
CONTINUOUS
 62
     7
 10
0
 20
297
 11
0
 21
0
  0
LINE
  8
1
  6
CONTINUOUS
 62
     7
 10
-210
 20
297
 11
-210
 21
0
  0
ENDSEC
  0
EOF
