  0
SECTION
  2
HEADER
  9
$EXTMAX
 10
0
 20
297
  9
$EXTMIN
 10
-210
 20
0
  0
ENDSEC
  0
SECTION
  2
TABLES
  0
TABLE
  2
LTYPE
 70
    22
  0
LTYPE
  2
CONTINUOUS
 70
    64
  3
Solid line
 72
    65
 73
     0
 40
0.000000
  0
LTYPE
  2
DASHED
 70
    64
  3
__ __ __ __ __ __ __ __ __ __ __ __ __ __ __
 72
    65
 73
     2
 40
3.500000
 49
2.000000
 49
-1.500000
  0
LTYPE
  2
CENTER
 70
    64
  3
____ _ ____ _ ____ _ ____ _ ____ _ ____ _ ____
 72
    65
 73
     4
 40
17.500000
 49
13.000000
 49
-1.500000
 49
1.500000
 49
-1.500000
  0
LTYPE
  2
PHANTOM
 70
    64
  3
_____ _ _ _____ _ _ _____ _ _ _____ _ _ ____  
 72
    65
 73
     6
 40
15.500000
 49
8.000000
 49
-1.500000
 49
1.500000
 49
-1.500000
 49
1.500000
 49
-1.500000
  0
LTYPE
  2
DOT
 70
    64
  3
. . . . . . . . . . . . . . . . . . . . . . . .
 72
    65
 73
     2
 40
0.25
 49
0.0
 49
-0.25
  0
ENDTAB
  0
TABLE
  2
LAYER
 70
     2
  0
LAYER
  2
0
 70
     0
 62
     7
  6
CONTINUOUS
  0
LAYER
  2
1
 70
     0
 62
     7
  6
CONTINUOUS
  0
ENDTAB
  0
TABLE
  2
STYLE
 70
     1
  0
STYLE
  2
STANDARD
 70
     0
 40
0.000000
 41
1.000000
 50
0.000000
 71
     0
 42
0.200000
  3
txt
  4
BIGFONT
  0
ENDTAB
  0
TABLE
  2
VIEW
 70
     0
  0
ENDTAB
  0
ENDSEC
  0
SECTION
  2
BLOCKS
  0
ENDSEC
  0
SECTION
  2
ENTITIES
  0
POINT
  8
0
  6
CONTINUOUS
 62
     7
 10
-81.309013
 20
231.34317
  0
POINT
  8
0
  6
CONTINUOUS
 62
     7
 10
-81.309013
 20
154.04449
  0
POINT
  8
0
  6
CONTINUOUS
 62
     7
 10
-81.309013
 20
72.228348
  0
POINT
  8
0
  6
CONTINUOUS
 62
     7
 10
-81.309013
 20
231.34317
  0
POINT
  8
0
  6
CONTINUOUS
 62
     7
 10
-81.309013
 20
154.04449
  0
POINT
  8
0
  6
CONTINUOUS
 62
     7
 10
-81.309013
 20
72.228348
  0
LINE
  8
0
  6
CENTER
 62
     7
 10
-115.78402
 20
231.34317
 11
-46.834019
 21
231.34317
  0
LINE
  8
0
  6
CENTER
 62
     7
 10
-81.309013
 20
253.74316
 11
-81.309013
 21
195.64317
  0
LINE
  8
0
  6
CONTINUOUS
 62
     7
 10
-52.309017
 20
249.34317
 11
-52.309017
 21
213.34317
  0
LINE
  8
0
  6
CONTINUOUS
 62
     7
 10
-110.30901
 20
249.34317
 11
-110.30901
 21
213.34317
  0
LINE
  8
0
  6
CONTINUOUS
 62
     7
 10
-110.30901
 20
249.34317
 11
-104.30901
 21
249.34317
  0
LINE
  8
0
  6
CONTINUOUS
 62
     7
 10
-110.30901
 20
213.34317
 11
-104.30901
 21
213.34317
  0
LINE
  8
0
  6
CONTINUOUS
 62
     7
 10
-66.309013
 20
207.34317
 11
-66.309013
 21
201.34317
  0
LINE
  8
0
  6
CONTINUOUS
 62
     7
 10
-96.309013
 20
207.34317
 11
-96.309013
 21
201.34317
  0
LINE
  8
0
  6
CONTINUOUS
 62
     7
 10
-96.309013
 20
201.34317
 11
-66.309013
 21
201.34317
  0
LINE
  8
0
  6
CONTINUOUS
 62
     7
 10
-104.30901
 20
249.34317
 11
-104.30901
 21
213.34317
  0
LINE
  8
0
  6
CONTINUOUS
 62
     7
 10
-96.309013
 20
207.34317
 11
-66.309013
 21
207.34317
  0
LINE
  8
0
  6
CONTINUOUS
 62
     7
 10
-58.309017
 20
249.34317
 11
-58.309017
 21
213.34317
  0
LINE
  8
0
  6
CONTINUOUS
 62
     7
 10
-101.71094
 20
247.84317
 11
-60.907093
 21
247.84317
  0
LINE
  8
0
  6
CONTINUOUS
 62
     7
 10
-101.71094
 20
214.84317
 11
-98.309013
 21
214.84317
  0
LINE
  8
0
  6
CONTINUOUS
 62
     7
 10
-94.809013
 20
211.34317
 11
-94.809013
 21
209.94124
  0
LINE
  8
0
  6
CONTINUOUS
 62
     7
 10
-67.809013
 20
211.34317
 11
-67.809013
 21
209.94124
  0
LINE
  8
0
  6
CONTINUOUS
 62
     7
 10
-64.309013
 20
214.84317
 11
-60.907093
 21
214.84317
  0
LINE
  8
0
  6
CONTINUOUS
 62
     7
 10
-58.309017
 20
213.34317
 11
-52.309017
 21
213.34317
  0
LINE
  8
0
  6
CONTINUOUS
 62
     7
 10
-58.309017
 20
249.34317
 11
-52.309017
 21
249.34317
  0
LINE
  8
0
  6
CENTER
 62
     7
 10
-118.75902
 20
154.04449
 11
-44.559017
 21
154.04449
  0
LINE
  8
0
  6
CONTINUOUS
 62
     7
 10
-113.30901
 20
176.04449
 11
-113.30901
 21
132.04449
  0
LINE
  8
0
  6
CONTINUOUS
 62
     7
 10
-49.309017
 20
176.04449
 11
-49.309017
 21
132.04449
  0
LINE
  8
0
  6
CONTINUOUS
 62
     7
 10
-96.309013
 20
121.04449
 11
-66.309013
 21
121.04449
  0
LINE
  8
0
  6
CONTINUOUS
 62
     7
 10
-113.30901
 20
132.04449
 11
-106.30901
 21
132.04449
  0
LINE
  8
0
  6
CONTINUOUS
 62
     7
 10
-113.30901
 20
176.04449
 11
-106.30901
 21
176.04449
  0
LINE
  8
0
  6
CONTINUOUS
 62
     7
 10
-66.309013
 20
127.04449
 11
-66.309013
 21
121.04449
  0
LINE
  8
0
  6
CONTINUOUS
 62
     7
 10
-96.309013
 20
127.04449
 11
-96.309013
 21
121.04449
  0
LINE
  8
0
  6
CONTINUOUS
 62
     7
 10
-106.30901
 20
176.04449
 11
-106.30901
 21
132.04449
  0
LINE
  8
0
  6
CONTINUOUS
 62
     7
 10
-56.309017
 20
176.04449
 11
-56.309017
 21
132.04449
  0
LINE
  8
0
  6
CONTINUOUS
 62
     7
 10
-96.309013
 20
127.04449
 11
-66.309013
 21
127.04449
  0
LINE
  8
0
  6
CENTER
 62
     7
 10
-120.15902
 20
72.228348
 11
-39.309017
 21
72.228348
  0
LINE
  8
0
  6
CONTINUOUS
 62
     7
 10
-99.309013
 20
37.228348
 11
-63.309017
 21
37.228348
  0
LINE
  8
0
  6
CONTINUOUS
 62
     7
 10
-115.30901
 20
94.228355
 11
-115.30901
 21
50.228348
  0
LINE
  8
0
  6
CONTINUOUS
 62
     7
 10
-47.309017
 20
94.228355
 11
-47.309017
 21
50.228348
  0
LINE
  8
0
  6
CONTINUOUS
 62
     7
 10
-115.30901
 20
50.228348
 11
-108.30901
 21
50.228348
  0
LINE
  8
0
  6
CONTINUOUS
 62
     7
 10
-115.30901
 20
94.228355
 11
-108.30901
 21
94.228355
  0
LINE
  8
0
  6
CONTINUOUS
 62
     7
 10
-63.309017
 20
43.228348
 11
-63.309017
 21
37.228348
  0
LINE
  8
0
  6
CONTINUOUS
 62
     7
 10
-99.309013
 20
43.228348
 11
-99.309013
 21
37.228348
  0
LINE
  8
0
  6
CONTINUOUS
 62
     7
 10
-108.30901
 20
94.228355
 11
-108.30901
 21
50.228348
  0
LINE
  8
0
  6
CONTINUOUS
 62
     7
 10
-54.309017
 20
94.228355
 11
-54.309017
 21
50.228348
  0
LINE
  8
0
  6
CONTINUOUS
 62
     7
 10
-99.309013
 20
43.228348
 11
-63.309017
 21
43.228348
  0
LINE
  8
0
  6
CONTINUOUS
 62
     7
 10
-105.18652
 20
51.728348
 11
-101.30901
 21
51.728348
  0
LINE
  8
0
  6
CONTINUOUS
 62
     7
 10
-105.18652
 20
92.728355
 11
-57.431515
 21
92.728355
  0
LINE
  8
0
  6
CONTINUOUS
 62
     7
 10
-103.18652
 20
133.54449
 11
-98.309013
 21
133.54449
  0
LINE
  8
0
  6
CONTINUOUS
 62
     7
 10
-94.809013
 20
130.04449
 11
-94.809013
 21
129.64256
  0
LINE
  8
0
  6
CONTINUOUS
 62
     7
 10
-67.809013
 20
130.04449
 11
-67.809013
 21
129.64256
  0
LINE
  8
0
  6
CONTINUOUS
 62
     7
 10
-64.809013
 20
48.228348
 11
-64.809013
 21
45.826431
  0
LINE
  8
0
  6
CONTINUOUS
 62
     7
 10
-97.809013
 20
48.228348
 11
-97.809013
 21
45.826431
  0
LINE
  8
0
  6
CONTINUOUS
 62
     7
 10
-64.309013
 20
133.54449
 11
-59.431515
 21
133.54449
  0
LINE
  8
0
  6
CONTINUOUS
 62
     7
 10
-103.18652
 20
174.54449
 11
-59.431515
 21
174.54449
  0
LINE
  8
0
  6
CONTINUOUS
 62
     7
 10
-61.309017
 20
51.728348
 11
-57.431515
 21
51.728348
  0
LINE
  8
0
  6
CONTINUOUS
 62
     7
 10
-47.309017
 20
50.228348
 11
-47.309017
 21
50.228348
  0
LINE
  8
0
  6
CONTINUOUS
 62
     7
 10
-54.309017
 20
50.228348
 11
-47.309017
 21
50.228348
  0
LINE
  8
0
  6
CONTINUOUS
 62
     7
 10
-54.309017
 20
94.228355
 11
-47.309017
 21
94.228355
  0
LINE
  8
0
  6
CONTINUOUS
 62
     7
 10
-56.309017
 20
132.04449
 11
-49.309017
 21
132.04449
  0
LINE
  8
0
  6
CONTINUOUS
 62
     7
 10
-56.309017
 20
176.04449
 11
-49.309017
 21
176.04449
  0
LINE
  8
0
  6
CENTER
 62
     7
 10
-81.309013
 20
97.778351
 11
-81.309013
 21
31.978348
  0
LINE
  8
0
  6
CENTER
 62
     7
 10
-81.309013
 20
179.59448
 11
-81.309013
 21
115.89449
  0
LINE
  8
0
  6
CONTINUOUS
 62
     7
 10
-95.057671
 20
208.01591
 11
-67.843468
 21
208.01591
  0
LINE
  8
0
  6
CONTINUOUS
 62
     7
 10
-94.412781
 20
213.01591
 11
-67.843468
 21
213.01591
  0
LINE
  8
0
  6
CONTINUOUS
 62
     7
 10
-95.430496
 20
127.66307
 11
-67.762413
 21
127.66307
  0
LINE
  8
0
  6
CONTINUOUS
 62
     7
 10
-94.920021
 20
132.66307
 11
-67.55822
 21
132.66307
  0
LINE
  8
0
  6
CONTINUOUS
 62
     7
 10
-97.829765
 20
43.96608
 11
-65.261055
 21
43.96608
  0
LINE
  8
0
  6
CONTINUOUS
 62
     7
 10
-97.809013
 20
48.96608
 11
-64.809013
 21
48.96608
  0
LINE
  8
0
  6
CONTINUOUS
 62
     7
 10
-80.859016
 20
235.84317
 11
-80.859016
 21
234.61057
  0
LINE
  8
0
  6
CONTINUOUS
 62
     7
 10
-81.75901
 20
235.84317
 11
-81.75901
 21
234.61057
  0
LINE
  8
0
  6
CONTINUOUS
 62
     7
 10
-81.75901
 20
228.07578
 11
-81.75901
 21
226.84317
  0
LINE
  8
0
  6
CONTINUOUS
 62
     7
 10
-80.859016
 20
228.07578
 11
-80.859016
 21
226.84317
  0
LINE
  8
0
  6
CONTINUOUS
 62
     7
 10
-81.75901
 20
233.70731
 11
-81.75901
 21
231.34317
  0
LINE
  8
0
  6
CONTINUOUS
 62
     7
 10
-80.859016
 20
233.70731
 11
-80.859016
 21
231.34317
  0
LINE
  8
0
  6
CONTINUOUS
 62
     7
 10
-80.709007
 20
160.04449
 11
-80.709007
 21
158.40103
  0
LINE
  8
0
  6
CONTINUOUS
 62
     7
 10
-81.909019
 20
160.04449
 11
-81.909019
 21
158.40103
  0
LINE
  8
0
  6
CONTINUOUS
 62
     7
 10
-81.909019
 20
149.68796
 11
-81.909019
 21
148.04449
  0
LINE
  8
0
  6
CONTINUOUS
 62
     7
 10
-80.709007
 20
149.68796
 11
-80.709007
 21
148.04449
  0
LINE
  8
0
  6
CONTINUOUS
 62
     7
 10
-81.909019
 20
157.19669
 11
-81.909019
 21
154.04449
  0
LINE
  8
0
  6
CONTINUOUS
 62
     7
 10
-80.709007
 20
157.19669
 11
-80.709007
 21
154.04449
  0
LINE
  8
0
  6
CONTINUOUS
 62
     7
 10
-80.709007
 20
78.228348
 11
-80.709007
 21
76.584885
  0
LINE
  8
0
  6
CONTINUOUS
 62
     7
 10
-81.909004
 20
78.228348
 11
-81.909004
 21
76.584885
  0
LINE
  8
0
  6
CONTINUOUS
 62
     7
 10
-81.909004
 20
67.871811
 11
-81.909004
 21
66.228348
  0
LINE
  8
0
  6
CONTINUOUS
 62
     7
 10
-80.709007
 20
67.871811
 11
-80.709007
 21
66.228348
  0
LINE
  8
0
  6
CONTINUOUS
 62
     7
 10
-81.909004
 20
75.380539
 11
-81.909004
 21
72.228348
  0
LINE
  8
0
  6
CONTINUOUS
 62
     7
 10
-80.709007
 20
75.380539
 11
-80.709007
 21
72.228348
  0
ARC
  8
0
  6
CONTINUOUS
 62
     7
 10
-64.309013
 20
211.34317
 40
3.5
 50
90.000003
 51
180.00001
  0
ARC
  8
0
  6
CONTINUOUS
 62
     7
 10
-98.309013
 20
211.34317
 40
3.5
 50
0
 51
90.000003
  0
ARC
  8
0
  6
CONTINUOUS
 62
     7
 10
-98.309013
 20
130.04449
 40
3.5
 50
0
 51
90.000003
  0
ARC
  8
0
  6
CONTINUOUS
 62
     7
 10
-64.309013
 20
130.04449
 40
3.5
 50
90.000003
 51
180.00001
  0
ARC
  8
0
  6
CONTINUOUS
 62
     7
 10
-101.30901
 20
48.228348
 40
3.5
 50
0
 51
90.000003
  0
ARC
  8
0
  6
CONTINUOUS
 62
     7
 10
-61.309017
 20
48.228348
 40
3.5
 50
90.000003
 51
180.00001
  0
ARC
  8
0
  6
CONTINUOUS
 62
     7
 10
-64.809013
 20
129.64256
 40
3
 50
179.99999
 51
240.00001
  0
ARC
  8
0
  6
CONTINUOUS
 62
     7
 10
-97.809013
 20
129.64256
 40
3
 50
300
 51
0
  0
ARC
  8
0
  6
CONTINUOUS
 62
     7
 10
-105.18652
 20
96.728355
 40
4
 50
218.68218
 51
270
  0
ARC
  8
0
  6
CONTINUOUS
 62
     7
 10
-57.431515
 20
96.728355
 40
4
 50
270
 51
321.31781
  0
ARC
  8
0
  6
CONTINUOUS
 62
     7
 10
-57.431515
 20
47.728348
 40
4
 50
38.682189
 51
90.000003
  0
ARC
  8
0
  6
CONTINUOUS
 62
     7
 10
-105.18652
 20
47.728348
 40
4
 50
90.000003
 51
141.31782
  0
ARC
  8
0
  6
CONTINUOUS
 62
     7
 10
-103.18652
 20
178.54449
 40
4
 50
218.68218
 51
270
  0
ARC
  8
0
  6
CONTINUOUS
 62
     7
 10
-59.431515
 20
178.54449
 40
4
 50
270
 51
321.31781
  0
ARC
  8
0
  6
CONTINUOUS
 62
     7
 10
-59.431515
 20
129.54449
 40
4
 50
38.682189
 51
90.000003
  0
ARC
  8
0
  6
CONTINUOUS
 62
     7
 10
-103.18652
 20
129.54449
 40
4
 50
90.000003
 51
141.31782
  0
ARC
  8
0
  6
CONTINUOUS
 62
     7
 10
-101.71094
 20
250.84317
 40
3
 50
210
 51
270
  0
ARC
  8
0
  6
CONTINUOUS
 62
     7
 10
-60.907093
 20
250.84317
 40
3
 50
270
 51
330
  0
ARC
  8
0
  6
CONTINUOUS
 62
     7
 10
-60.907093
 20
211.84317
 40
3
 50
30.000001
 51
90.000003
  0
ARC
  8
0
  6
CONTINUOUS
 62
     7
 10
-64.809013
 20
209.94124
 40
3
 50
179.99999
 51
240.00001
  0
ARC
  8
0
  6
CONTINUOUS
 62
     7
 10
-97.809013
 20
209.94124
 40
3
 50
300
 51
0
  0
ARC
  8
0
  6
CONTINUOUS
 62
     7
 10
-101.71094
 20
211.84317
 40
3
 50
90.000003
 51
150
  0
ARC
  8
0
  6
CONTINUOUS
 62
     7
 10
-100.80901
 20
45.826431
 40
3
 50
300
 51
0
  0
ARC
  8
0
  6
CONTINUOUS
 62
     7
 10
-61.809017
 20
45.826431
 40
3
 50
179.99999
 51
240.00001
  0
ARC
  8
0
  6
CONTINUOUS
 62
     7
 10
-79.50901
 20
231.34317
 40
1.8
 50
306.00832
 51
53.991672
  0
ARC
  8
0
  6
CONTINUOUS
 62
     7
 10
-79.50901
 20
231.34317
 40
2.7
 50
306.00832
 51
53.991672
  0
ARC
  8
0
  6
CONTINUOUS
 62
     7
 10
-83.109016
 20
231.34317
 40
1.8
 50
126.00833
 51
233.99168
  0
ARC
  8
0
  6
CONTINUOUS
 62
     7
 10
-83.109016
 20
231.34317
 40
2.7
 50
126.00833
 51
233.99168
  0
ARC
  8
0
  6
CONTINUOUS
 62
     7
 10
-81.309013
 20
228.86642
 40
5.7617307
 50
53.991672
 51
85.520546
  0
ARC
  8
0
  6
CONTINUOUS
 62
     7
 10
-81.309013
 20
228.86642
 40
4.8617306
 50
53.991672
 51
84.689121
  0
ARC
  8
0
  6
CONTINUOUS
 62
     7
 10
-81.309013
 20
233.81989
 40
4.8617306
 50
233.99167
 51
306.00832
  0
ARC
  8
0
  6
CONTINUOUS
 62
     7
 10
-81.309013
 20
233.81989
 40
5.7617307
 50
233.99167
 51
265.52055
  0
ARC
  8
0
  6
CONTINUOUS
 62
     7
 10
-81.309013
 20
235.50568
 40
0.5625
 50
36.869904
 51
143.1301
  0
ARC
  8
0
  6
CONTINUOUS
 62
     7
 10
-81.309013
 20
231.68066
 40
0.5625
 50
216.8699
 51
323.1301
  0
ARC
  8
0
  6
CONTINUOUS
 62
     7
 10
-81.309013
 20
227.18066
 40
0.5625
 50
216.8699
 51
323.1301
  0
ARC
  8
0
  6
CONTINUOUS
 62
     7
 10
-81.309013
 20
228.86642
 40
5.7617307
 50
94.479452
 51
126.00833
  0
ARC
  8
0
  6
CONTINUOUS
 62
     7
 10
-81.309013
 20
228.86642
 40
4.8617306
 50
95.310878
 51
126.00833
  0
ARC
  8
0
  6
CONTINUOUS
 62
     7
 10
-81.309013
 20
233.81989
 40
5.7617307
 50
274.47945
 51
306.00832
  0
ARC
  8
0
  6
CONTINUOUS
 62
     7
 10
-78.909019
 20
154.04449
 40
2.4000001
 50
306.00832
 51
53.991672
  0
ARC
  8
0
  6
CONTINUOUS
 62
     7
 10
-78.909019
 20
154.04449
 40
3.5999999
 50
306.00832
 51
53.991672
  0
ARC
  8
0
  6
CONTINUOUS
 62
     7
 10
-83.709023
 20
154.04449
 40
2.4000001
 50
126.00833
 51
233.99168
  0
ARC
  8
0
  6
CONTINUOUS
 62
     7
 10
-83.709023
 20
154.04449
 40
3.5999999
 50
126.00833
 51
233.99168
  0
ARC
  8
0
  6
CONTINUOUS
 62
     7
 10
-81.309013
 20
150.74219
 40
7.6823077
 50
53.991672
 51
85.520546
  0
ARC
  8
0
  6
CONTINUOUS
 62
     7
 10
-81.309013
 20
150.74219
 40
6.4823079
 50
53.991672
 51
84.689121
  0
ARC
  8
0
  6
CONTINUOUS
 62
     7
 10
-81.309013
 20
157.3468
 40
6.4823079
 50
233.99167
 51
306.00832
  0
ARC
  8
0
  6
CONTINUOUS
 62
     7
 10
-81.309013
 20
157.3468
 40
7.6823077
 50
233.99167
 51
265.52055
  0
ARC
  8
0
  6
CONTINUOUS
 62
     7
 10
-81.309013
 20
159.59451
 40
0.75
 50
36.869904
 51
143.1301
  0
ARC
  8
0
  6
CONTINUOUS
 62
     7
 10
-81.309013
 20
154.49451
 40
0.75
 50
216.8699
 51
323.1301
  0
ARC
  8
0
  6
CONTINUOUS
 62
     7
 10
-81.309013
 20
148.49451
 40
0.75
 50
216.8699
 51
323.1301
  0
ARC
  8
0
  6
CONTINUOUS
 62
     7
 10
-81.309013
 20
150.74219
 40
6.4823079
 50
95.310878
 51
126.00833
  0
ARC
  8
0
  6
CONTINUOUS
 62
     7
 10
-81.309013
 20
150.74219
 40
7.6823077
 50
94.479452
 51
126.00833
  0
ARC
  8
0
  6
CONTINUOUS
 62
     7
 10
-81.309013
 20
157.3468
 40
7.6823077
 50
274.47945
 51
306.00832
  0
ARC
  8
0
  6
CONTINUOUS
 62
     7
 10
-78.909019
 20
72.228348
 40
2.4000001
 50
306.00832
 51
53.991672
  0
ARC
  8
0
  6
CONTINUOUS
 62
     7
 10
-78.909019
 20
72.228348
 40
3.5999999
 50
306.00832
 51
53.991672
  0
ARC
  8
0
  6
CONTINUOUS
 62
     7
 10
-83.709007
 20
72.228348
 40
2.4000001
 50
126.00833
 51
233.99168
  0
ARC
  8
0
  6
CONTINUOUS
 62
     7
 10
-83.709007
 20
72.228348
 40
3.5999999
 50
126.00833
 51
233.99168
  0
ARC
  8
0
  6
CONTINUOUS
 62
     7
 10
-81.309013
 20
68.926041
 40
7.6823077
 50
53.991672
 51
85.520546
  0
ARC
  8
0
  6
CONTINUOUS
 62
     7
 10
-81.309013
 20
68.926041
 40
6.4823079
 50
53.991672
 51
84.689121
  0
ARC
  8
0
  6
CONTINUOUS
 62
     7
 10
-81.309013
 20
75.530655
 40
6.4823079
 50
233.99167
 51
306.00832
  0
ARC
  8
0
  6
CONTINUOUS
 62
     7
 10
-81.309013
 20
75.530655
 40
7.6823077
 50
233.99167
 51
265.52055
  0
ARC
  8
0
  6
CONTINUOUS
 62
     7
 10
-81.309013
 20
77.778366
 40
0.75
 50
36.869904
 51
143.1301
  0
ARC
  8
0
  6
CONTINUOUS
 62
     7
 10
-81.309013
 20
72.67836
 40
0.75
 50
216.8699
 51
323.1301
  0
ARC
  8
0
  6
CONTINUOUS
 62
     7
 10
-81.309013
 20
66.67836
 40
0.75
 50
216.8699
 51
323.1301
  0
ARC
  8
0
  6
CONTINUOUS
 62
     7
 10
-81.309013
 20
68.926041
 40
6.4823079
 50
95.310878
 51
126.00833
  0
ARC
  8
0
  6
CONTINUOUS
 62
     7
 10
-81.309013
 20
68.926041
 40
7.6823077
 50
94.479452
 51
126.00833
  0
ARC
  8
0
  6
CONTINUOUS
 62
     7
 10
-81.309013
 20
75.530655
 40
7.6823077
 50
274.47945
 51
306.00832
  0
TEXT
  8
0
  6
CONTINUOUS
 62
     7
 10
-186.56013
 20
276.28214
 40
5
 41
0.84195842
  1
ＲＣＦ－Ｋ　ＡＲＴ（樹脂ねじ付き水栓径違いチーズ）
  0
TEXT
  8
0
  6
CONTINUOUS
 62
     7
 10
-156.87983
 20
167.60655
 40
5
 41
0.84891105
  1
１Ｘ１／２
  0
TEXT
  8
0
  6
CONTINUOUS
 62
     7
 10
-159.89147
 20
88.802048
 40
5
 41
0.84891105
  1
１Ｘ３／４
  0
TEXT
  8
0
  6
CONTINUOUS
 62
     7
 10
-160.89535
 20
241.8936
 40
5
 41
0.84633858
  1
３／４Ｘ１／２
  0
TEXT
  8
0
  6
CONTINUOUS
 62
     7
 10
-93.397245
 20
209.25341
 40
3.2
 41
0.67915094
  1
１／２　器具側　１３
  0
TEXT
  8
0
  6
CONTINUOUS
 62
     7
 10
-93.315534
 20
128.87491
 40
3.2
 41
0.67915094
  1
１／２　器具側　１３
  0
TEXT
  8
0
  6
CONTINUOUS
 62
     7
 10
-96.726499
 20
44.714301
 40
3.2
 41
0.84447575
  1
３／４　器具側　２０
  0
POINT
  8
1
  6
CONTINUOUS
 62
     7
 10
-210
 20
0
  0
POINT
  8
1
  6
CONTINUOUS
 62
     7
 10
0
 20
0
  0
POINT
  8
1
  6
CONTINUOUS
 62
     7
 10
0
 20
0
  0
POINT
  8
1
  6
CONTINUOUS
 62
     7
 10
-210
 20
297
  0
POINT
  8
1
  6
CONTINUOUS
 62
     7
 10
-210
 20
0
  0
POINT
  8
1
  6
CONTINUOUS
 62
     7
 10
0
 20
0
  0
POINT
  8
1
  6
CONTINUOUS
 62
     7
 10
0
 20
297
  0
LINE
  8
1
  6
CONTINUOUS
 62
     7
 10
-210
 20
0
 11
0
 21
0
  0
LINE
  8
1
  6
CONTINUOUS
 62
     7
 10
-210
 20
297
 11
0
 21
297
  0
LINE
  8
1
  6
CONTINUOUS
 62
     7
 10
0
 20
297
 11
0
 21
0
  0
LINE
  8
1
  6
CONTINUOUS
 62
     7
 10
-210
 20
297
 11
-210
 21
0
  0
ENDSEC
  0
EOF
