  0
SECTION
  2
HEADER
  9
$EXTMAX
 10
0
 20
297
  9
$EXTMIN
 10
-210
 20
0
  0
ENDSEC
  0
SECTION
  2
TABLES
  0
TABLE
  2
LTYPE
 70
    22
  0
LTYPE
  2
CONTINUOUS
 70
    64
  3
Solid line
 72
    65
 73
     0
 40
0.000000
  0
LTYPE
  2
DASHED
 70
    64
  3
__ __ __ __ __ __ __ __ __ __ __ __ __ __ __
 72
    65
 73
     2
 40
3.500000
 49
2.000000
 49
-1.500000
  0
LTYPE
  2
CENTER
 70
    64
  3
____ _ ____ _ ____ _ ____ _ ____ _ ____ _ ____
 72
    65
 73
     4
 40
17.500000
 49
13.000000
 49
-1.500000
 49
1.500000
 49
-1.500000
  0
LTYPE
  2
PHANTOM
 70
    64
  3
_____ _ _ _____ _ _ _____ _ _ _____ _ _ ____  
 72
    65
 73
     6
 40
15.500000
 49
8.000000
 49
-1.500000
 49
1.500000
 49
-1.500000
 49
1.500000
 49
-1.500000
  0
LTYPE
  2
DOT
 70
    64
  3
. . . . . . . . . . . . . . . . . . . . . . . .
 72
    65
 73
     2
 40
0.25
 49
0.0
 49
-0.25
  0
ENDTAB
  0
TABLE
  2
LAYER
 70
     2
  0
LAYER
  2
0
 70
     0
 62
     7
  6
CONTINUOUS
  0
LAYER
  2
1
 70
     0
 62
     7
  6
CONTINUOUS
  0
ENDTAB
  0
TABLE
  2
STYLE
 70
     1
  0
STYLE
  2
STANDARD
 70
     0
 40
0.000000
 41
1.000000
 50
0.000000
 71
     0
 42
0.200000
  3
txt
  4
BIGFONT
  0
ENDTAB
  0
TABLE
  2
VIEW
 70
     0
  0
ENDTAB
  0
ENDSEC
  0
SECTION
  2
BLOCKS
  0
ENDSEC
  0
SECTION
  2
ENTITIES
  0
POINT
  8
0
  6
CONTINUOUS
 62
     7
 10
-95.650002
 20
206.14999
  0
POINT
  8
0
  6
CONTINUOUS
 62
     7
 10
-99.75
 20
130.89999
  0
POINT
  8
0
  6
CONTINUOUS
 62
     7
 10
-102.55
 20
55.650009
  0
LINE
  8
0
  6
CENTER
 62
     7
 10
-53.450005
 20
206.14999
 11
-99.849998
 21
206.14999
  0
LINE
  8
0
  6
CONTINUOUS
 62
     7
 10
-81.650002
 20
189.64999
 11
-87.051926
 21
189.64999
  0
LINE
  8
0
  6
CONTINUOUS
 62
     7
 10
-70.972923
 20
192.64999
 11
-66.248077
 21
192.64999
  0
LINE
  8
0
  6
CONTINUOUS
 62
     7
 10
-70.972923
 20
219.64999
 11
-66.248077
 21
219.64999
  0
LINE
  8
0
  6
CONTINUOUS
 62
     7
 10
-81.650002
 20
222.64999
 11
-87.051926
 21
222.64999
  0
LINE
  8
0
  6
CONTINUOUS
 62
     7
 10
-57.650002
 20
221.14999
 11
-57.650002
 21
191.14999
  0
LINE
  8
0
  6
CONTINUOUS
 62
     7
 10
-95.650002
 20
224.14999
 11
-95.650002
 21
188.14999
  0
LINE
  8
0
  6
CONTINUOUS
 62
     7
 10
-82.97876
 20
110.4
 11
-89.627502
 21
110.4
  0
LINE
  8
0
  6
CONTINUOUS
 62
     7
 10
-69.75
 20
117.4
 11
-66.348076
 21
117.4
  0
LINE
  8
0
  6
CONTINUOUS
 62
     7
 10
-69.75
 20
144.39999
 11
-66.348076
 21
144.39999
  0
LINE
  8
0
  6
CONTINUOUS
 62
     7
 10
-82.97876
 20
151.39999
 11
-89.627502
 21
151.39999
  0
LINE
  8
0
  6
CENTER
 62
     7
 10
-53.550003
 20
130.89999
 11
-103.95
 21
130.89999
  0
LINE
  8
0
  6
CONTINUOUS
 62
     7
 10
-57.75
 20
145.89999
 11
-57.75
 21
115.9
  0
LINE
  8
0
  6
CONTINUOUS
 62
     7
 10
-99.75
 20
152.89999
 11
-99.75
 21
108.9
  0
LINE
  8
0
  6
CENTER
 62
     7
 10
-56.350018
 20
55.650009
 11
-106.75
 21
55.650009
  0
LINE
  8
0
  6
CONTINUOUS
 62
     7
 10
-86.550003
 20
35.150009
 11
-92.427498
 21
35.150009
  0
LINE
  8
0
  6
CONTINUOUS
 62
     7
 10
-74.550003
 20
39.150009
 11
-69.148079
 21
39.150009
  0
LINE
  8
0
  6
CONTINUOUS
 62
     7
 10
-74.550003
 20
72.150009
 11
-69.148079
 21
72.150009
  0
LINE
  8
0
  6
CONTINUOUS
 62
     7
 10
-86.550003
 20
76.150009
 11
-92.427498
 21
76.150009
  0
LINE
  8
0
  6
CONTINUOUS
 62
     7
 10
-60.549999
 20
73.650009
 11
-60.549999
 21
37.650009
  0
LINE
  8
0
  6
CONTINUOUS
 62
     7
 10
-102.55
 20
77.650009
 11
-102.55
 21
33.650009
  0
LINE
  8
0
  6
CONTINUOUS
 62
     7
 10
-89.650002
 20
224.14999
 11
-95.650002
 21
224.14999
  0
LINE
  8
0
  6
CONTINUOUS
 62
     7
 10
-89.650002
 20
188.14999
 11
-95.650002
 21
188.14999
  0
LINE
  8
0
  6
CONTINUOUS
 62
     7
 10
-57.650002
 20
221.14999
 11
-63.650002
 21
221.14999
  0
LINE
  8
0
  6
CONTINUOUS
 62
     7
 10
-57.650002
 20
191.14999
 11
-63.650002
 21
191.14999
  0
LINE
  8
0
  6
CONTINUOUS
 62
     7
 10
-89.650002
 20
224.14999
 11
-89.650002
 21
212.14999
  0
LINE
  8
0
  6
CONTINUOUS
 62
     7
 10
-63.650002
 20
221.14999
 11
-63.650002
 21
191.14999
  0
LINE
  8
0
  6
CONTINUOUS
 62
     7
 10
-81.650002
 20
203.14999
 11
-86.650002
 21
203.14999
  0
LINE
  8
0
  6
CONTINUOUS
 62
     7
 10
-81.650002
 20
209.14999
 11
-86.650002
 21
209.14999
  0
LINE
  8
0
  6
CONTINUOUS
 62
     7
 10
-89.650002
 20
200.14999
 11
-89.650002
 21
188.14999
  0
LINE
  8
0
  6
CONTINUOUS
 62
     7
 10
-92.75
 20
152.89999
 11
-92.75
 21
138.39999
  0
LINE
  8
0
  6
CONTINUOUS
 62
     7
 10
-63.75
 20
145.89999
 11
-63.75
 21
115.9
  0
LINE
  8
0
  6
CONTINUOUS
 62
     7
 10
-92.75
 20
152.89999
 11
-99.75
 21
152.89999
  0
LINE
  8
0
  6
CONTINUOUS
 62
     7
 10
-57.75
 20
145.89999
 11
-63.75
 21
145.89999
  0
LINE
  8
0
  6
CONTINUOUS
 62
     7
 10
-57.75
 20
115.9
 11
-63.75
 21
115.9
  0
LINE
  8
0
  6
CONTINUOUS
 62
     7
 10
-80.012703
 20
134.39999
 11
-88.75
 21
134.39999
  0
LINE
  8
0
  6
CONTINUOUS
 62
     7
 10
-80.012703
 20
127.4
 11
-88.75
 21
127.4
  0
LINE
  8
0
  6
CONTINUOUS
 62
     7
 10
-92.75
 20
108.9
 11
-99.75
 21
108.9
  0
LINE
  8
0
  6
CONTINUOUS
 62
     7
 10
-92.75
 20
123.4
 11
-92.75
 21
108.9
  0
LINE
  8
0
  6
CONTINUOUS
 62
     7
 10
-95.550003
 20
77.650009
 11
-95.550003
 21
63.150009
  0
LINE
  8
0
  6
CONTINUOUS
 62
     7
 10
-66.550003
 20
73.650009
 11
-66.550003
 21
37.650009
  0
LINE
  8
0
  6
CONTINUOUS
 62
     7
 10
-95.550003
 20
33.650009
 11
-102.55
 21
33.650009
  0
LINE
  8
0
  6
CONTINUOUS
 62
     7
 10
-95.550003
 20
77.650009
 11
-102.55
 21
77.650009
  0
LINE
  8
0
  6
CONTINUOUS
 62
     7
 10
-60.549999
 20
73.650009
 11
-66.550003
 21
73.650009
  0
LINE
  8
0
  6
CONTINUOUS
 62
     7
 10
-60.549999
 20
37.650009
 11
-66.550003
 21
37.650009
  0
LINE
  8
0
  6
CONTINUOUS
 62
     7
 10
-83.421982
 20
59.150009
 11
-91.550003
 21
59.150009
  0
LINE
  8
0
  6
CONTINUOUS
 62
     7
 10
-83.421982
 20
52.150009
 11
-91.550003
 21
52.150009
  0
LINE
  8
0
  6
CONTINUOUS
 62
     7
 10
-95.550003
 20
48.150009
 11
-95.550003
 21
33.650009
  0
LINE
  8
0
  6
CONTINUOUS
 62
     7
 10
-64.694603
 20
219.8983
 11
-64.694603
 21
192.64546
  0
LINE
  8
0
  6
CONTINUOUS
 62
     7
 10
-69.694603
 20
219.64999
 11
-69.694603
 21
192.64999
  0
LINE
  8
0
  6
CONTINUOUS
 62
     7
 10
-64.283241
 20
144.39999
 11
-64.283241
 21
117.4
  0
LINE
  8
0
  6
CONTINUOUS
 62
     7
 10
-69.283241
 20
144.39999
 11
-69.283241
 21
117.4
  0
LINE
  8
0
  6
CONTINUOUS
 62
     7
 10
-67.626625
 20
72.150009
 11
-67.626625
 21
39.150009
  0
LINE
  8
0
  6
CONTINUOUS
 62
     7
 10
-72.626625
 20
72.150009
 11
-72.626625
 21
39.150009
  0
LINE
  8
0
  6
CONTINUOUS
 62
     7
 10
-83.303391
 20
200.40771
 11
-83.303391
 21
199.58598
  0
LINE
  8
0
  6
CONTINUOUS
 62
     7
 10
-83.903389
 20
200.40771
 11
-83.903389
 21
199.58598
  0
LINE
  8
0
  6
CONTINUOUS
 62
     7
 10
-83.903389
 20
195.22945
 11
-83.903389
 21
194.40771
  0
LINE
  8
0
  6
CONTINUOUS
 62
     7
 10
-83.303391
 20
195.22945
 11
-83.303391
 21
194.40771
  0
LINE
  8
0
  6
CONTINUOUS
 62
     7
 10
-83.903389
 20
198.9838
 11
-83.903389
 21
197.40771
  0
LINE
  8
0
  6
CONTINUOUS
 62
     7
 10
-83.303391
 20
198.9838
 11
-83.303391
 21
197.40771
  0
LINE
  8
0
  6
CONTINUOUS
 62
     7
 10
-87.239128
 20
48.562332
 11
-87.239128
 21
47.329727
  0
LINE
  8
0
  6
CONTINUOUS
 62
     7
 10
-88.139122
 20
48.562332
 11
-88.139122
 21
47.329727
  0
LINE
  8
0
  6
CONTINUOUS
 62
     7
 10
-88.139122
 20
40.794937
 11
-88.139122
 21
39.562332
  0
LINE
  8
0
  6
CONTINUOUS
 62
     7
 10
-87.239128
 20
40.794937
 11
-87.239128
 21
39.562332
  0
LINE
  8
0
  6
CONTINUOUS
 62
     7
 10
-88.139122
 20
46.426468
 11
-88.139122
 21
44.062332
  0
LINE
  8
0
  6
CONTINUOUS
 62
     7
 10
-87.239128
 20
46.426468
 11
-87.239128
 21
44.062332
  0
LINE
  8
0
  6
CONTINUOUS
 62
     7
 10
-85.551941
 20
123.64216
 11
-85.551941
 21
122.40955
  0
LINE
  8
0
  6
CONTINUOUS
 62
     7
 10
-86.451935
 20
123.64216
 11
-86.451935
 21
122.40955
  0
LINE
  8
0
  6
CONTINUOUS
 62
     7
 10
-86.451935
 20
115.87476
 11
-86.451935
 21
114.64216
  0
LINE
  8
0
  6
CONTINUOUS
 62
     7
 10
-85.551941
 20
115.87476
 11
-85.551941
 21
114.64216
  0
LINE
  8
0
  6
CONTINUOUS
 62
     7
 10
-86.451935
 20
121.50629
 11
-86.451935
 21
119.14216
  0
LINE
  8
0
  6
CONTINUOUS
 62
     7
 10
-85.551941
 20
121.50629
 11
-85.551941
 21
119.14216
  0
ARC
  8
0
  6
CONTINUOUS
 62
     7
 10
-81.650002
 20
200.14999
 40
10.5
 50
269.99998
 51
301.3882
  0
ARC
  8
0
  6
CONTINUOUS
 62
     7
 10
-70.972923
 20
182.64999
 40
10
 50
90.000016
 51
121.38812
  0
ARC
  8
0
  6
CONTINUOUS
 62
     7
 10
-70.972923
 20
229.64999
 40
10
 50
238.61182
 51
269.99992
  0
ARC
  8
0
  6
CONTINUOUS
 62
     7
 10
-81.650002
 20
212.14999
 40
10.5
 50
58.611745
 51
89.999962
  0
ARC
  8
0
  6
CONTINUOUS
 62
     7
 10
-82.97876
 20
118.4
 40
8
 50
269.99993
 51
325.77115
  0
ARC
  8
0
  6
CONTINUOUS
 62
     7
 10
-69.75
 20
109.4
 40
8
 50
90.000016
 51
145.77114
  0
ARC
  8
0
  6
CONTINUOUS
 62
     7
 10
-69.75
 20
152.39999
 40
8
 50
214.22886
 51
269.99998
  0
ARC
  8
0
  6
CONTINUOUS
 62
     7
 10
-82.97876
 20
143.39999
 40
8
 50
34.228848
 51
90.000016
  0
ARC
  8
0
  6
CONTINUOUS
 62
     7
 10
-86.550003
 20
45.150009
 40
10
 50
269.99993
 51
306.86986
  0
ARC
  8
0
  6
CONTINUOUS
 62
     7
 10
-74.550003
 20
29.149994
 40
10
 50
89.999962
 51
126.86985
  0
ARC
  8
0
  6
CONTINUOUS
 62
     7
 10
-74.550003
 20
82.150009
 40
10
 50
233.1301
 51
269.99998
  0
ARC
  8
0
  6
CONTINUOUS
 62
     7
 10
-86.550003
 20
66.150009
 40
10
 50
53.130085
 51
90.000016
  0
ARC
  8
0
  6
CONTINUOUS
 62
     7
 10
-87.051926
 20
225.64999
 40
3
 50
210
 51
270
  0
ARC
  8
0
  6
CONTINUOUS
 62
     7
 10
-66.248077
 20
222.64999
 40
3
 50
270
 51
329.99999
  0
ARC
  8
0
  6
CONTINUOUS
 62
     7
 10
-66.248077
 20
189.64999
 40
3
 50
30.000001
 51
90.000003
  0
ARC
  8
0
  6
CONTINUOUS
 62
     7
 10
-87.051926
 20
186.64999
 40
3
 50
90.000003
 51
150
  0
ARC
  8
0
  6
CONTINUOUS
 62
     7
 10
-86.650002
 20
212.14999
 40
3
 50
180.00001
 51
270
  0
ARC
  8
0
  6
CONTINUOUS
 62
     7
 10
-86.650002
 20
200.14999
 40
3
 50
90.000003
 51
180.00001
  0
ARC
  8
0
  6
CONTINUOUS
 62
     7
 10
-88.75
 20
138.39999
 40
4
 50
180.00001
 51
270
  0
ARC
  8
0
  6
CONTINUOUS
 62
     7
 10
-88.75
 20
123.4
 40
4
 50
90.000003
 51
180.00001
  0
ARC
  8
0
  6
CONTINUOUS
 62
     7
 10
-89.627502
 20
155.39999
 40
4
 50
218.6822
 51
270
  0
ARC
  8
0
  6
CONTINUOUS
 62
     7
 10
-89.627502
 20
106.4
 40
4
 50
90.000003
 51
141.31782
  0
ARC
  8
0
  6
CONTINUOUS
 62
     7
 10
-66.348076
 20
114.4
 40
3
 50
30.000001
 51
90.000003
  0
ARC
  8
0
  6
CONTINUOUS
 62
     7
 10
-66.348076
 20
147.39999
 40
3
 50
270
 51
329.99999
  0
ARC
  8
0
  6
CONTINUOUS
 62
     7
 10
-69.148079
 20
75.150009
 40
3
 50
270
 51
329.99999
  0
ARC
  8
0
  6
CONTINUOUS
 62
     7
 10
-69.148079
 20
36.150009
 40
3
 50
30.000001
 51
90.000003
  0
ARC
  8
0
  6
CONTINUOUS
 62
     7
 10
-92.427498
 20
31.149994
 40
4
 50
90.000003
 51
141.31782
  0
ARC
  8
0
  6
CONTINUOUS
 62
     7
 10
-92.427498
 20
80.150009
 40
4
 50
218.6822
 51
270
  0
ARC
  8
0
  6
CONTINUOUS
 62
     7
 10
-91.550003
 20
63.150009
 40
4
 50
180.00001
 51
270
  0
ARC
  8
0
  6
CONTINUOUS
 62
     7
 10
-91.550003
 20
48.150009
 40
4
 50
90.000003
 51
180.00001
  0
ARC
  8
0
  6
CONTINUOUS
 62
     7
 10
-82.403389
 20
197.40771
 40
1.2
 50
306.00832
 51
53.991676
  0
ARC
  8
0
  6
CONTINUOUS
 62
     7
 10
-82.403389
 20
197.40771
 40
1.8
 50
306.00832
 51
53.991676
  0
ARC
  8
0
  6
CONTINUOUS
 62
     7
 10
-84.803391
 20
197.40771
 40
1.2
 50
126.00833
 51
233.99168
  0
ARC
  8
0
  6
CONTINUOUS
 62
     7
 10
-84.803391
 20
197.40771
 40
1.8
 50
126.00833
 51
233.99168
  0
ARC
  8
0
  6
CONTINUOUS
 62
     7
 10
-83.603386
 20
195.75656
 40
3.8411539
 50
53.991676
 51
85.520553
  0
ARC
  8
0
  6
CONTINUOUS
 62
     7
 10
-83.603386
 20
195.75656
 40
3.241154
 50
53.991676
 51
84.689121
  0
ARC
  8
0
  6
CONTINUOUS
 62
     7
 10
-83.603386
 20
199.05887
 40
3.241154
 50
233.99167
 51
306.00832
  0
ARC
  8
0
  6
CONTINUOUS
 62
     7
 10
-83.603386
 20
199.05887
 40
3.8411539
 50
233.99167
 51
265.52055
  0
ARC
  8
0
  6
CONTINUOUS
 62
     7
 10
-83.603386
 20
200.18271
 40
0.375
 50
36.869897
 51
143.1301
  0
ARC
  8
0
  6
CONTINUOUS
 62
     7
 10
-83.603386
 20
197.63272
 40
0.375
 50
216.8699
 51
323.1301
  0
ARC
  8
0
  6
CONTINUOUS
 62
     7
 10
-83.603386
 20
194.63272
 40
0.375
 50
216.8699
 51
323.1301
  0
ARC
  8
0
  6
CONTINUOUS
 62
     7
 10
-83.603386
 20
199.05887
 40
3.8411539
 50
274.47945
 51
306.00832
  0
ARC
  8
0
  6
CONTINUOUS
 62
     7
 10
-83.603386
 20
195.75656
 40
3.241154
 50
95.310878
 51
126.00833
  0
ARC
  8
0
  6
CONTINUOUS
 62
     7
 10
-83.603386
 20
195.75656
 40
3.8411539
 50
94.479452
 51
126.00833
  0
ARC
  8
0
  6
CONTINUOUS
 62
     7
 10
-85.889122
 20
44.062332
 40
1.8
 50
306.00832
 51
53.991676
  0
ARC
  8
0
  6
CONTINUOUS
 62
     7
 10
-85.889122
 20
44.062332
 40
2.7
 50
306.00832
 51
53.991676
  0
ARC
  8
0
  6
CONTINUOUS
 62
     7
 10
-89.489128
 20
44.062332
 40
1.8
 50
126.00833
 51
233.99168
  0
ARC
  8
0
  6
CONTINUOUS
 62
     7
 10
-89.489128
 20
44.062332
 40
2.7
 50
126.00833
 51
233.99168
  0
ARC
  8
0
  6
CONTINUOUS
 62
     7
 10
-87.689125
 20
41.585602
 40
5.7617307
 50
53.991676
 51
85.520553
  0
ARC
  8
0
  6
CONTINUOUS
 62
     7
 10
-87.689125
 20
41.585602
 40
4.8617306
 50
53.991676
 51
84.689121
  0
ARC
  8
0
  6
CONTINUOUS
 62
     7
 10
-87.689125
 20
46.539063
 40
4.8617306
 50
233.99167
 51
306.00832
  0
ARC
  8
0
  6
CONTINUOUS
 62
     7
 10
-87.689125
 20
46.539063
 40
5.7617307
 50
233.99167
 51
265.52055
  0
ARC
  8
0
  6
CONTINUOUS
 62
     7
 10
-87.689125
 20
48.224838
 40
0.5625
 50
36.869897
 51
143.1301
  0
ARC
  8
0
  6
CONTINUOUS
 62
     7
 10
-87.689125
 20
44.399826
 40
0.5625
 50
216.8699
 51
323.1301
  0
ARC
  8
0
  6
CONTINUOUS
 62
     7
 10
-87.689125
 20
39.899826
 40
0.5625
 50
216.8699
 51
323.1301
  0
ARC
  8
0
  6
CONTINUOUS
 62
     7
 10
-87.689125
 20
41.585602
 40
5.7617307
 50
94.479452
 51
126.00833
  0
ARC
  8
0
  6
CONTINUOUS
 62
     7
 10
-87.689125
 20
41.585602
 40
4.8617306
 50
95.310878
 51
126.00833
  0
ARC
  8
0
  6
CONTINUOUS
 62
     7
 10
-87.689125
 20
46.539063
 40
5.7617307
 50
274.47945
 51
306.00832
  0
ARC
  8
0
  6
CONTINUOUS
 62
     7
 10
-84.201935
 20
119.14216
 40
1.8
 50
306.00832
 51
53.991676
  0
ARC
  8
0
  6
CONTINUOUS
 62
     7
 10
-84.201935
 20
119.14216
 40
2.7
 50
306.00832
 51
53.991676
  0
ARC
  8
0
  6
CONTINUOUS
 62
     7
 10
-87.801941
 20
119.14216
 40
1.8
 50
126.00833
 51
233.99168
  0
ARC
  8
0
  6
CONTINUOUS
 62
     7
 10
-87.801941
 20
119.14216
 40
2.7
 50
126.00833
 51
233.99168
  0
ARC
  8
0
  6
CONTINUOUS
 62
     7
 10
-86.001938
 20
116.66543
 40
5.7617307
 50
53.991676
 51
85.520553
  0
ARC
  8
0
  6
CONTINUOUS
 62
     7
 10
-86.001938
 20
116.66543
 40
4.8617306
 50
53.991676
 51
84.689121
  0
ARC
  8
0
  6
CONTINUOUS
 62
     7
 10
-86.001938
 20
121.61889
 40
4.8617306
 50
233.99167
 51
306.00832
  0
ARC
  8
0
  6
CONTINUOUS
 62
     7
 10
-86.001938
 20
121.61889
 40
5.7617307
 50
233.99167
 51
265.52055
  0
ARC
  8
0
  6
CONTINUOUS
 62
     7
 10
-86.001938
 20
123.30466
 40
0.5625
 50
36.869897
 51
143.1301
  0
ARC
  8
0
  6
CONTINUOUS
 62
     7
 10
-86.001938
 20
119.47965
 40
0.5625
 50
216.8699
 51
323.1301
  0
ARC
  8
0
  6
CONTINUOUS
 62
     7
 10
-86.001938
 20
114.97965
 40
0.5625
 50
216.8699
 51
323.1301
  0
ARC
  8
0
  6
CONTINUOUS
 62
     7
 10
-86.001938
 20
116.66543
 40
5.7617307
 50
94.479452
 51
126.00833
  0
ARC
  8
0
  6
CONTINUOUS
 62
     7
 10
-86.001938
 20
116.66543
 40
4.8617306
 50
95.310878
 51
126.00833
  0
ARC
  8
0
  6
CONTINUOUS
 62
     7
 10
-86.001938
 20
121.61889
 40
5.7617307
 50
274.47945
 51
306.00832
  0
TEXT
  8
0
  6
CONTINUOUS
 62
     7
 10
-186.56013
 20
276.28214
 40
5
 41
0.84189521
  1
ＲＣＦ－Ｋ　ＡＲＳ（樹脂ねじ付き水栓径違いソケット）
  0
TEXT
  8
0
  6
CONTINUOUS
 62
     7
 10
-150.31747
 20
158.65247
 40
5
 41
0.84891105
  1
１Ｘ１／２
  0
TEXT
  8
0
  6
CONTINUOUS
 62
     7
 10
-143.9591
 20
79.172943
 40
5
 41
0.84891105
  1
１Ｘ３／４
  0
TEXT
  8
0
  6
CONTINUOUS
 62
     7
 10
-149.0458
 20
234.31696
 40
5
 41
0.84633858
  1
３／４Ｘ１／２
  0
TEXT
  8
0
  6
CONTINUOUS
 62
     7
 10
-65.511366
 20
193.37179
 40
3.2
 41
0.67915094
  1
１／２　器具側　１３
 50
90.000003
  0
TEXT
  8
0
  6
CONTINUOUS
 62
     7
 10
-65.183821
 20
118.88077
 40
3.2
 41
0.67915094
  1
１／２　器具側　１３
 50
90.000003
  0
TEXT
  8
0
  6
CONTINUOUS
 62
     7
 10
-68.274115
 20
40.556895
 40
3.2
 41
0.84447575
  1
３／４　器具側　２０
 50
90.000003
  0
POINT
  8
1
  6
CONTINUOUS
 62
     7
 10
-210
 20
0
  0
POINT
  8
1
  6
CONTINUOUS
 62
     7
 10
0
 20
0
  0
POINT
  8
1
  6
CONTINUOUS
 62
     7
 10
0
 20
0
  0
POINT
  8
1
  6
CONTINUOUS
 62
     7
 10
-210
 20
297
  0
POINT
  8
1
  6
CONTINUOUS
 62
     7
 10
-210
 20
0
  0
POINT
  8
1
  6
CONTINUOUS
 62
     7
 10
0
 20
0
  0
POINT
  8
1
  6
CONTINUOUS
 62
     7
 10
0
 20
297
  0
LINE
  8
1
  6
CONTINUOUS
 62
     7
 10
-210
 20
0
 11
0
 21
0
  0
LINE
  8
1
  6
CONTINUOUS
 62
     7
 10
-210
 20
297
 11
0
 21
297
  0
LINE
  8
1
  6
CONTINUOUS
 62
     7
 10
0
 20
297
 11
0
 21
0
  0
LINE
  8
1
  6
CONTINUOUS
 62
     7
 10
-210
 20
297
 11
-210
 21
0
  0
ENDSEC
  0
EOF
