  0
SECTION
  2
HEADER
  9
$EXTMAX
 10
0
 20
297
  9
$EXTMIN
 10
-210
 20
0
  0
ENDSEC
  0
SECTION
  2
TABLES
  0
TABLE
  2
LTYPE
 70
    22
  0
LTYPE
  2
CONTINUOUS
 70
    64
  3
Solid line
 72
    65
 73
     0
 40
0.000000
  0
LTYPE
  2
DASHED
 70
    64
  3
__ __ __ __ __ __ __ __ __ __ __ __ __ __ __
 72
    65
 73
     2
 40
3.500000
 49
2.000000
 49
-1.500000
  0
LTYPE
  2
CENTER
 70
    64
  3
____ _ ____ _ ____ _ ____ _ ____ _ ____ _ ____
 72
    65
 73
     4
 40
17.500000
 49
13.000000
 49
-1.500000
 49
1.500000
 49
-1.500000
  0
LTYPE
  2
PHANTOM
 70
    64
  3
_____ _ _ _____ _ _ _____ _ _ _____ _ _ ____  
 72
    65
 73
     6
 40
15.500000
 49
8.000000
 49
-1.500000
 49
1.500000
 49
-1.500000
 49
1.500000
 49
-1.500000
  0
LTYPE
  2
DOT
 70
    64
  3
. . . . . . . . . . . . . . . . . . . . . . . .
 72
    65
 73
     2
 40
0.25
 49
0.0
 49
-0.25
  0
ENDTAB
  0
TABLE
  2
LAYER
 70
     2
  0
LAYER
  2
0
 70
     0
 62
     7
  6
CONTINUOUS
  0
LAYER
  2
1
 70
     0
 62
     7
  6
CONTINUOUS
  0
ENDTAB
  0
TABLE
  2
STYLE
 70
     1
  0
STYLE
  2
STANDARD
 70
     0
 40
0.000000
 41
1.000000
 50
0.000000
 71
     0
 42
0.200000
  3
txt
  4
BIGFONT
  0
ENDTAB
  0
TABLE
  2
VIEW
 70
     0
  0
ENDTAB
  0
ENDSEC
  0
SECTION
  2
BLOCKS
  0
ENDSEC
  0
SECTION
  2
ENTITIES
  0
POINT
  8
0
  6
CONTINUOUS
 62
     7
 10
-95.900002
 20
215.25
  0
POINT
  8
0
  6
CONTINUOUS
 62
     7
 10
-90.710495
 20
146.34608
  0
POINT
  8
0
  6
CONTINUOUS
 62
     7
 10
-92.261726
 20
70.852676
  0
LINE
  8
0
  6
CONTINUOUS
 62
     7
 10
-79.400002
 20
197.75002
 11
-79.400002
 21
194.84808
  0
LINE
  8
0
  6
CONTINUOUS
 62
     7
 10
-112.4
 20
197.75002
 11
-112.4
 21
194.8481
  0
LINE
  8
0
  6
CONTINUOUS
 62
     7
 10
-81.400002
 20
228.75
 11
-74.498085
 21
228.75
  0
LINE
  8
0
  6
CONTINUOUS
 62
     7
 10
-75.400002
 20
201.75
 11
-74.498085
 21
201.75
  0
LINE
  8
0
  6
CENTER
 62
     7
 10
-78.081764
 20
215.25
 11
-61.700005
 21
215.25
  0
LINE
  8
0
  6
CENTER
 62
     7
 10
-95.900002
 20
197.43178
 11
-95.900002
 21
182.05002
  0
LINE
  8
0
  6
CONTINUOUS
 62
     7
 10
-65.900002
 20
230.25
 11
-65.900002
 21
200.25
  0
LINE
  8
0
  6
CONTINUOUS
 62
     7
 10
-113.9
 20
186.25002
 11
-77.900002
 21
186.25002
  0
LINE
  8
0
  6
CONTINUOUS
 62
     7
 10
-113.9
 20
192.25002
 11
-113.9
 21
186.25002
  0
LINE
  8
0
  6
CONTINUOUS
 62
     7
 10
-77.900002
 20
192.25002
 11
-77.900002
 21
186.25002
  0
LINE
  8
0
  6
CONTINUOUS
 62
     7
 10
-113.9
 20
192.25002
 11
-77.900002
 21
192.25002
  0
LINE
  8
0
  6
CONTINUOUS
 62
     7
 10
-71.900002
 20
230.25
 11
-71.900002
 21
200.25
  0
LINE
  8
0
  6
CONTINUOUS
 62
     7
 10
-71.900002
 20
230.25
 11
-65.900002
 21
230.25
  0
LINE
  8
0
  6
CONTINUOUS
 62
     7
 10
-71.900002
 20
200.25
 11
-65.900002
 21
200.25
  0
LINE
  8
0
  6
CONTINUOUS
 62
     7
 10
-70.210495
 20
127.84611
 11
-70.210495
 21
123.94418
  0
LINE
  8
0
  6
CENTER
 62
     7
 10
-74.139908
 20
146.34608
 11
-53.510498
 21
146.34608
  0
LINE
  8
0
  6
CENTER
 62
     7
 10
-90.710495
 20
129.77545
 11
-90.710495
 21
110.14611
  0
LINE
  8
0
  6
CONTINUOUS
 62
     7
 10
-82.210495
 20
159.84608
 11
-66.308563
 21
159.84608
  0
LINE
  8
0
  6
CONTINUOUS
 62
     7
 10
-111.21048
 20
130.8461
 11
-111.21048
 21
123.94419
  0
LINE
  8
0
  6
CONTINUOUS
 62
     7
 10
-57.710495
 20
161.34608
 11
-57.710495
 21
131.34608
  0
LINE
  8
0
  6
CONTINUOUS
 62
     7
 10
-112.71049
 20
114.34611
 11
-68.710495
 21
114.34611
  0
LINE
  8
0
  6
CONTINUOUS
 62
     7
 10
-112.71049
 20
121.34611
 11
-112.71049
 21
114.34611
  0
LINE
  8
0
  6
CONTINUOUS
 62
     7
 10
-68.710495
 20
121.34611
 11
-68.710495
 21
114.34611
  0
LINE
  8
0
  6
CONTINUOUS
 62
     7
 10
-63.710495
 20
161.34608
 11
-57.710495
 21
161.34608
  0
LINE
  8
0
  6
CONTINUOUS
 62
     7
 10
-63.710495
 20
131.34608
 11
-57.710495
 21
131.34608
  0
LINE
  8
0
  6
CONTINUOUS
 62
     7
 10
-63.710495
 20
161.34608
 11
-63.710495
 21
131.34608
  0
LINE
  8
0
  6
CONTINUOUS
 62
     7
 10
-112.71049
 20
121.34611
 11
-68.710495
 21
121.34611
  0
LINE
  8
0
  6
CENTER
 62
     7
 10
-92.261726
 20
52.202682
 11
-92.261726
 21
32.652679
  0
LINE
  8
0
  6
CENTER
 62
     7
 10
-73.611664
 20
70.852676
 11
-53.061729
 21
70.852676
  0
LINE
  8
0
  6
CONTINUOUS
 62
     7
 10
-66.761726
 20
54.352676
 11
-65.859802
 21
54.352676
  0
LINE
  8
0
  6
CONTINUOUS
 62
     7
 10
-78.761726
 20
87.352676
 11
-65.859802
 21
87.352676
  0
LINE
  8
0
  6
CONTINUOUS
 62
     7
 10
-71.761726
 20
49.352676
 11
-71.761726
 21
46.45076
  0
LINE
  8
0
  6
CONTINUOUS
 62
     7
 10
-112.76173
 20
53.352676
 11
-112.76173
 21
46.45076
  0
LINE
  8
0
  6
CONTINUOUS
 62
     7
 10
-114.26173
 20
36.852676
 11
-70.261726
 21
36.852676
  0
LINE
  8
0
  6
CONTINUOUS
 62
     7
 10
-57.261726
 20
88.852676
 11
-57.261726
 21
52.852676
  0
LINE
  8
0
  6
CONTINUOUS
 62
     7
 10
-114.26173
 20
43.852676
 11
-114.26173
 21
36.852676
  0
LINE
  8
0
  6
CONTINUOUS
 62
     7
 10
-70.261726
 20
43.852676
 11
-70.261726
 21
36.852676
  0
LINE
  8
0
  6
CONTINUOUS
 62
     7
 10
-114.26173
 20
43.852676
 11
-70.261726
 21
43.852676
  0
LINE
  8
0
  6
CONTINUOUS
 62
     7
 10
-63.261726
 20
88.852676
 11
-57.261726
 21
88.852676
  0
LINE
  8
0
  6
CONTINUOUS
 62
     7
 10
-63.261726
 20
52.852676
 11
-57.261726
 21
52.852676
  0
LINE
  8
0
  6
CONTINUOUS
 62
     7
 10
-63.261726
 20
88.852676
 11
-63.261726
 21
52.852676
  0
LINE
  8
0
  6
CONTINUOUS
 62
     7
 10
-100.39896
 20
197.85748
 11
-99.166374
 21
197.85748
  0
LINE
  8
0
  6
CONTINUOUS
 62
     7
 10
-100.39896
 20
196.95749
 11
-99.166374
 21
196.95749
  0
LINE
  8
0
  6
CONTINUOUS
 62
     7
 10
-92.631569
 20
196.95749
 11
-91.398964
 21
196.95749
  0
LINE
  8
0
  6
CONTINUOUS
 62
     7
 10
-92.631569
 20
197.85748
 11
-91.398964
 21
197.85748
  0
LINE
  8
0
  6
CONTINUOUS
 62
     7
 10
-98.2631
 20
196.95749
 11
-95.898964
 21
196.95749
  0
LINE
  8
0
  6
CONTINUOUS
 62
     7
 10
-98.2631
 20
197.85748
 11
-95.898964
 21
197.85748
  0
LINE
  8
0
  6
CONTINUOUS
 62
     7
 10
-96.565475
 20
128.84724
 11
-94.922012
 21
128.84724
  0
LINE
  8
0
  6
CONTINUOUS
 62
     7
 10
-96.565475
 20
127.64724
 11
-94.922012
 21
127.64724
  0
LINE
  8
0
  6
CONTINUOUS
 62
     7
 10
-86.208939
 20
127.64724
 11
-84.565475
 21
127.64724
  0
LINE
  8
0
  6
CONTINUOUS
 62
     7
 10
-86.208939
 20
128.84724
 11
-84.565475
 21
128.84724
  0
LINE
  8
0
  6
CONTINUOUS
 62
     7
 10
-93.717651
 20
127.64724
 11
-90.565475
 21
127.64724
  0
LINE
  8
0
  6
CONTINUOUS
 62
     7
 10
-93.717651
 20
128.84724
 11
-90.565475
 21
128.84724
  0
LINE
  8
0
  6
CONTINUOUS
 62
     7
 10
-98.424072
 20
51.302505
 11
-96.780609
 21
51.302505
  0
LINE
  8
0
  6
CONTINUOUS
 62
     7
 10
-98.424072
 20
50.102509
 11
-96.780609
 21
50.102509
  0
LINE
  8
0
  6
CONTINUOUS
 62
     7
 10
-88.067543
 20
50.102509
 11
-86.424072
 21
50.102509
  0
LINE
  8
0
  6
CONTINUOUS
 62
     7
 10
-88.067543
 20
51.302505
 11
-86.424072
 21
51.302505
  0
LINE
  8
0
  6
CONTINUOUS
 62
     7
 10
-95.576248
 20
50.102509
 11
-92.424072
 21
50.102509
  0
LINE
  8
0
  6
CONTINUOUS
 62
     7
 10
-95.576248
 20
51.302505
 11
-92.424072
 21
51.302505
  0
LINE
  8
0
  6
CONTINUOUS
 62
     7
 10
-73.47699
 20
228.75
 11
-73.47699
 21
201.25745
  0
LINE
  8
0
  6
CONTINUOUS
 62
     7
 10
-78.47699
 20
228.75
 11
-78.47699
 21
201.75
  0
LINE
  8
0
  6
CONTINUOUS
 62
     7
 10
-64.875854
 20
159.84608
 11
-64.875854
 21
132.32162
  0
LINE
  8
0
  6
CONTINUOUS
 62
     7
 10
-69.875854
 20
159.84608
 11
-69.875854
 21
131.47728
  0
LINE
  8
0
  6
CONTINUOUS
 62
     7
 10
-64.579262
 20
87.352676
 11
-64.579262
 21
54.352676
  0
LINE
  8
0
  6
CONTINUOUS
 62
     7
 10
-69.579262
 20
87.352676
 11
-69.579262
 21
54.352676
  0
ARC
  8
0
  6
CONTINUOUS
 62
     7
 10
-81.399986
 20
197.75002
 40
31
 50
89.999996
 51
179.99998
  0
ARC
  8
0
  6
CONTINUOUS
 62
     7
 10
-75.399986
 20
197.75002
 40
4
 50
89.999996
 51
179.99998
  0
ARC
  8
0
  6
CENTER
 62
     7
 10
-78.081749
 20
197.43178
 40
17.818237
 50
89.999996
 51
179.99998
  0
ARC
  8
0
  6
CONTINUOUS
 62
     7
 10
-76.400002
 20
194.84808
 40
3
 50
179.99999
 51
240.00001
  0
ARC
  8
0
  6
CONTINUOUS
 62
     7
 10
-115.4
 20
194.8481
 40
3
 50
299.99966
 51
0
  0
ARC
  8
0
  6
CONTINUOUS
 62
     7
 10
-74.498085
 20
231.75
 40
3
 50
270
 51
330
  0
ARC
  8
0
  6
CONTINUOUS
 62
     7
 10
-74.498085
 20
198.75
 40
3
 50
30.000001
 51
90.000003
  0
ARC
  8
0
  6
CONTINUOUS
 62
     7
 10
-82.21048
 20
130.8461
 40
29
 50
89.999996
 51
179.99998
  0
ARC
  8
0
  6
CONTINUOUS
 62
     7
 10
-65.21048
 20
127.84611
 40
5
 50
118.21478
 51
179.99998
  0
ARC
  8
0
  6
CENTER
 62
     7
 10
-74.139893
 20
129.77545
 40
16.570648
 50
89.999996
 51
179.99998
  0
ARC
  8
0
  6
CONTINUOUS
 62
     7
 10
-66.308563
 20
162.84608
 40
3
 50
270
 51
330
  0
ARC
  8
0
  6
CONTINUOUS
 62
     7
 10
-66.156021
 20
129.60847
 40
3
 50
35.394805
 51
118.21478
  0
ARC
  8
0
  6
CONTINUOUS
 62
     7
 10
-67.210495
 20
123.94418
 40
3
 50
179.99999
 51
240.00001
  0
ARC
  8
0
  6
CONTINUOUS
 62
     7
 10
-114.21048
 20
123.94419
 40
3
 50
299.99966
 51
0
  0
ARC
  8
0
  6
CONTINUOUS
 62
     7
 10
-78.761726
 20
53.352676
 40
34
 50
89.999982
 51
179.99996
  0
ARC
  8
0
  6
CENTER
 62
     7
 10
-73.611664
 20
52.202682
 40
18.649994
 50
89.999982
 51
179.99996
  0
ARC
  8
0
  6
CONTINUOUS
 62
     7
 10
-66.761726
 20
49.352676
 40
5
 50
89.999982
 51
179.99996
  0
ARC
  8
0
  6
CONTINUOUS
 62
     7
 10
-65.859802
 20
90.352676
 40
3
 50
270
 51
330
  0
ARC
  8
0
  6
CONTINUOUS
 62
     7
 10
-65.859802
 20
51.352676
 40
3
 50
30.000001
 51
90.000003
  0
ARC
  8
0
  6
CONTINUOUS
 62
     7
 10
-68.761726
 20
46.45076
 40
3
 50
179.99999
 51
240.00001
  0
ARC
  8
0
  6
CONTINUOUS
 62
     7
 10
-115.76173
 20
46.45076
 40
3
 50
300
 51
0
  0
ARC
  8
0
  6
CONTINUOUS
 62
     7
 10
-95.898964
 20
199.20749
 40
1.8
 50
36.008324
 51
143.99167
  0
ARC
  8
0
  6
CONTINUOUS
 62
     7
 10
-95.898964
 20
199.20749
 40
2.7
 50
36.008324
 51
143.99167
  0
ARC
  8
0
  6
CONTINUOUS
 62
     7
 10
-95.898964
 20
195.60748
 40
1.8
 50
216.00833
 51
323.99168
  0
ARC
  8
0
  6
CONTINUOUS
 62
     7
 10
-95.898964
 20
195.60748
 40
2.7
 50
216.00833
 51
323.99168
  0
ARC
  8
0
  6
CONTINUOUS
 62
     7
 10
-93.422234
 20
197.4075
 40
5.7617307
 50
143.99167
 51
175.52055
  0
ARC
  8
0
  6
CONTINUOUS
 62
     7
 10
-93.422234
 20
197.4075
 40
4.8617306
 50
143.99167
 51
174.68912
  0
ARC
  8
0
  6
CONTINUOUS
 62
     7
 10
-98.375694
 20
197.4075
 40
4.8617306
 50
323.99167
 51
36.008324
  0
ARC
  8
0
  6
CONTINUOUS
 62
     7
 10
-98.375694
 20
197.4075
 40
5.7617307
 50
323.99167
 51
355.52055
  0
ARC
  8
0
  6
CONTINUOUS
 62
     7
 10
-100.06147
 20
197.4075
 40
0.5625
 50
126.8699
 51
233.13009
  0
ARC
  8
0
  6
CONTINUOUS
 62
     7
 10
-96.236473
 20
197.4075
 40
0.5625
 50
306.8699
 51
53.130102
  0
ARC
  8
0
  6
CONTINUOUS
 62
     7
 10
-91.736473
 20
197.4075
 40
0.5625
 50
306.8699
 51
53.130102
  0
ARC
  8
0
  6
CONTINUOUS
 62
     7
 10
-93.422234
 20
197.4075
 40
5.7617307
 50
184.47945
 51
216.00833
  0
ARC
  8
0
  6
CONTINUOUS
 62
     7
 10
-93.422234
 20
197.4075
 40
4.8617306
 50
185.31088
 51
216.00833
  0
ARC
  8
0
  6
CONTINUOUS
 62
     7
 10
-98.375694
 20
197.4075
 40
5.7617307
 50
4.4794472
 51
36.008324
  0
ARC
  8
0
  6
CONTINUOUS
 62
     7
 10
-90.565475
 20
130.64723
 40
2.4000001
 50
36.008324
 51
143.99167
  0
ARC
  8
0
  6
CONTINUOUS
 62
     7
 10
-90.565475
 20
130.64723
 40
3.5999999
 50
36.008324
 51
143.99167
  0
ARC
  8
0
  6
CONTINUOUS
 62
     7
 10
-90.565475
 20
125.84724
 40
2.4000001
 50
216.00833
 51
323.99168
  0
ARC
  8
0
  6
CONTINUOUS
 62
     7
 10
-90.565475
 20
125.84724
 40
3.5999999
 50
216.00833
 51
323.99168
  0
ARC
  8
0
  6
CONTINUOUS
 62
     7
 10
-87.263168
 20
128.24724
 40
7.6823077
 50
143.99167
 51
175.52055
  0
ARC
  8
0
  6
CONTINUOUS
 62
     7
 10
-87.263168
 20
128.24724
 40
6.4823079
 50
143.99167
 51
174.68912
  0
ARC
  8
0
  6
CONTINUOUS
 62
     7
 10
-93.867783
 20
128.24724
 40
6.4823079
 50
323.99167
 51
36.008324
  0
ARC
  8
0
  6
CONTINUOUS
 62
     7
 10
-93.867783
 20
128.24724
 40
7.6823077
 50
323.99167
 51
355.52055
  0
ARC
  8
0
  6
CONTINUOUS
 62
     7
 10
-96.115479
 20
128.24724
 40
0.75
 50
126.8699
 51
233.13009
  0
ARC
  8
0
  6
CONTINUOUS
 62
     7
 10
-91.015472
 20
128.24724
 40
0.75
 50
306.8699
 51
53.130102
  0
ARC
  8
0
  6
CONTINUOUS
 62
     7
 10
-85.015472
 20
128.24724
 40
0.75
 50
306.8699
 51
53.130102
  0
ARC
  8
0
  6
CONTINUOUS
 62
     7
 10
-87.263168
 20
128.24724
 40
6.4823079
 50
185.31088
 51
216.00833
  0
ARC
  8
0
  6
CONTINUOUS
 62
     7
 10
-87.263168
 20
128.24724
 40
7.6823077
 50
184.47945
 51
216.00833
  0
ARC
  8
0
  6
CONTINUOUS
 62
     7
 10
-93.867783
 20
128.24724
 40
7.6823077
 50
4.4794472
 51
36.008324
  0
ARC
  8
0
  6
CONTINUOUS
 62
     7
 10
-92.424072
 20
53.102509
 40
2.4000001
 50
36.008324
 51
143.99167
  0
ARC
  8
0
  6
CONTINUOUS
 62
     7
 10
-92.424072
 20
53.102509
 40
3.5999999
 50
36.008324
 51
143.99167
  0
ARC
  8
0
  6
CONTINUOUS
 62
     7
 10
-92.424072
 20
48.302505
 40
2.4000001
 50
216.00833
 51
323.99168
  0
ARC
  8
0
  6
CONTINUOUS
 62
     7
 10
-92.424072
 20
48.302505
 40
3.5999999
 50
216.00833
 51
323.99168
  0
ARC
  8
0
  6
CONTINUOUS
 62
     7
 10
-89.121765
 20
50.702515
 40
7.6823077
 50
143.99167
 51
175.52055
  0
ARC
  8
0
  6
CONTINUOUS
 62
     7
 10
-89.121765
 20
50.702515
 40
6.4823079
 50
143.99167
 51
174.68912
  0
ARC
  8
0
  6
CONTINUOUS
 62
     7
 10
-95.726387
 20
50.702515
 40
6.4823079
 50
323.99167
 51
36.008324
  0
ARC
  8
0
  6
CONTINUOUS
 62
     7
 10
-95.726387
 20
50.702515
 40
7.6823077
 50
323.99167
 51
355.52055
  0
ARC
  8
0
  6
CONTINUOUS
 62
     7
 10
-97.974075
 20
50.702515
 40
0.75
 50
126.8699
 51
233.13009
  0
ARC
  8
0
  6
CONTINUOUS
 62
     7
 10
-92.874077
 20
50.702515
 40
0.75
 50
306.8699
 51
53.130102
  0
ARC
  8
0
  6
CONTINUOUS
 62
     7
 10
-86.874077
 20
50.702515
 40
0.75
 50
306.8699
 51
53.130102
  0
ARC
  8
0
  6
CONTINUOUS
 62
     7
 10
-89.121765
 20
50.702515
 40
6.4823079
 50
185.31088
 51
216.00833
  0
ARC
  8
0
  6
CONTINUOUS
 62
     7
 10
-89.121765
 20
50.702515
 40
7.6823077
 50
184.47945
 51
216.00833
  0
ARC
  8
0
  6
CONTINUOUS
 62
     7
 10
-95.726387
 20
50.702515
 40
7.6823077
 50
4.4794472
 51
36.008324
  0
TEXT
  8
0
  6
CONTINUOUS
 62
     7
 10
-186.56013
 20
276.28214
 40
5
 41
0.84195842
  1
ＲＣＦ－Ｋ　ＡＲＬ（樹脂ねじ付き水栓径違いエルボ）
  0
TEXT
  8
0
  6
CONTINUOUS
 62
     7
 10
-150.31747
 20
158.65247
 40
5
 41
0.84891105
  1
１Ｘ１／２
  0
TEXT
  8
0
  6
CONTINUOUS
 62
     7
 10
-143.9591
 20
79.172943
 40
5
 41
0.84891105
  1
１Ｘ３／４
  0
TEXT
  8
0
  6
CONTINUOUS
 62
     7
 10
-149.0458
 20
234.31696
 40
5
 41
0.84633858
  1
３／４Ｘ１／２
  0
TEXT
  8
0
  6
CONTINUOUS
 62
     7
 10
-74.398009
 20
202.48146
 40
3.2
 41
0.67915094
  1
１／２　器具側　１３
 50
90.000003
  0
TEXT
  8
0
  6
CONTINUOUS
 62
     7
 10
-65.796873
 20
133.52406
 40
3.2
 41
0.67915094
  1
１／２　器具側　１３
 50
90.000003
  0
TEXT
  8
0
  6
CONTINUOUS
 62
     7
 10
-65.351988
 20
55.296916
 40
3.2
 41
0.84447575
  1
３／４　器具側　２０
 50
90.000003
  0
POINT
  8
1
  6
CONTINUOUS
 62
     7
 10
-210
 20
0
  0
POINT
  8
1
  6
CONTINUOUS
 62
     7
 10
0
 20
0
  0
POINT
  8
1
  6
CONTINUOUS
 62
     7
 10
0
 20
0
  0
POINT
  8
1
  6
CONTINUOUS
 62
     7
 10
-210
 20
297
  0
POINT
  8
1
  6
CONTINUOUS
 62
     7
 10
-210
 20
0
  0
POINT
  8
1
  6
CONTINUOUS
 62
     7
 10
0
 20
0
  0
POINT
  8
1
  6
CONTINUOUS
 62
     7
 10
0
 20
297
  0
LINE
  8
1
  6
CONTINUOUS
 62
     7
 10
-210
 20
0
 11
0
 21
0
  0
LINE
  8
1
  6
CONTINUOUS
 62
     7
 10
-210
 20
297
 11
0
 21
297
  0
LINE
  8
1
  6
CONTINUOUS
 62
     7
 10
0
 20
297
 11
0
 21
0
  0
LINE
  8
1
  6
CONTINUOUS
 62
     7
 10
-210
 20
297
 11
-210
 21
0
  0
ENDSEC
  0
EOF
