  0
SECTION
  2
HEADER
  9
$EXTMAX
 10
1259
 20
-913.5
  9
$EXTMIN
 10
417
 20
-1507.5
  0
ENDSEC
  0
SECTION
  2
TABLES
  0
TABLE
  2
LTYPE
 70
    22
  0
LTYPE
  2
CONTINUOUS
 70
    64
  3
Solid line
 72
    65
 73
     0
 40
0.000000
  0
LTYPE
  2
DASHED
 70
    64
  3
__ __ __ __ __ __ __ __ __ __ __ __ __ __ __
 72
    65
 73
     2
 40
3.500000
 49
2.000000
 49
-1.500000
  0
LTYPE
  2
CENTER
 70
    64
  3
____ _ ____ _ ____ _ ____ _ ____ _ ____ _ ____
 72
    65
 73
     4
 40
17.500000
 49
13.000000
 49
-1.500000
 49
1.500000
 49
-1.500000
  0
LTYPE
  2
PHANTOM
 70
    64
  3
_____ _ _ _____ _ _ _____ _ _ _____ _ _ ____  
 72
    65
 73
     6
 40
15.500000
 49
8.000000
 49
-1.500000
 49
1.500000
 49
-1.500000
 49
1.500000
 49
-1.500000
  0
LTYPE
  2
DOT
 70
    64
  3
. . . . . . . . . . . . . . . . . . . . . . . .
 72
    65
 73
     2
 40
0.25
 49
0.0
 49
-0.25
  0
ENDTAB
  0
TABLE
  2
LAYER
 70
     2
  0
LAYER
  2
0
 70
     0
 62
     7
  6
CONTINUOUS
  0
LAYER
  2
1
 70
     0
 62
     7
  6
CONTINUOUS
  0
ENDTAB
  0
TABLE
  2
STYLE
 70
     1
  0
STYLE
  2
STANDARD
 70
     0
 40
0.000000
 41
1.000000
 50
0.000000
 71
     0
 42
0.200000
  3
txt
  4
BIGFONT
  0
ENDTAB
  0
TABLE
  2
VIEW
 70
     0
  0
ENDTAB
  0
ENDSEC
  0
SECTION
  2
BLOCKS
  0
ENDSEC
  0
SECTION
  2
ENTITIES
  0
POINT
  8
0
  6
CONTINUOUS
 62
     7
 10
-267.84598
 20
190.16998
  0
POINT
  8
0
  6
CONTINUOUS
 62
     7
 10
-175.30704
 20
186.83525
  0
POINT
  8
0
  6
CONTINUOUS
 62
     7
 10
-83.601768
 20
186.00157
  0
POINT
  8
0
  6
CONTINUOUS
 62
     7
 10
-160.77264
 20
30.670473
  0
POINT
  8
0
  6
CONTINUOUS
 62
     7
 10
-44.890537
 20
31.50416
  0
POINT
  8
0
  6
CONTINUOUS
 62
     7
 10
82.663147
 20
28.16942
  0
POINT
  8
0
  6
CONTINUOUS
 62
     7
 10
-92.506104
 20
-165.22481
  0
POINT
  8
0
  6
CONTINUOUS
 62
     7
 10
73.397057
 20
-169.39322
  0
POINT
  8
0
  6
CONTINUOUS
 62
     7
 10
250.97179
 20
-165.22481
  0
LINE
  8
0
  6
CENTER
 62
     7
 10
-267.84598
 20
181.18155
 11
-267.84598
 21
167.17
  0
LINE
  8
0
  6
CENTER
 62
     7
 10
-261.49017
 20
196.52576
 11
-251.5825
 21
206.43344
  0
LINE
  8
0
  6
CONTINUOUS
 62
     7
 10
-251.94426
 20
186.97984
 11
-243.45087
 21
195.47325
  0
LINE
  8
0
  6
CONTINUOUS
 62
     7
 10
-271.03613
 20
206.07173
 11
-262.54276
 21
214.56512
  0
LINE
  8
0
  6
CONTINUOUS
 62
     7
 10
-254.34598
 20
181.18155
 11
-254.34598
 21
169.16994
  0
LINE
  8
0
  6
CONTINUOUS
 62
     7
 10
-281.34598
 20
181.18155
 11
-281.34598
 21
169.16994
  0
LINE
  8
0
  6
CONTINUOUS
 62
     7
 10
-243.45087
 20
195.47324
 11
-262.54276
 21
214.56512
  0
LINE
  8
0
  6
CONTINUOUS
 62
     7
 10
-281.34598
 20
169.16994
 11
-254.34598
 21
169.16994
  0
LINE
  8
0
  6
CENTER
 62
     7
 10
-175.30704
 20
173.78752
 11
-175.30704
 21
157.63525
  0
LINE
  8
0
  6
CENTER
 62
     7
 10
-166.0809
 20
196.0614
 11
-154.65952
 21
207.48279
  0
LINE
  8
0
  6
CONTINUOUS
 62
     7
 10
-179.21262
 20
206.26421
 11
-169.29662
 21
216.18021
  0
LINE
  8
0
  6
CONTINUOUS
 62
     7
 10
-155.87811
 20
182.92969
 11
-145.96211
 21
192.84567
  0
LINE
  8
0
  6
CONTINUOUS
 62
     7
 10
-158.80704
 20
175.85861
 11
-158.80704
 21
161.83525
  0
LINE
  8
0
  6
CONTINUOUS
 62
     7
 10
-191.80704
 20
175.85861
 11
-191.80704
 21
161.83525
  0
LINE
  8
0
  6
CONTINUOUS
 62
     7
 10
-169.29663
 20
216.18019
 11
-145.96211
 21
192.84567
  0
LINE
  8
0
  6
CONTINUOUS
 62
     7
 10
-191.80704
 20
161.83525
 11
-158.80704
 21
161.83525
  0
LINE
  8
0
  6
CONTINUOUS
 62
     7
 10
-88.871338
 20
209.7234
 11
-77.591415
 21
221.00331
  0
LINE
  8
0
  6
CONTINUOUS
 62
     7
 10
-104.10177
 20
172.95384
 11
-104.10177
 21
157.00145
  0
LINE
  8
0
  6
CONTINUOUS
 62
     7
 10
-63.101772
 20
172.95384
 11
-63.101772
 21
157.00145
  0
LINE
  8
0
  6
CONTINUOUS
 62
     7
 10
-59.879948
 20
180.73201
 11
-48.600033
 21
192.01193
  0
LINE
  8
0
  6
CONTINUOUS
 62
     7
 10
-48.600033
 20
192.01193
 11
-77.591423
 21
221.00333
  0
LINE
  8
0
  6
CONTINUOUS
 62
     7
 10
-104.10177
 20
157.00145
 11
-63.101772
 21
157.00145
  0
LINE
  8
0
  6
CENTER
 62
     7
 10
-74.375626
 20
195.22774
 11
-60.123714
 21
209.47964
  0
LINE
  8
0
  6
CENTER
 62
     7
 10
-83.601768
 20
172.95386
 11
-83.601768
 21
153.23303
  0
LINE
  8
0
  6
CENTER
 62
     7
 10
-160.77264
 20
14.723271
 11
-160.77264
 21
-7.7295256
  0
LINE
  8
0
  6
CENTER
 62
     7
 10
-149.49623
 20
41.946869
 11
-133.61972
 21
57.823376
  0
LINE
  8
0
  6
CONTINUOUS
 62
     7
 10
-131.81857
 20
24.269226
 11
-119.05335
 21
37.034454
  0
LINE
  8
0
  6
CONTINUOUS
 62
     7
 10
-167.1739
 20
59.62455
 11
-154.40868
 21
72.389793
  0
LINE
  8
0
  6
CONTINUOUS
 62
     7
 10
-185.77264
 20
14.723271
 11
-185.77264
 21
-3.3295243
  0
LINE
  8
0
  6
CONTINUOUS
 62
     7
 10
-135.77264
 20
14.723271
 11
-135.77264
 21
-3.3295243
  0
LINE
  8
0
  6
CONTINUOUS
 62
     7
 10
-119.05334
 20
37.034454
 11
-154.40868
 21
72.389778
  0
LINE
  8
0
  6
CONTINUOUS
 62
     7
 10
-185.77264
 20
-3.3295243
 11
-135.77264
 21
-3.3295243
  0
LINE
  8
0
  6
CENTER
 62
     7
 10
-44.890537
 20
13.485864
 11
-44.890537
 21
-11.895964
  0
LINE
  8
0
  6
CENTER
 62
     7
 10
-32.149689
 20
44.24501
 11
-14.202167
 21
62.192532
  0
LINE
  8
0
  6
CONTINUOUS
 62
     7
 10
-51.948681
 20
64.044022
 11
-38.526646
 21
77.466057
  0
LINE
  8
0
  6
CONTINUOUS
 62
     7
 10
-16.890537
 20
13.485864
 11
-16.890537
 21
-5.4959617
  0
LINE
  8
0
  6
CONTINUOUS
 62
     7
 10
-72.890541
 20
13.485864
 11
-72.890541
 21
-5.4959617
  0
LINE
  8
0
  6
CONTINUOUS
 62
     7
 10
-12.350689
 20
24.446026
 11
1.0713408
 21
37.868053
  0
LINE
  8
0
  6
CONTINUOUS
 62
     7
 10
1.0713406
 20
37.868053
 11
-38.526653
 21
77.466049
  0
LINE
  8
0
  6
CONTINUOUS
 62
     7
 10
-72.890541
 20
-5.4959617
 11
-16.890537
 21
-5.4959617
  0
LINE
  8
0
  6
CENTER
 62
     7
 10
82.663147
 20
7.2516532
 11
82.663147
 21
-20.430696
  0
LINE
  8
0
  6
CENTER
 62
     7
 10
97.454262
 20
42.960541
 11
117.02848
 21
62.534752
  0
LINE
  8
0
  6
CONTINUOUS
 62
     7
 10
117.16315
 20
7.2516532
 11
117.16315
 21
-13.830699
  0
LINE
  8
0
  6
CONTINUOUS
 62
     7
 10
48.163147
 20
7.2516532
 11
48.163147
 21
-13.830699
  0
LINE
  8
0
  6
CONTINUOUS
 62
     7
 10
73.059074
 20
67.355743
 11
87.966377
 21
82.263039
  0
LINE
  8
0
  6
CONTINUOUS
 62
     7
 10
121.84943
 20
18.565367
 11
136.75674
 21
33.472672
  0
LINE
  8
0
  6
CONTINUOUS
 62
     7
 10
136.75674
 20
33.472675
 11
87.966377
 21
82.263039
  0
LINE
  8
0
  6
CONTINUOUS
 62
     7
 10
48.163147
 20
-13.830699
 11
117.16315
 21
-13.830699
  0
LINE
  8
0
  6
CENTER
 62
     7
 10
-92.506104
 20
-190.28476
 11
-92.506104
 21
-221.22496
  0
LINE
  8
0
  6
CENTER
 62
     7
 10
-74.786087
 20
-147.50479
 11
-52.908199
 21
-125.6269
  0
LINE
  8
0
  6
CONTINUOUS
 62
     7
 10
-34.169861
 20
-171.23531
 11
-25.68458
 21
-162.75002
  0
LINE
  8
0
  6
CONTINUOUS
 62
     7
 10
-44.380486
 20
-177.91039
 11
-39.383652
 21
-172.91356
  0
LINE
  8
0
  6
CONTINUOUS
 62
     7
 10
-98.516609
 20
-106.88857
 11
-90.031326
 21
-98.40329
  0
LINE
  8
0
  6
CONTINUOUS
 62
     7
 10
-135.5061
 20
-190.28476
 11
-135.5061
 21
-197.35156
  0
LINE
  8
0
  6
CONTINUOUS
 62
     7
 10
-47.006104
 20
-202.22496
 11
-47.006104
 21
-214.22496
  0
LINE
  8
0
  6
CONTINUOUS
 62
     7
 10
-138.0061
 20
-202.22496
 11
-138.0061
 21
-214.22496
  0
LINE
  8
0
  6
CONTINUOUS
 62
     7
 10
-49.506104
 20
-190.28476
 11
-49.506104
 21
-197.35156
  0
LINE
  8
0
  6
CONTINUOUS
 62
     7
 10
-25.684572
 20
-162.75002
 11
-90.031319
 21
-98.403275
  0
LINE
  8
0
  6
CONTINUOUS
 62
     7
 10
-34.169861
 20
-171.23529
 11
-98.516594
 21
-106.88856
  0
LINE
  8
0
  6
CONTINUOUS
 62
     7
 10
-138.0061
 20
-202.22496
 11
-47.006104
 21
-202.22496
  0
LINE
  8
0
  6
CONTINUOUS
 62
     7
 10
-138.0061
 20
-214.22496
 11
-47.006104
 21
-214.22496
  0
LINE
  8
0
  6
CENTER
 62
     7
 10
93.167297
 20
-149.62297
 11
116.81335
 21
-125.97692
  0
LINE
  8
0
  6
CENTER
 62
     7
 10
73.397057
 20
-197.35269
 11
73.397057
 21
-230.7933
  0
LINE
  8
0
  6
CONTINUOUS
 62
     7
 10
20.897051
 20
-210.39331
 11
20.897051
 21
-223.39331
  0
LINE
  8
0
  6
CONTINUOUS
 62
     7
 10
122.89706
 20
-197.35269
 11
122.89706
 21
-203.25188
  0
LINE
  8
0
  6
CONTINUOUS
 62
     7
 10
23.897055
 20
-197.35268
 11
23.897055
 21
-203.25188
  0
LINE
  8
0
  6
CONTINUOUS
 62
     7
 10
125.89706
 20
-210.3933
 11
125.89706
 21
-223.3933
  0
LINE
  8
0
  6
CONTINUOUS
 62
     7
 10
65.265228
 20
-103.27874
 11
74.457619
 21
-94.086349
  0
LINE
  8
0
  6
CONTINUOUS
 62
     7
 10
58.165531
 20
-114.62114
 11
62.336849
 21
-110.44982
  0
LINE
  8
0
  6
CONTINUOUS
 62
     7
 10
139.51149
 20
-177.52498
 11
148.70387
 21
-168.33258
  0
LINE
  8
0
  6
CONTINUOUS
 62
     7
 10
128.1691
 20
-184.62474
 11
132.34042
 21
-180.45343
  0
LINE
  8
0
  6
CONTINUOUS
 62
     7
 10
148.70387
 20
-168.33258
 11
74.457626
 21
-94.086334
  0
LINE
  8
0
  6
CONTINUOUS
 62
     7
 10
139.51149
 20
-177.52498
 11
65.265244
 21
-103.27872
  0
LINE
  8
0
  6
CONTINUOUS
 62
     7
 10
20.897051
 20
-210.39331
 11
125.89706
 21
-210.39331
  0
LINE
  8
0
  6
CONTINUOUS
 62
     7
 10
20.897051
 20
-223.39331
 11
125.89706
 21
-223.39331
  0
LINE
  8
0
  6
CENTER
 62
     7
 10
275.42838
 20
-140.76823
 11
302.73187
 21
-113.46472
  0
LINE
  8
0
  6
CENTER
 62
     7
 10
250.97179
 20
-199.81165
 11
250.97179
 21
-238.42493
  0
LINE
  8
0
  6
CONTINUOUS
 62
     7
 10
332.64252
 20
-177.5993
 11
343.95621
 21
-166.2856
  0
LINE
  8
0
  6
CONTINUOUS
 62
     7
 10
230.5271
 20
-95.866951
 11
235.66888
 21
-90.725166
  0
LINE
  8
0
  6
CONTINUOUS
 62
     7
 10
320.32965
 20
-185.66953
 11
325.47144
 21
-180.52774
  0
LINE
  8
0
  6
CONTINUOUS
 62
     7
 10
184.47179
 20
-214.22493
 11
184.47179
 21
-230.22493
  0
LINE
  8
0
  6
CONTINUOUS
 62
     7
 10
317.4718
 20
-214.22491
 11
317.4718
 21
-230.22491
  0
LINE
  8
0
  6
CONTINUOUS
 62
     7
 10
314.4718
 20
-199.81165
 11
314.4718
 21
-207.08348
  0
LINE
  8
0
  6
CONTINUOUS
 62
     7
 10
187.47179
 20
-199.81165
 11
187.47179
 21
-207.0835
  0
LINE
  8
0
  6
CONTINUOUS
 62
     7
 10
238.59731
 20
-83.5541
 11
249.91103
 21
-72.240387
  0
LINE
  8
0
  6
CONTINUOUS
 62
     7
 10
343.95621
 20
-166.2856
 11
249.91101
 21
-72.240395
  0
LINE
  8
0
  6
CONTINUOUS
 62
     7
 10
332.64249
 20
-177.5993
 11
238.59731
 21
-83.5541
  0
LINE
  8
0
  6
CONTINUOUS
 62
     7
 10
184.47179
 20
-214.22493
 11
317.4718
 21
-214.22493
  0
LINE
  8
0
  6
CONTINUOUS
 62
     7
 10
184.47179
 20
-230.22493
 11
317.4718
 21
-230.22493
  0
LINE
  8
0
  6
CONTINUOUS
 62
     7
 10
-267.74286
 20
190.74815
 11
-266.6041
 21
190.27647
  0
LINE
  8
0
  6
CONTINUOUS
 62
     7
 10
-268.08728
 20
189.91666
 11
-266.94852
 21
189.44498
  0
LINE
  8
0
  6
CONTINUOUS
 62
     7
 10
-260.91113
 20
186.9442
 11
-259.77237
 21
186.4725
  0
LINE
  8
0
  6
CONTINUOUS
 62
     7
 10
-260.56671
 20
187.77571
 11
-259.42795
 21
187.304
  0
LINE
  8
0
  6
CONTINUOUS
 62
     7
 10
-266.11398
 20
189.0993
 11
-263.92981
 21
188.19458
  0
LINE
  8
0
  6
CONTINUOUS
 62
     7
 10
-265.76956
 20
189.9308
 11
-263.58539
 21
189.02608
  0
LINE
  8
0
  6
CONTINUOUS
 62
     7
 10
-174.38246
 20
186.97267
 11
-173.2437
 21
186.50098
  0
LINE
  8
0
  6
CONTINUOUS
 62
     7
 10
-174.72688
 20
186.14117
 11
-173.58812
 21
185.66948
  0
LINE
  8
0
  6
CONTINUOUS
 62
     7
 10
-167.55074
 20
183.16872
 11
-166.41197
 21
182.69702
  0
LINE
  8
0
  6
CONTINUOUS
 62
     7
 10
-167.20633
 20
184.00021
 11
-166.06757
 21
183.52852
  0
LINE
  8
0
  6
CONTINUOUS
 62
     7
 10
-172.7536
 20
185.32381
 11
-170.56943
 21
184.4191
  0
LINE
  8
0
  6
CONTINUOUS
 62
     7
 10
-172.40918
 20
186.1553
 11
-170.22502
 21
185.2506
  0
LINE
  8
0
  6
CONTINUOUS
 62
     7
 10
-83.156174
 20
186.01263
 11
-81.63781
 21
185.38371
  0
LINE
  8
0
  6
CONTINUOUS
 62
     7
 10
-83.615387
 20
184.90398
 11
-82.097031
 21
184.27505
  0
LINE
  8
0
  6
CONTINUOUS
 62
     7
 10
-74.047195
 20
180.9407
 11
-72.528839
 21
180.31178
  0
LINE
  8
0
  6
CONTINUOUS
 62
     7
 10
-73.587975
 20
182.04936
 11
-72.069618
 21
181.42044
  0
LINE
  8
0
  6
CONTINUOUS
 62
     7
 10
-80.984344
 20
183.81416
 11
-78.072113
 21
182.60788
  0
LINE
  8
0
  6
CONTINUOUS
 62
     7
 10
-80.525124
 20
184.92282
 11
-77.612892
 21
183.71654
  0
LINE
  8
0
  6
CONTINUOUS
 62
     7
 10
-159.49005
 20
30.657085
 11
-157.97169
 21
30.028158
  0
LINE
  8
0
  6
CONTINUOUS
 62
     7
 10
-159.94928
 20
29.548428
 11
-158.43092
 21
28.919502
  0
LINE
  8
0
  6
CONTINUOUS
 62
     7
 10
-150.38109
 20
25.585154
 11
-148.86272
 21
24.956226
  0
LINE
  8
0
  6
CONTINUOUS
 62
     7
 10
-149.92186
 20
26.69381
 11
-148.4035
 21
26.064884
  0
LINE
  8
0
  6
CONTINUOUS
 62
     7
 10
-157.31824
 20
28.458612
 11
-154.40601
 21
27.252327
  0
LINE
  8
0
  6
CONTINUOUS
 62
     7
 10
-156.85901
 20
29.56727
 11
-153.94678
 21
28.360985
  0
LINE
  8
0
  6
CONTINUOUS
 62
     7
 10
-44.045219
 20
31.61632
 11
-42.526859
 21
30.987392
  0
LINE
  8
0
  6
CONTINUOUS
 62
     7
 10
-44.50444
 20
30.507664
 11
-42.98608
 21
29.878736
  0
LINE
  8
0
  6
CONTINUOUS
 62
     7
 10
-34.936253
 20
26.54439
 11
-33.417885
 21
25.915462
  0
LINE
  8
0
  6
CONTINUOUS
 62
     7
 10
-34.477032
 20
27.653046
 11
-32.958668
 21
27.024118
  0
LINE
  8
0
  6
CONTINUOUS
 62
     7
 10
-41.873394
 20
29.417849
 11
-38.961163
 21
28.211563
  0
LINE
  8
0
  6
CONTINUOUS
 62
     7
 10
-41.414173
 20
30.526505
 11
-38.501942
 21
29.320219
  0
LINE
  8
0
  6
CONTINUOUS
 62
     7
 10
84.147247
 20
27.895018
 11
86.045204
 21
27.108856
  0
LINE
  8
0
  6
CONTINUOUS
 62
     7
 10
83.573219
 20
26.509199
 11
85.471176
 21
25.723038
  0
LINE
  8
0
  6
CONTINUOUS
 62
     7
 10
95.533463
 20
21.555105
 11
97.431412
 21
20.768948
  0
LINE
  8
0
  6
CONTINUOUS
 62
     7
 10
96.107483
 20
22.940924
 11
98.00544
 21
22.154766
  0
LINE
  8
0
  6
CONTINUOUS
 62
     7
 10
86.86203
 20
25.146929
 11
90.502319
 21
23.639072
  0
LINE
  8
0
  6
CONTINUOUS
 62
     7
 10
87.436058
 20
26.532747
 11
91.07634
 21
25.024891
  0
LINE
  8
0
  6
CONTINUOUS
 62
     7
 10
-90.720551
 20
-165.53618
 11
-88.822594
 21
-166.32234
  0
LINE
  8
0
  6
CONTINUOUS
 62
     7
 10
-91.294579
 20
-166.922
 11
-89.396614
 21
-167.70816
  0
LINE
  8
0
  6
CONTINUOUS
 62
     7
 10
-79.334335
 20
-171.8761
 11
-77.436386
 21
-172.66225
  0
LINE
  8
0
  6
CONTINUOUS
 62
     7
 10
-78.760307
 20
-170.49028
 11
-76.862358
 21
-171.27643
  0
LINE
  8
0
  6
CONTINUOUS
 62
     7
 10
-88.005768
 20
-168.28427
 11
-84.365479
 21
-169.79213
  0
LINE
  8
0
  6
CONTINUOUS
 62
     7
 10
-87.43174
 20
-166.89845
 11
-83.791458
 21
-168.40631
  0
LINE
  8
0
  6
CONTINUOUS
 62
     7
 10
74.351547
 20
-169.49258
 11
76.629097
 21
-170.43597
  0
LINE
  8
0
  6
CONTINUOUS
 62
     7
 10
73.66272
 20
-171.15556
 11
75.940262
 21
-172.09895
  0
LINE
  8
0
  6
CONTINUOUS
 62
     7
 10
88.015007
 20
-177.10048
 11
90.292549
 21
-178.04387
  0
LINE
  8
0
  6
CONTINUOUS
 62
     7
 10
88.703842
 20
-175.4375
 11
90.981384
 21
-176.38089
  0
LINE
  8
0
  6
CONTINUOUS
 62
     7
 10
77.609299
 20
-172.7903
 11
81.977638
 21
-174.59972
  0
LINE
  8
0
  6
CONTINUOUS
 62
     7
 10
78.298126
 20
-171.1273
 11
82.666466
 21
-172.93674
  0
LINE
  8
0
  6
CONTINUOUS
 62
     7
 10
252.97627
 20
-165.67416
 11
255.25383
 21
-166.61755
  0
LINE
  8
0
  6
CONTINUOUS
 62
     7
 10
252.28745
 20
-167.33714
 11
254.565
 21
-168.28053
  0
LINE
  8
0
  6
CONTINUOUS
 62
     7
 10
266.63974
 20
-173.28206
 11
268.91727
 21
-174.22545
  0
LINE
  8
0
  6
CONTINUOUS
 62
     7
 10
267.32858
 20
-171.61908
 11
269.60611
 21
-172.56245
  0
LINE
  8
0
  6
CONTINUOUS
 62
     7
 10
256.23404
 20
-168.97188
 11
260.60236
 21
-170.7813
  0
LINE
  8
0
  6
CONTINUOUS
 62
     7
 10
256.92288
 20
-167.30888
 11
261.2912
 21
-169.11832
  0
ARC
  8
0
  6
CONTINUOUS
 62
     7
 10
-246.14598
 20
181.18155
 40
35.200001
 50
135.00001
 51
179.99996
  0
ARC
  8
0
  6
CONTINUOUS
 62
     7
 10
-246.14598
 20
181.18155
 40
8.1999998
 50
135.00005
 51
179.99996
  0
ARC
  8
0
  6
CENTER
 62
     7
 10
-246.14598
 20
181.18155
 40
21.699997
 50
135.00003
 51
177.3284
  0
ARC
  8
0
  6
CONTINUOUS
 62
     7
 10
-148.80704
 20
175.85861
 40
10
 50
135.00005
 51
179.99996
  0
ARC
  8
0
  6
CONTINUOUS
 62
     7
 10
-148.80704
 20
175.85861
 40
43
 50
135.00001
 51
179.99996
  0
ARC
  8
0
  6
CENTER
 62
     7
 10
-143.80704
 20
173.78752
 40
31.5
 50
135
 51
180.00001
  0
ARC
  8
0
  6
CONTINUOUS
 62
     7
 10
-52.101772
 20
172.95384
 40
11
 50
135.00004
 51
179.99996
  0
ARC
  8
0
  6
CONTINUOUS
 62
     7
 10
-52.101772
 20
172.95384
 40
52
 50
135.00001
 51
179.99996
  0
ARC
  8
0
  6
CENTER
 62
     7
 10
-52.101772
 20
172.95386
 40
31.5
 50
135
 51
180.00001
  0
ARC
  8
0
  6
CONTINUOUS
 62
     7
 10
-122.27264
 20
14.723271
 40
63.5
 50
135.00001
 51
179.99996
  0
ARC
  8
0
  6
CONTINUOUS
 62
     7
 10
-122.27264
 20
14.723271
 40
13.5
 50
135
 51
179.99996
  0
ARC
  8
0
  6
CENTER
 62
     7
 10
-122.27264
 20
14.723271
 40
38.499981
 50
135.00001
 51
179.99996
  0
ARC
  8
0
  6
CONTINUOUS
 62
     7
 10
-1.3905368
 20
13.485864
 40
15.5
 50
135
 51
179.99996
  0
ARC
  8
0
  6
CONTINUOUS
 62
     7
 10
-1.3905368
 20
13.485864
 40
71.5
 50
135.00001
 51
179.99996
  0
ARC
  8
0
  6
CENTER
 62
     7
 10
-1.3905368
 20
13.485864
 40
43.5
 50
133.70698
 51
179.99996
  0
ARC
  8
0
  6
CONTINUOUS
 62
     7
 10
133.16315
 20
7.2516532
 40
16
 50
135.00003
 51
179.99996
  0
ARC
  8
0
  6
CONTINUOUS
 62
     7
 10
133.16315
 20
7.2516532
 40
85
 50
135.00001
 51
179.99996
  0
ARC
  8
0
  6
CENTER
 62
     7
 10
133.16315
 20
7.2516532
 40
50.5
 50
136.81029
 51
178.18991
  0
ARC
  8
0
  6
CONTINUOUS
 62
     7
 10
-35.140999
 20
-177.1562
 40
6
 50
80.685332
 51
135
  0
ARC
  8
0
  6
CONTINUOUS
 62
     7
 10
-141.5061
 20
-197.35156
 40
6
 50
305.68534
 51
6.8301892E-006
  0
ARC
  8
0
  6
CENTER
 62
     7
 10
-32.006104
 20
-190.28476
 40
60.5
 50
136.53752
 51
179.99996
  0
ARC
  8
0
  6
CONTINUOUS
 62
     7
 10
-32.006104
 20
-190.28476
 40
103.5
 50
131.37842
 51
179.99996
  0
ARC
  8
0
  6
CONTINUOUS
 62
     7
 10
-43.506104
 20
-197.35156
 40
6
 50
180.00001
 51
234.31468
  0
ARC
  8
0
  6
CONTINUOUS
 62
     7
 10
-32.006104
 20
-190.28476
 40
17.5
 50
135.00001
 51
179.99996
  0
ARC
  8
0
  6
CONTINUOUS
 62
     7
 10
-104.38881
 20
-108.12032
 40
6
 50
311.37842
 51
11.846601
  0
ARC
  8
0
  6
CENTER
 62
     7
 10
140.89705
 20
-197.35268
 40
67.499985
 50
135.00001
 51
179.99996
  0
ARC
  8
0
  6
CONTINUOUS
 62
     7
 10
139.41153
 20
-187.52451
 40
10
 50
89.426997
 51
135
  0
ARC
  8
0
  6
CONTINUOUS
 62
     7
 10
55.26582
 20
-103.37881
 40
10
 50
315
 51
0.57298798
  0
ARC
  8
0
  6
CONTINUOUS
 62
     7
 10
140.89705
 20
-197.35268
 40
117
 50
135.00001
 51
179.99996
  0
ARC
  8
0
  6
CONTINUOUS
 62
     7
 10
140.89705
 20
-197.35268
 40
18
 50
135
 51
179.99996
  0
ARC
  8
0
  6
CONTINUOUS
 62
     7
 10
132.89705
 20
-203.25186
 40
10
 50
180.00001
 51
225.573
  0
ARC
  8
0
  6
CONTINUOUS
 62
     7
 10
13.89705
 20
-203.25188
 40
10
 50
314.42701
 51
6.8301892E-006
  0
ARC
  8
0
  6
CONTINUOUS
 62
     7
 10
332.54251
 20
-187.5988
 40
10
 50
89.426997
 51
135
  0
ARC
  8
0
  6
CONTINUOUS
 62
     7
 10
334.4718
 20
-199.81165
 40
20
 50
135.00001
 51
179.99996
  0
ARC
  8
0
  6
CONTINUOUS
 62
     7
 10
228.59779
 20
-83.654099
 40
10
 50
315
 51
0.57298798
  0
ARC
  8
0
  6
CONTINUOUS
 62
     7
 10
177.47179
 20
-207.0835
 40
10
 50
314.42701
 51
6.8301892E-006
  0
ARC
  8
0
  6
CONTINUOUS
 62
     7
 10
324.4718
 20
-207.08348
 40
10
 50
180.00001
 51
225.573
  0
ARC
  8
0
  6
CONTINUOUS
 62
     7
 10
334.4718
 20
-199.81165
 40
147
 50
135.00001
 51
179.99996
  0
ARC
  8
0
  6
CENTER
 62
     7
 10
334.4718
 20
-199.81165
 40
83.500015
 50
135.00001
 51
179.14078
  0
ARC
  8
0
  6
CONTINUOUS
 62
     7
 10
-263.06879
 20
190.27332
 40
1.8
 50
13.508325
 51
121.49168
  0
ARC
  8
0
  6
CONTINUOUS
 62
     7
 10
-263.06879
 20
190.27332
 40
2.7
 50
13.508325
 51
121.49168
  0
ARC
  8
0
  6
CONTINUOUS
 62
     7
 10
-264.44644
 20
186.94736
 40
1.8
 50
193.50833
 51
301.49168
  0
ARC
  8
0
  6
CONTINUOUS
 62
     7
 10
-264.44644
 20
186.94736
 40
2.7
 50
193.50833
 51
301.49168
  0
ARC
  8
0
  6
CONTINUOUS
 62
     7
 10
-261.46942
 20
187.66254
 40
5.7617307
 50
121.49168
 51
153.02055
  0
ARC
  8
0
  6
CONTINUOUS
 62
     7
 10
-261.46942
 20
187.66254
 40
4.8617306
 50
121.49168
 51
152.18911
  0
ARC
  8
0
  6
CONTINUOUS
 62
     7
 10
-266.04581
 20
189.55814
 40
4.8617306
 50
301.49167
 51
13.508325
  0
ARC
  8
0
  6
CONTINUOUS
 62
     7
 10
-266.04581
 20
189.55814
 40
5.7617307
 50
301.49167
 51
333.02055
  0
ARC
  8
0
  6
CONTINUOUS
 62
     7
 10
-267.60327
 20
190.20326
 40
0.5625
 50
104.36989
 51
210.6301
  0
ARC
  8
0
  6
CONTINUOUS
 62
     7
 10
-264.06943
 20
188.7395
 40
0.5625
 50
284.3699
 51
30.630103
  0
ARC
  8
0
  6
CONTINUOUS
 62
     7
 10
-259.91196
 20
187.01743
 40
0.5625
 50
284.3699
 51
30.630103
  0
ARC
  8
0
  6
CONTINUOUS
 62
     7
 10
-261.46942
 20
187.66254
 40
5.7617307
 50
161.97945
 51
193.50833
  0
ARC
  8
0
  6
CONTINUOUS
 62
     7
 10
-261.46942
 20
187.66254
 40
4.8617306
 50
162.81088
 51
193.50833
  0
ARC
  8
0
  6
CONTINUOUS
 62
     7
 10
-266.04581
 20
189.55814
 40
5.7617307
 50
341.97945
 51
13.508325
  0
ARC
  8
0
  6
CONTINUOUS
 62
     7
 10
-169.70839
 20
186.49783
 40
1.8
 50
13.508325
 51
121.49168
  0
ARC
  8
0
  6
CONTINUOUS
 62
     7
 10
-169.70839
 20
186.49783
 40
2.7
 50
13.508325
 51
121.49168
  0
ARC
  8
0
  6
CONTINUOUS
 62
     7
 10
-171.08604
 20
183.17186
 40
1.8
 50
193.50833
 51
301.49168
  0
ARC
  8
0
  6
CONTINUOUS
 62
     7
 10
-171.08604
 20
183.17186
 40
2.7
 50
193.50833
 51
301.49168
  0
ARC
  8
0
  6
CONTINUOUS
 62
     7
 10
-168.10902
 20
183.88704
 40
5.7617307
 50
121.49168
 51
153.02055
  0
ARC
  8
0
  6
CONTINUOUS
 62
     7
 10
-168.10902
 20
183.88704
 40
4.8617306
 50
121.49168
 51
152.18911
  0
ARC
  8
0
  6
CONTINUOUS
 62
     7
 10
-172.68542
 20
185.78265
 40
4.8617306
 50
301.49167
 51
13.508325
  0
ARC
  8
0
  6
CONTINUOUS
 62
     7
 10
-172.68542
 20
185.78265
 40
5.7617307
 50
301.49167
 51
333.02055
  0
ARC
  8
0
  6
CONTINUOUS
 62
     7
 10
-174.24286
 20
186.42776
 40
0.5625
 50
104.36989
 51
210.6301
  0
ARC
  8
0
  6
CONTINUOUS
 62
     7
 10
-170.70903
 20
184.964
 40
0.5625
 50
284.3699
 51
30.630103
  0
ARC
  8
0
  6
CONTINUOUS
 62
     7
 10
-166.55157
 20
183.24193
 40
0.5625
 50
284.3699
 51
30.630103
  0
ARC
  8
0
  6
CONTINUOUS
 62
     7
 10
-168.10902
 20
183.88704
 40
5.7617307
 50
161.97945
 51
193.50833
  0
ARC
  8
0
  6
CONTINUOUS
 62
     7
 10
-168.10902
 20
183.88704
 40
4.8617306
 50
162.81088
 51
193.50833
  0
ARC
  8
0
  6
CONTINUOUS
 62
     7
 10
-172.68542
 20
185.78265
 40
5.7617307
 50
341.97945
 51
13.508325
  0
ARC
  8
0
  6
CONTINUOUS
 62
     7
 10
-76.924049
 20
185.37952
 40
2.4000001
 50
13.508325
 51
121.49168
  0
ARC
  8
0
  6
CONTINUOUS
 62
     7
 10
-76.924049
 20
185.37952
 40
3.5999999
 50
13.508325
 51
121.49168
  0
ARC
  8
0
  6
CONTINUOUS
 62
     7
 10
-78.760933
 20
180.94489
 40
2.4000001
 50
193.50833
 51
301.49168
  0
ARC
  8
0
  6
CONTINUOUS
 62
     7
 10
-78.760933
 20
180.94489
 40
3.5999999
 50
193.50833
 51
301.49168
  0
ARC
  8
0
  6
CONTINUOUS
 62
     7
 10
-74.791557
 20
181.89847
 40
7.6823077
 50
121.49168
 51
153.02055
  0
ARC
  8
0
  6
CONTINUOUS
 62
     7
 10
-74.791557
 20
181.89847
 40
6.4823079
 50
121.49168
 51
152.18911
  0
ARC
  8
0
  6
CONTINUOUS
 62
     7
 10
-80.893425
 20
184.42593
 40
6.4823079
 50
301.49167
 51
13.508325
  0
ARC
  8
0
  6
CONTINUOUS
 62
     7
 10
-80.893425
 20
184.42593
 40
7.6823077
 50
301.49167
 51
333.02055
  0
ARC
  8
0
  6
CONTINUOUS
 62
     7
 10
-82.970024
 20
185.28609
 40
0.75
 50
104.36989
 51
210.6301
  0
ARC
  8
0
  6
CONTINUOUS
 62
     7
 10
-78.258247
 20
183.33441
 40
0.75
 50
284.3699
 51
30.630103
  0
ARC
  8
0
  6
CONTINUOUS
 62
     7
 10
-72.714958
 20
181.0383
 40
0.75
 50
284.3699
 51
30.630103
  0
ARC
  8
0
  6
CONTINUOUS
 62
     7
 10
-74.791557
 20
181.89847
 40
6.4823079
 50
162.81088
 51
193.50833
  0
ARC
  8
0
  6
CONTINUOUS
 62
     7
 10
-74.791557
 20
181.89847
 40
7.6823077
 50
161.97945
 51
193.50833
  0
ARC
  8
0
  6
CONTINUOUS
 62
     7
 10
-80.893425
 20
184.42593
 40
7.6823077
 50
341.97945
 51
13.508325
  0
ARC
  8
0
  6
CONTINUOUS
 62
     7
 10
-153.25795
 20
30.023966
 40
2.4000001
 50
13.508325
 51
121.49168
  0
ARC
  8
0
  6
CONTINUOUS
 62
     7
 10
-153.25795
 20
30.023966
 40
3.5999999
 50
13.508325
 51
121.49168
  0
ARC
  8
0
  6
CONTINUOUS
 62
     7
 10
-155.09483
 20
25.589342
 40
2.4000001
 50
193.50833
 51
301.49168
  0
ARC
  8
0
  6
CONTINUOUS
 62
     7
 10
-155.09483
 20
25.589342
 40
3.5999999
 50
193.50833
 51
301.49168
  0
ARC
  8
0
  6
CONTINUOUS
 62
     7
 10
-151.12546
 20
26.542913
 40
7.6823077
 50
121.49168
 51
153.02055
  0
ARC
  8
0
  6
CONTINUOUS
 62
     7
 10
-151.12546
 20
26.542913
 40
6.4823079
 50
121.49168
 51
152.18911
  0
ARC
  8
0
  6
CONTINUOUS
 62
     7
 10
-157.22733
 20
29.070391
 40
6.4823079
 50
301.49167
 51
13.508325
  0
ARC
  8
0
  6
CONTINUOUS
 62
     7
 10
-157.22733
 20
29.070391
 40
7.6823077
 50
301.49167
 51
333.02055
  0
ARC
  8
0
  6
CONTINUOUS
 62
     7
 10
-159.30392
 20
29.930548
 40
0.75
 50
104.36989
 51
210.6301
  0
ARC
  8
0
  6
CONTINUOUS
 62
     7
 10
-154.59213
 20
27.978861
 40
0.75
 50
284.3699
 51
30.630103
  0
ARC
  8
0
  6
CONTINUOUS
 62
     7
 10
-149.04886
 20
25.68276
 40
0.75
 50
284.3699
 51
30.630103
  0
ARC
  8
0
  6
CONTINUOUS
 62
     7
 10
-151.12546
 20
26.542913
 40
6.4823079
 50
162.81088
 51
193.50833
  0
ARC
  8
0
  6
CONTINUOUS
 62
     7
 10
-151.12546
 20
26.542913
 40
7.6823077
 50
161.97945
 51
193.50833
  0
ARC
  8
0
  6
CONTINUOUS
 62
     7
 10
-157.22733
 20
29.070391
 40
7.6823077
 50
341.97945
 51
13.508325
  0
ARC
  8
0
  6
CONTINUOUS
 62
     7
 10
-37.813114
 20
30.983202
 40
2.4000001
 50
13.508325
 51
121.49168
  0
ARC
  8
0
  6
CONTINUOUS
 62
     7
 10
-37.813114
 20
30.983202
 40
3.5999999
 50
13.508325
 51
121.49168
  0
ARC
  8
0
  6
CONTINUOUS
 62
     7
 10
-39.649998
 20
26.548582
 40
2.4000001
 50
193.50833
 51
301.49168
  0
ARC
  8
0
  6
CONTINUOUS
 62
     7
 10
-39.649998
 20
26.548582
 40
3.5999999
 50
193.50833
 51
301.49168
  0
ARC
  8
0
  6
CONTINUOUS
 62
     7
 10
-35.680622
 20
27.502153
 40
7.6823077
 50
121.49168
 51
153.02055
  0
ARC
  8
0
  6
CONTINUOUS
 62
     7
 10
-35.680622
 20
27.502153
 40
6.4823079
 50
121.49168
 51
152.18911
  0
ARC
  8
0
  6
CONTINUOUS
 62
     7
 10
-41.78249
 20
30.029631
 40
6.4823079
 50
301.49167
 51
13.508325
  0
ARC
  8
0
  6
CONTINUOUS
 62
     7
 10
-41.78249
 20
30.029631
 40
7.6823077
 50
301.49167
 51
333.02055
  0
ARC
  8
0
  6
CONTINUOUS
 62
     7
 10
-43.859085
 20
30.889784
 40
0.75
 50
104.36989
 51
210.6301
  0
ARC
  8
0
  6
CONTINUOUS
 62
     7
 10
-39.147301
 20
28.938101
 40
0.75
 50
284.3699
 51
30.630103
  0
ARC
  8
0
  6
CONTINUOUS
 62
     7
 10
-33.604023
 20
26.642
 40
0.75
 50
284.3699
 51
30.630103
  0
ARC
  8
0
  6
CONTINUOUS
 62
     7
 10
-35.680622
 20
27.502153
 40
6.4823079
 50
162.81088
 51
193.50833
  0
ARC
  8
0
  6
CONTINUOUS
 62
     7
 10
-35.680622
 20
27.502153
 40
7.6823077
 50
161.97945
 51
193.50833
  0
ARC
  8
0
  6
CONTINUOUS
 62
     7
 10
-41.78249
 20
30.029631
 40
7.6823077
 50
341.97945
 51
13.508325
  0
ARC
  8
0
  6
CONTINUOUS
 62
     7
 10
91.937378
 20
27.103621
 40
3
 50
13.508325
 51
121.49168
  0
ARC
  8
0
  6
CONTINUOUS
 62
     7
 10
91.937378
 20
27.103621
 40
4.5
 50
13.508325
 51
121.49168
  0
ARC
  8
0
  6
CONTINUOUS
 62
     7
 10
89.641281
 20
21.560343
 40
3
 50
193.50833
 51
301.49168
  0
ARC
  8
0
  6
CONTINUOUS
 62
     7
 10
89.641281
 20
21.560343
 40
4.5
 50
193.50833
 51
301.49168
  0
ARC
  8
0
  6
CONTINUOUS
 62
     7
 10
94.602997
 20
22.75231
 40
9.6028843
 50
121.49168
 51
153.02055
  0
ARC
  8
0
  6
CONTINUOUS
 62
     7
 10
94.602997
 20
22.75231
 40
8.1028843
 50
121.49168
 51
152.18911
  0
ARC
  8
0
  6
CONTINUOUS
 62
     7
 10
86.975662
 20
25.911654
 40
8.1028843
 50
301.49167
 51
13.508325
  0
ARC
  8
0
  6
CONTINUOUS
 62
     7
 10
86.975662
 20
25.911654
 40
9.6028843
 50
301.49167
 51
333.02055
  0
ARC
  8
0
  6
CONTINUOUS
 62
     7
 10
84.379913
 20
26.986849
 40
0.9375
 50
104.36989
 51
210.6301
  0
ARC
  8
0
  6
CONTINUOUS
 62
     7
 10
90.269646
 20
24.547243
 40
0.9375
 50
284.3699
 51
30.630103
  0
ARC
  8
0
  6
CONTINUOUS
 62
     7
 10
97.198746
 20
21.677116
 40
0.9375
 50
284.3699
 51
30.630103
  0
ARC
  8
0
  6
CONTINUOUS
 62
     7
 10
94.602997
 20
22.75231
 40
9.6028843
 50
161.97945
 51
193.50833
  0
ARC
  8
0
  6
CONTINUOUS
 62
     7
 10
94.602997
 20
22.75231
 40
8.1028843
 50
162.81088
 51
193.50833
  0
ARC
  8
0
  6
CONTINUOUS
 62
     7
 10
86.975662
 20
25.911654
 40
9.6028843
 50
341.97945
 51
13.508325
  0
ARC
  8
0
  6
CONTINUOUS
 62
     7
 10
-82.93042
 20
-166.32758
 40
3
 50
13.508325
 51
121.49168
  0
ARC
  8
0
  6
CONTINUOUS
 62
     7
 10
-82.93042
 20
-166.32758
 40
4.5
 50
13.508325
 51
121.49168
  0
ARC
  8
0
  6
CONTINUOUS
 62
     7
 10
-85.226517
 20
-171.87085
 40
3
 50
193.50833
 51
301.49168
  0
ARC
  8
0
  6
CONTINUOUS
 62
     7
 10
-85.226517
 20
-171.87085
 40
4.5
 50
193.50833
 51
301.49168
  0
ARC
  8
0
  6
CONTINUOUS
 62
     7
 10
-80.264801
 20
-170.67888
 40
9.6028843
 50
121.49168
 51
153.02055
  0
ARC
  8
0
  6
CONTINUOUS
 62
     7
 10
-80.264801
 20
-170.67888
 40
8.1028843
 50
121.49168
 51
152.18911
  0
ARC
  8
0
  6
CONTINUOUS
 62
     7
 10
-87.892136
 20
-167.51953
 40
8.1028843
 50
301.49167
 51
13.508325
  0
ARC
  8
0
  6
CONTINUOUS
 62
     7
 10
-87.892136
 20
-167.51953
 40
9.6028843
 50
301.49167
 51
333.02055
  0
ARC
  8
0
  6
CONTINUOUS
 62
     7
 10
-90.487885
 20
-166.44435
 40
0.9375
 50
104.36989
 51
210.6301
  0
ARC
  8
0
  6
CONTINUOUS
 62
     7
 10
-84.598145
 20
-168.88396
 40
0.9375
 50
284.3699
 51
30.630103
  0
ARC
  8
0
  6
CONTINUOUS
 62
     7
 10
-77.669052
 20
-171.75407
 40
0.9375
 50
284.3699
 51
30.630103
  0
ARC
  8
0
  6
CONTINUOUS
 62
     7
 10
-80.264801
 20
-170.67888
 40
9.6028843
 50
161.97945
 51
193.50833
  0
ARC
  8
0
  6
CONTINUOUS
 62
     7
 10
-80.264801
 20
-170.67888
 40
8.1028843
 50
162.81088
 51
193.50833
  0
ARC
  8
0
  6
CONTINUOUS
 62
     7
 10
-87.892136
 20
-167.51953
 40
9.6028843
 50
341.97945
 51
13.508325
  0
ARC
  8
0
  6
CONTINUOUS
 62
     7
 10
83.699715
 20
-170.44226
 40
3.5999999
 50
13.508325
 51
121.49168
  0
ARC
  8
0
  6
CONTINUOUS
 62
     7
 10
83.699715
 20
-170.44226
 40
5.4000001
 50
13.508325
 51
121.49168
  0
ARC
  8
0
  6
CONTINUOUS
 62
     7
 10
80.944397
 20
-177.09419
 40
3.5999999
 50
193.50833
 51
301.49168
  0
ARC
  8
0
  6
CONTINUOUS
 62
     7
 10
80.944397
 20
-177.09419
 40
5.4000001
 50
193.50833
 51
301.49168
  0
ARC
  8
0
  6
CONTINUOUS
 62
     7
 10
86.898453
 20
-175.66383
 40
11.523461
 50
121.49168
 51
153.02055
  0
ARC
  8
0
  6
CONTINUOUS
 62
     7
 10
86.898453
 20
-175.66383
 40
9.7234612
 50
121.49168
 51
152.18911
  0
ARC
  8
0
  6
CONTINUOUS
 62
     7
 10
77.745651
 20
-171.87262
 40
9.7234612
 50
301.49167
 51
13.508325
  0
ARC
  8
0
  6
CONTINUOUS
 62
     7
 10
77.745651
 20
-171.87262
 40
11.523461
 50
301.49167
 51
333.02055
  0
ARC
  8
0
  6
CONTINUOUS
 62
     7
 10
74.63076
 20
-170.58238
 40
1.125
 50
104.36989
 51
210.6301
  0
ARC
  8
0
  6
CONTINUOUS
 62
     7
 10
81.698433
 20
-173.50992
 40
1.125
 50
284.3699
 51
30.630103
  0
ARC
  8
0
  6
CONTINUOUS
 62
     7
 10
90.013351
 20
-176.95407
 40
1.125
 50
284.3699
 51
30.630103
  0
ARC
  8
0
  6
CONTINUOUS
 62
     7
 10
86.898453
 20
-175.66383
 40
11.523461
 50
161.97945
 51
193.50833
  0
ARC
  8
0
  6
CONTINUOUS
 62
     7
 10
86.898453
 20
-175.66383
 40
9.7234612
 50
162.81088
 51
193.50833
  0
ARC
  8
0
  6
CONTINUOUS
 62
     7
 10
77.745651
 20
-171.87262
 40
11.523461
 50
341.97945
 51
13.508325
  0
ARC
  8
0
  6
CONTINUOUS
 62
     7
 10
262.32446
 20
-166.62384
 40
3.5999999
 50
13.508325
 51
121.49168
  0
ARC
  8
0
  6
CONTINUOUS
 62
     7
 10
262.32446
 20
-166.62384
 40
5.4000001
 50
13.508325
 51
121.49168
  0
ARC
  8
0
  6
CONTINUOUS
 62
     7
 10
259.56912
 20
-173.27577
 40
3.5999999
 50
193.50833
 51
301.49168
  0
ARC
  8
0
  6
CONTINUOUS
 62
     7
 10
259.56912
 20
-173.27577
 40
5.4000001
 50
193.50833
 51
301.49168
  0
ARC
  8
0
  6
CONTINUOUS
 62
     7
 10
265.52319
 20
-171.84541
 40
11.523461
 50
121.49168
 51
153.02055
  0
ARC
  8
0
  6
CONTINUOUS
 62
     7
 10
265.52319
 20
-171.84541
 40
9.7234612
 50
121.49168
 51
152.18911
  0
ARC
  8
0
  6
CONTINUOUS
 62
     7
 10
256.37039
 20
-168.0542
 40
9.7234612
 50
301.49167
 51
13.508325
  0
ARC
  8
0
  6
CONTINUOUS
 62
     7
 10
256.37039
 20
-168.0542
 40
11.523461
 50
301.49167
 51
333.02055
  0
ARC
  8
0
  6
CONTINUOUS
 62
     7
 10
253.25549
 20
-166.76396
 40
1.125
 50
104.36989
 51
210.6301
  0
ARC
  8
0
  6
CONTINUOUS
 62
     7
 10
260.32318
 20
-169.6915
 40
1.125
 50
284.3699
 51
30.630103
  0
ARC
  8
0
  6
CONTINUOUS
 62
     7
 10
268.63809
 20
-173.13565
 40
1.125
 50
284.3699
 51
30.630103
  0
ARC
  8
0
  6
CONTINUOUS
 62
     7
 10
265.52319
 20
-171.84541
 40
11.523461
 50
161.97945
 51
193.50833
  0
ARC
  8
0
  6
CONTINUOUS
 62
     7
 10
265.52319
 20
-171.84541
 40
9.7234612
 50
162.81088
 51
193.50833
  0
ARC
  8
0
  6
CONTINUOUS
 62
     7
 10
256.37039
 20
-168.0542
 40
11.523461
 50
341.97945
 51
13.508325
  0
TEXT
  8
0
  6
CONTINUOUS
 62
     7
 10
-379.08815
 20
266.396
 40
12
 41
0.84260121
  1
ＲＣＦ－Ｋ　４５゜Ｌ（４５゜エルボ）
  0
TEXT
  8
0
  6
CONTINUOUS
 62
     7
 10
-273.45021
 20
230.48071
 40
8
 41
0.85537028
  1
１／２
  0
TEXT
  8
0
  6
CONTINUOUS
 62
     7
 10
-81.512423
 20
238.39568
 40
8
 41
0.90047271
  1
１
  0
TEXT
  8
0
  6
CONTINUOUS
 62
     7
 10
-154.7258
 20
93.947639
 40
8
 41
0.85127006
  1
１１／４
  0
TEXT
  8
0
  6
CONTINUOUS
 62
     7
 10
-47.873838
 20
97.905121
 40
8
 41
0.85127006
  1
１１／２
  0
TEXT
  8
0
  6
CONTINUOUS
 62
     7
 10
77.776159
 20
106.80945
 40
8
 41
0.90047271
  1
２
  0
TEXT
  8
0
  6
CONTINUOUS
 62
     7
 10
-177.48133
 20
232.45944
 40
8
 41
0.85537028
  1
３／４
  0
TEXT
  8
0
  6
CONTINUOUS
 62
     7
 10
-93.384859
 20
-85.128349
 40
8
 41
0.85127006
  1
２１／２
  0
TEXT
  8
0
  6
CONTINUOUS
 62
     7
 10
72.829313
 20
-77.213387
 40
8
 41
0.90047271
  1
３
  0
TEXT
  8
0
  6
CONTINUOUS
 62
     7
 10
248.93718
 20
-54.457874
 40
8
 41
0.90047271
  1
４
  0
POINT
  8
1
  6
CONTINUOUS
 62
     7
 10
410
 20
-297.5
  0
LINE
  8
1
  6
CONTINUOUS
 62
     7
 10
-429
 20
-297.5
 11
410
 21
-297.5
  0
LINE
  8
1
  6
CONTINUOUS
 62
     7
 10
-429
 20
297.5
 11
-429
 21
-297.5
  0
LINE
  8
1
  6
CONTINUOUS
 62
     7
 10
410
 20
297.5
 11
410
 21
-297.5
  0
LINE
  8
1
  6
CONTINUOUS
 62
     7
 10
-429
 20
297.5
 11
410
 21
297.5
  0
ENDSEC
  0
EOF
