  0
SECTION
  2
HEADER
  9
$EXTMAX
 10
297.25922
 20
211.66544
  9
$EXTMIN
 10
-297.25922
 20
-210.82214
  0
ENDSEC
  0
SECTION
  2
TABLES
  0
TABLE
  2
LTYPE
 70
    22
  0
LTYPE
  2
CONTINUOUS
 70
    64
  3
Solid line
 72
    65
 73
     0
 40
0.000000
  0
LTYPE
  2
DASHED
 70
    64
  3
__ __ __ __ __ __ __ __ __ __ __ __ __ __ __
 72
    65
 73
     2
 40
3.500000
 49
2.000000
 49
-1.500000
  0
LTYPE
  2
CENTER
 70
    64
  3
____ _ ____ _ ____ _ ____ _ ____ _ ____ _ ____
 72
    65
 73
     4
 40
17.500000
 49
13.000000
 49
-1.500000
 49
1.500000
 49
-1.500000
  0
LTYPE
  2
PHANTOM
 70
    64
  3
_____ _ _ _____ _ _ _____ _ _ _____ _ _ ____  
 72
    65
 73
     6
 40
15.500000
 49
8.000000
 49
-1.500000
 49
1.500000
 49
-1.500000
 49
1.500000
 49
-1.500000
  0
LTYPE
  2
DOT
 70
    64
  3
. . . . . . . . . . . . . . . . . . . . . . . .
 72
    65
 73
     2
 40
0.25
 49
0.0
 49
-0.25
  0
ENDTAB
  0
TABLE
  2
LAYER
 70
     1
  0
LAYER
  2
0
 70
     0
 62
     7
  6
CONTINUOUS
  0
ENDTAB
  0
TABLE
  2
STYLE
 70
     1
  0
STYLE
  2
STANDARD
 70
     0
 40
0.000000
 41
1.000000
 50
0.000000
 71
     0
 42
0.200000
  3
txt
  4
BIGFONT
  0
ENDTAB
  0
TABLE
  2
VIEW
 70
     0
  0
ENDTAB
  0
ENDSEC
  0
SECTION
  2
BLOCKS
  0
ENDSEC
  0
SECTION
  2
ENTITIES
  0
POINT
  8
0
  6
CONTINUOUS
 62
     7
 10
487
 20
-210
  0
POINT
  8
0
  6
CONTINUOUS
 62
     7
 10
1081
 20
-210
  0
POINT
  8
0
  6
CONTINUOUS
 62
     7
 10
487
 20
210
  0
POINT
  8
0
  6
CONTINUOUS
 62
     7
 10
1081
 20
210
  0
POINT
  8
0
  6
CONTINUOUS
 62
     7
 10
-5.7711792
 20
147.92375
  0
POINT
  8
0
  6
CONTINUOUS
 62
     7
 10
-163.86563
 20
54.17271
  0
POINT
  8
0
  6
CONTINUOUS
 62
     7
 10
-28.865635
 20
54.17271
  0
POINT
  8
0
  6
CONTINUOUS
 62
     7
 10
121.13437
 20
54.17271
  0
POINT
  8
0
  6
CONTINUOUS
 62
     7
 10
-28.413006
 20
-87.251427
  0
POINT
  8
0
  6
CONTINUOUS
 62
     7
 10
75.728821
 20
147.92375
  0
POINT
  8
0
  6
CONTINUOUS
 62
     7
 10
-200.41301
 20
-87.251427
  0
POINT
  8
0
  6
CONTINUOUS
 62
     7
 10
168.72882
 20
147.92375
  0
POINT
  8
0
  6
CONTINUOUS
 62
     7
 10
487
 20
210
  0
POINT
  8
0
  6
CONTINUOUS
 62
     7
 10
297
 20
210
  0
POINT
  8
0
  6
CONTINUOUS
 62
     7
 10
-297
 20
210
  0
POINT
  8
0
  6
CONTINUOUS
 62
     7
 10
297
 20
-210
  0
POINT
  8
0
  6
CONTINUOUS
 62
     7
 10
-297
 20
-210
  0
POINT
  8
0
  6
CONTINUOUS
 62
     7
 10
169.58699
 20
-87.251427
  0
POINT
  8
0
  6
CONTINUOUS
 62
     7
 10
909.44092
 20
2.4926636
  0
POINT
  8
0
  6
CONTINUOUS
 62
     7
 10
637.44092
 20
2.4926636
  0
POINT
  8
0
  6
CONTINUOUS
 62
     7
 10
-213.27118
 20
147.92375
  0
POINT
  8
0
  6
CONTINUOUS
 62
     7
 10
-148.77118
 20
147.92375
  0
POINT
  8
0
  6
CONTINUOUS
 62
     7
 10
-80.271194
 20
147.92375
  0
POINT
  8
0
  6
CONTINUOUS
 62
     7
 10
-213.27118
 20
147.92375
  0
POINT
  8
0
  6
CONTINUOUS
 62
     7
 10
-148.77118
 20
147.92375
  0
POINT
  8
0
  6
CONTINUOUS
 62
     7
 10
-80.271194
 20
147.92375
  0
POINT
  8
0
  6
CONTINUOUS
 62
     7
 10
-5.7711792
 20
147.92375
  0
POINT
  8
0
  6
CONTINUOUS
 62
     7
 10
75.728821
 20
147.92375
  0
POINT
  8
0
  6
CONTINUOUS
 62
     7
 10
168.72882
 20
147.92375
  0
POINT
  8
0
  6
CONTINUOUS
 62
     7
 10
-163.86563
 20
54.17271
  0
POINT
  8
0
  6
CONTINUOUS
 62
     7
 10
-28.865635
 20
54.17271
  0
POINT
  8
0
  6
CONTINUOUS
 62
     7
 10
121.13437
 20
54.17271
  0
POINT
  8
0
  6
CONTINUOUS
 62
     7
 10
-200.41301
 20
-87.251427
  0
POINT
  8
0
  6
CONTINUOUS
 62
     7
 10
-28.413006
 20
-87.251427
  0
POINT
  8
0
  6
CONTINUOUS
 62
     7
 10
-28.413006
 20
-87.251427
  0
POINT
  8
0
  6
CONTINUOUS
 62
     7
 10
169.58699
 20
-87.251427
  0
POINT
  8
0
  6
CONTINUOUS
 62
     7
 10
637.44092
 20
2.4926636
  0
POINT
  8
0
  6
CONTINUOUS
 62
     7
 10
909.44092
 20
2.4926636
  0
LINE
  8
0
  6
CONTINUOUS
 62
     7
 10
1071
 20
200
 11
1071
 21
-200
  0
LINE
  8
0
  6
CONTINUOUS
 62
     7
 10
497
 20
200
 11
1071
 21
200
  0
LINE
  8
0
  6
CONTINUOUS
 62
     7
 10
497
 20
200
 11
497
 21
-200
  0
LINE
  8
0
  6
CONTINUOUS
 62
     7
 10
497
 20
-200
 11
1071
 21
-200
  0
LINE
  8
0
  6
CONTINUOUS
 62
     7
 10
-287
 20
-200
 11
287
 21
-200
  0
LINE
  8
0
  6
CONTINUOUS
 62
     7
 10
-287
 20
200
 11
-287
 21
-200
  0
LINE
  8
0
  6
CONTINUOUS
 62
     7
 10
-287
 20
200
 11
287
 21
200
  0
LINE
  8
0
  6
CONTINUOUS
 62
     7
 10
287
 20
200
 11
287
 21
-200
  0
LINE
  8
0
  6
CENTER
 62
     7
 10
-213.27118
 20
158.42375
 11
-213.27118
 21
126.92375
  0
LINE
  8
0
  6
CENTER
 62
     7
 10
-192.27118
 20
147.92375
 11
-234.27118
 21
147.92375
  0
LINE
  8
0
  6
CONTINUOUS
 62
     7
 10
-205.77118
 20
137.42375
 11
-205.77118
 21
130.92375
  0
LINE
  8
0
  6
CONTINUOUS
 62
     7
 10
-220.77118
 20
137.42375
 11
-220.77118
 21
130.92375
  0
LINE
  8
0
  6
CONTINUOUS
 62
     7
 10
-230.27118
 20
155.42375
 11
-196.27118
 21
155.42375
  0
LINE
  8
0
  6
CONTINUOUS
 62
     7
 10
-202.77118
 20
140.42375
 11
-196.27118
 21
140.42375
  0
LINE
  8
0
  6
CONTINUOUS
 62
     7
 10
-223.77118
 20
140.42375
 11
-230.27118
 21
140.42375
  0
LINE
  8
0
  6
CONTINUOUS
 62
     7
 10
-196.2711
 20
155.42375
 11
-196.2711
 21
140.42375
  0
LINE
  8
0
  6
CONTINUOUS
 62
     7
 10
-230.27118
 20
155.42375
 11
-230.27118
 21
140.42375
  0
LINE
  8
0
  6
CONTINUOUS
 62
     7
 10
-205.77118
 20
130.92378
 11
-220.77118
 21
130.92378
  0
LINE
  8
0
  6
CENTER
 62
     7
 10
-148.77118
 20
160.42375
 11
-148.77118
 21
124.92375
  0
LINE
  8
0
  6
CENTER
 62
     7
 10
-125.77118
 20
147.92375
 11
-171.77118
 21
147.92375
  0
LINE
  8
0
  6
CONTINUOUS
 62
     7
 10
-161.27118
 20
138.42375
 11
-167.77118
 21
138.42375
  0
LINE
  8
0
  6
CONTINUOUS
 62
     7
 10
-167.77118
 20
157.42375
 11
-129.77118
 21
157.42375
  0
LINE
  8
0
  6
CONTINUOUS
 62
     7
 10
-136.27118
 20
138.42375
 11
-129.77118
 21
138.42375
  0
LINE
  8
0
  6
CONTINUOUS
 62
     7
 10
-139.27118
 20
135.42375
 11
-139.27118
 21
128.92375
  0
LINE
  8
0
  6
CONTINUOUS
 62
     7
 10
-158.27118
 20
135.42375
 11
-158.27118
 21
128.92375
  0
LINE
  8
0
  6
CONTINUOUS
 62
     7
 10
-139.27118
 20
128.92375
 11
-158.27118
 21
128.92375
  0
LINE
  8
0
  6
CONTINUOUS
 62
     7
 10
-129.77118
 20
157.42375
 11
-129.77118
 21
138.42375
  0
LINE
  8
0
  6
CONTINUOUS
 62
     7
 10
-167.77118
 20
157.42375
 11
-167.77118
 21
138.42375
  0
LINE
  8
0
  6
CENTER
 62
     7
 10
-80.271194
 20
162.42375
 11
-80.271194
 21
120.92377
  0
LINE
  8
0
  6
CENTER
 62
     7
 10
-53.271194
 20
147.92375
 11
-107.27119
 21
147.92375
  0
LINE
  8
0
  6
CONTINUOUS
 62
     7
 10
-68.771202
 20
133.42375
 11
-68.771202
 21
124.92375
  0
LINE
  8
0
  6
CONTINUOUS
 62
     7
 10
-91.771202
 20
133.42375
 11
-91.771202
 21
124.92375
  0
LINE
  8
0
  6
CONTINUOUS
 62
     7
 10
-94.771202
 20
136.42375
 11
-103.27119
 21
136.42375
  0
LINE
  8
0
  6
CONTINUOUS
 62
     7
 10
-65.771202
 20
136.42375
 11
-57.271194
 21
136.42375
  0
LINE
  8
0
  6
CONTINUOUS
 62
     7
 10
-103.27119
 20
159.42375
 11
-57.271194
 21
159.42375
  0
LINE
  8
0
  6
CONTINUOUS
 62
     7
 10
-91.771202
 20
124.92376
 11
-68.771202
 21
124.92376
  0
LINE
  8
0
  6
CONTINUOUS
 62
     7
 10
-103.27119
 20
136.42375
 11
-103.27119
 21
159.42375
  0
LINE
  8
0
  6
CONTINUOUS
 62
     7
 10
-57.271187
 20
136.42375
 11
-57.271187
 21
159.42375
  0
LINE
  8
0
  6
CENTER
 62
     7
 10
-5.7711792
 20
164.42375
 11
-5.7711792
 21
116.72374
  0
LINE
  8
0
  6
CENTER
 62
     7
 10
25.428818
 20
147.92375
 11
-36.971176
 21
147.92375
  0
LINE
  8
0
  6
CONTINUOUS
 62
     7
 10
7.7288132
 20
131.42375
 11
7.7288132
 21
120.92375
  0
LINE
  8
0
  6
CONTINUOUS
 62
     7
 10
-19.271187
 20
131.42375
 11
-19.271187
 21
120.92375
  0
LINE
  8
0
  6
CONTINUOUS
 62
     7
 10
-22.271187
 20
134.42375
 11
-32.771179
 21
134.42375
  0
LINE
  8
0
  6
CONTINUOUS
 62
     7
 10
10.728813
 20
134.42375
 11
21.228821
 21
134.42375
  0
LINE
  8
0
  6
CONTINUOUS
 62
     7
 10
-32.771179
 20
161.42375
 11
21.228821
 21
161.42375
  0
LINE
  8
0
  6
CONTINUOUS
 62
     7
 10
-19.271187
 20
120.92377
 11
7.7288132
 21
120.92377
  0
LINE
  8
0
  6
CONTINUOUS
 62
     7
 10
21.228825
 20
161.42375
 11
21.228825
 21
134.42375
  0
LINE
  8
0
  6
CONTINUOUS
 62
     7
 10
-32.771183
 20
161.42375
 11
-32.771183
 21
134.42375
  0
LINE
  8
0
  6
CENTER
 62
     7
 10
75.728821
 20
167.42375
 11
75.728821
 21
111.72377
  0
LINE
  8
0
  6
CENTER
 62
     7
 10
111.92882
 20
147.92375
 11
39.528824
 21
147.92375
  0
LINE
  8
0
  6
CONTINUOUS
 62
     7
 10
92.228813
 20
127.42375
 11
92.228813
 21
115.92375
  0
LINE
  8
0
  6
CONTINUOUS
 62
     7
 10
59.228813
 20
127.42375
 11
59.228813
 21
115.92375
  0
LINE
  8
0
  6
CONTINUOUS
 62
     7
 10
55.228813
 20
131.42375
 11
43.728821
 21
131.42375
  0
LINE
  8
0
  6
CONTINUOUS
 62
     7
 10
96.228813
 20
131.42375
 11
107.72882
 21
131.42375
  0
LINE
  8
0
  6
CONTINUOUS
 62
     7
 10
43.728821
 20
164.42375
 11
107.72882
 21
164.42375
  0
LINE
  8
0
  6
CONTINUOUS
 62
     7
 10
107.72883
 20
164.42375
 11
107.72883
 21
131.42375
  0
LINE
  8
0
  6
CONTINUOUS
 62
     7
 10
59.228813
 20
115.92374
 11
92.228813
 21
115.92374
  0
LINE
  8
0
  6
CONTINUOUS
 62
     7
 10
43.728821
 20
164.42375
 11
43.728821
 21
131.42375
  0
LINE
  8
0
  6
CENTER
 62
     7
 10
168.72882
 20
171.42375
 11
168.72882
 21
105.72377
  0
LINE
  8
0
  6
CENTER
 62
     7
 10
210.92882
 20
147.92375
 11
126.52882
 21
147.92375
  0
LINE
  8
0
  6
CONTINUOUS
 62
     7
 10
189.22882
 20
123.42375
 11
189.22882
 21
109.92375
  0
LINE
  8
0
  6
CONTINUOUS
 62
     7
 10
148.22882
 20
123.42375
 11
148.22882
 21
109.92375
  0
LINE
  8
0
  6
CONTINUOUS
 62
     7
 10
144.22882
 20
127.42375
 11
130.72882
 21
127.42375
  0
LINE
  8
0
  6
CONTINUOUS
 62
     7
 10
193.22882
 20
127.42375
 11
206.72882
 21
127.42375
  0
LINE
  8
0
  6
CONTINUOUS
 62
     7
 10
130.72882
 20
168.42375
 11
206.72882
 21
168.42375
  0
LINE
  8
0
  6
CONTINUOUS
 62
     7
 10
130.72882
 20
168.42375
 11
130.72882
 21
127.42375
  0
LINE
  8
0
  6
CONTINUOUS
 62
     7
 10
148.22882
 20
109.92375
 11
189.22882
 21
109.92375
  0
LINE
  8
0
  6
CONTINUOUS
 62
     7
 10
206.72882
 20
168.42375
 11
206.72882
 21
127.42375
  0
LINE
  8
0
  6
CENTER
 62
     7
 10
-163.86563
 20
82.172714
 11
-163.86563
 21
3.7727013
  0
LINE
  8
0
  6
CENTER
 62
     7
 10
-113.46564
 20
54.17271
 11
-214.26563
 21
54.17271
  0
LINE
  8
0
  6
CONTINUOUS
 62
     7
 10
-138.86563
 20
23.17271
 11
-138.86563
 21
8.1727104
  0
LINE
  8
0
  6
CONTINUOUS
 62
     7
 10
-188.86563
 20
23.17271
 11
-188.86563
 21
8.1727104
  0
LINE
  8
0
  6
CONTINUOUS
 62
     7
 10
-194.86563
 20
29.17271
 11
-209.86563
 21
29.17271
  0
LINE
  8
0
  6
CONTINUOUS
 62
     7
 10
-132.86563
 20
29.17271
 11
-117.86563
 21
29.17271
  0
LINE
  8
0
  6
CONTINUOUS
 62
     7
 10
-209.86563
 20
79.172714
 11
-117.86563
 21
79.172714
  0
LINE
  8
0
  6
CONTINUOUS
 62
     7
 10
-138.86563
 20
8.1727123
 11
-188.86563
 21
8.1727123
  0
LINE
  8
0
  6
CONTINUOUS
 62
     7
 10
-209.86563
 20
79.172714
 11
-209.86563
 21
29.17271
  0
LINE
  8
0
  6
CONTINUOUS
 62
     7
 10
-117.86563
 20
79.172714
 11
-117.86563
 21
29.17271
  0
LINE
  8
0
  6
CENTER
 62
     7
 10
-28.865635
 20
85.172714
 11
-28.865635
 21
1.7727165
  0
LINE
  8
0
  6
CENTER
 62
     7
 10
23.534359
 20
54.17271
 11
-81.26564
 21
54.17271
  0
LINE
  8
0
  6
CONTINUOUS
 62
     7
 10
-0.86563492
 20
20.17271
 11
-0.86563492
 21
6.1727104
  0
LINE
  8
0
  6
CONTINUOUS
 62
     7
 10
-56.865643
 20
20.17271
 11
-56.865643
 21
6.1727104
  0
LINE
  8
0
  6
CONTINUOUS
 62
     7
 10
-62.865643
 20
26.17271
 11
-76.865631
 21
26.17271
  0
LINE
  8
0
  6
CONTINUOUS
 62
     7
 10
5.1343651
 20
26.17271
 11
19.134365
 21
26.17271
  0
LINE
  8
0
  6
CONTINUOUS
 62
     7
 10
-76.865631
 20
82.172714
 11
19.134365
 21
82.172714
  0
LINE
  8
0
  6
CONTINUOUS
 62
     7
 10
19.134369
 20
82.172714
 11
19.134369
 21
26.17271
  0
LINE
  8
0
  6
CONTINUOUS
 62
     7
 10
-76.865631
 20
82.172714
 11
-76.865631
 21
26.17271
  0
LINE
  8
0
  6
CONTINUOUS
 62
     7
 10
-0.86563492
 20
6.172729
 11
-56.865643
 21
6.172729
  0
LINE
  8
0
  6
CENTER
 62
     7
 10
121.13437
 20
91.672714
 11
121.13437
 21
-7.4272652
  0
LINE
  8
0
  6
CENTER
 62
     7
 10
182.73438
 20
54.17271
 11
59.53437
 21
54.17271
  0
LINE
  8
0
  6
CONTINUOUS
 62
     7
 10
155.63437
 20
12.67271
 11
155.63437
 21
-2.8272896
  0
LINE
  8
0
  6
CONTINUOUS
 62
     7
 10
86.634361
 20
12.67271
 11
86.634361
 21
-2.8272896
  0
LINE
  8
0
  6
CONTINUOUS
 62
     7
 10
79.634361
 20
19.67271
 11
64.134369
 21
19.67271
  0
LINE
  8
0
  6
CONTINUOUS
 62
     7
 10
162.63437
 20
19.67271
 11
178.13437
 21
19.67271
  0
LINE
  8
0
  6
CONTINUOUS
 62
     7
 10
64.134369
 20
88.672714
 11
178.13437
 21
88.672714
  0
LINE
  8
0
  6
CONTINUOUS
 62
     7
 10
155.63437
 20
-2.8272977
 11
86.634361
 21
-2.8272977
  0
LINE
  8
0
  6
CONTINUOUS
 62
     7
 10
64.134369
 20
88.672714
 11
64.134369
 21
19.67271
  0
LINE
  8
0
  6
CONTINUOUS
 62
     7
 10
178.13435
 20
88.672714
 11
178.13435
 21
19.67271
  0
LINE
  8
0
  6
CENTER
 62
     7
 10
-200.41301
 20
-41.25145
 11
-200.41301
 21
-161.2514
  0
LINE
  8
0
  6
CENTER
 62
     7
 10
-126.41304
 20
-87.251427
 11
-274.41302
 21
-87.251427
  0
LINE
  8
0
  6
CONTINUOUS
 62
     7
 10
-154.91299
 20
-144.25143
 11
-154.91299
 21
-156.25143
  0
LINE
  8
0
  6
CONTINUOUS
 62
     7
 10
-157.41299
 20
-138.25146
 11
-157.41299
 21
-139.37802
  0
LINE
  8
0
  6
CONTINUOUS
 62
     7
 10
-143.41301
 20
-41.751442
 11
-131.41301
 21
-41.751442
  0
LINE
  8
0
  6
CONTINUOUS
 62
     7
 10
-143.41301
 20
-132.75146
 11
-131.41301
 21
-132.75146
  0
LINE
  8
0
  6
CONTINUOUS
 62
     7
 10
-252.53961
 20
-44.251442
 11
-148.28641
 21
-44.251442
  0
LINE
  8
0
  6
CONTINUOUS
 62
     7
 10
-149.41299
 20
-130.25146
 11
-148.28641
 21
-130.25146
  0
LINE
  8
0
  6
CONTINUOUS
 62
     7
 10
-245.91302
 20
-144.25143
 11
-245.91302
 21
-156.25143
  0
LINE
  8
0
  6
CONTINUOUS
 62
     7
 10
-243.41302
 20
-138.25146
 11
-243.41302
 21
-139.37802
  0
LINE
  8
0
  6
CONTINUOUS
 62
     7
 10
-257.41302
 20
-41.751442
 11
-269.41302
 21
-41.751442
  0
LINE
  8
0
  6
CONTINUOUS
 62
     7
 10
-257.41302
 20
-132.75146
 11
-269.41302
 21
-132.75146
  0
LINE
  8
0
  6
CONTINUOUS
 62
     7
 10
-251.41302
 20
-130.25146
 11
-252.53961
 21
-130.25146
  0
LINE
  8
0
  6
CONTINUOUS
 62
     7
 10
-154.91299
 20
-156.25139
 11
-245.91302
 21
-156.25139
  0
LINE
  8
0
  6
CONTINUOUS
 62
     7
 10
-154.91299
 20
-144.2514
 11
-245.91302
 21
-144.2514
  0
LINE
  8
0
  6
CONTINUOUS
 62
     7
 10
-257.41302
 20
-41.751442
 11
-257.41302
 21
-132.75146
  0
LINE
  8
0
  6
CONTINUOUS
 62
     7
 10
-269.41302
 20
-41.751442
 11
-269.41302
 21
-132.75146
  0
LINE
  8
0
  6
CONTINUOUS
 62
     7
 10
-143.41299
 20
-41.751442
 11
-143.41299
 21
-132.75146
  0
LINE
  8
0
  6
CONTINUOUS
 62
     7
 10
-131.41299
 20
-41.751442
 11
-131.41299
 21
-132.75146
  0
LINE
  8
0
  6
CENTER
 62
     7
 10
-28.413006
 20
-34.751427
 11
-28.413006
 21
-170.65137
  0
LINE
  8
0
  6
CENTER
 62
     7
 10
54.586956
 20
-87.251427
 11
-111.41296
 21
-87.251427
  0
LINE
  8
0
  6
CONTINUOUS
 62
     7
 10
24.086994
 20
-152.25143
 11
24.086994
 21
-165.25143
  0
LINE
  8
0
  6
CONTINUOUS
 62
     7
 10
36.586994
 20
-139.75143
 11
49.586994
 21
-139.75143
  0
LINE
  8
0
  6
CONTINUOUS
 62
     7
 10
21.086994
 20
-144.75143
 11
21.086994
 21
-145.10999
  0
LINE
  8
0
  6
CONTINUOUS
 62
     7
 10
29.086994
 20
-136.75143
 11
29.44556
 21
-136.75143
  0
LINE
  8
0
  6
CONTINUOUS
 62
     7
 10
36.586994
 20
-34.751427
 11
49.586994
 21
-34.751427
  0
LINE
  8
0
  6
CONTINUOUS
 62
     7
 10
-86.271591
 20
-37.751427
 11
29.44556
 21
-37.751427
  0
LINE
  8
0
  6
CONTINUOUS
 62
     7
 10
-80.91301
 20
-152.25142
 11
-80.91301
 21
-165.25143
  0
LINE
  8
0
  6
CONTINUOUS
 62
     7
 10
-93.41301
 20
-139.75143
 11
-106.41301
 21
-139.75143
  0
LINE
  8
0
  6
CONTINUOUS
 62
     7
 10
-77.91301
 20
-144.75143
 11
-77.91301
 21
-145.10999
  0
LINE
  8
0
  6
CONTINUOUS
 62
     7
 10
-85.91301
 20
-136.75143
 11
-86.271576
 21
-136.75143
  0
LINE
  8
0
  6
CONTINUOUS
 62
     7
 10
-93.41301
 20
-34.751427
 11
-106.41301
 21
-34.751427
  0
LINE
  8
0
  6
CONTINUOUS
 62
     7
 10
24.086994
 20
-165.25159
 11
-80.91301
 21
-165.25159
  0
LINE
  8
0
  6
CONTINUOUS
 62
     7
 10
24.086994
 20
-152.25142
 11
-80.91301
 21
-152.25142
  0
LINE
  8
0
  6
CONTINUOUS
 62
     7
 10
-106.41296
 20
-34.751427
 11
-106.41296
 21
-139.75143
  0
LINE
  8
0
  6
CONTINUOUS
 62
     7
 10
-93.413025
 20
-34.751427
 11
-93.413025
 21
-139.75143
  0
LINE
  8
0
  6
CONTINUOUS
 62
     7
 10
36.587009
 20
-34.751427
 11
36.587009
 21
-139.75143
  0
LINE
  8
0
  6
CONTINUOUS
 62
     7
 10
49.586956
 20
-34.751427
 11
49.586956
 21
-139.75143
  0
LINE
  8
0
  6
CENTER
 62
     7
 10
67.58696
 20
-87.251427
 11
271.58698
 21
-87.251427
  0
LINE
  8
0
  6
CENTER
 62
     7
 10
169.58699
 20
-189.25142
 11
169.58699
 21
-10.332375
  0
LINE
  8
0
  6
CONTINUOUS
 62
     7
 10
250.58699
 20
-20.751472
 11
266.58698
 21
-20.751472
  0
LINE
  8
0
  6
CONTINUOUS
 62
     7
 10
250.58699
 20
-153.75146
 11
266.58698
 21
-153.75146
  0
LINE
  8
0
  6
CONTINUOUS
 62
     7
 10
95.728409
 20
-23.751469
 11
243.44557
 21
-23.751469
  0
LINE
  8
0
  6
CONTINUOUS
 62
     7
 10
243.08699
 20
-150.75146
 11
243.44557
 21
-150.75146
  0
LINE
  8
0
  6
CONTINUOUS
 62
     7
 10
236.08699
 20
-168.2514
 11
236.08699
 21
-184.2514
  0
LINE
  8
0
  6
CONTINUOUS
 62
     7
 10
233.08699
 20
-160.75146
 11
233.08699
 21
-161.10999
  0
LINE
  8
0
  6
CONTINUOUS
 62
     7
 10
88.58699
 20
-20.751472
 11
72.58696
 21
-20.751472
  0
LINE
  8
0
  6
CONTINUOUS
 62
     7
 10
88.58699
 20
-153.75146
 11
72.58696
 21
-153.75146
  0
LINE
  8
0
  6
CONTINUOUS
 62
     7
 10
96.08699
 20
-150.75146
 11
95.728409
 21
-150.75146
  0
LINE
  8
0
  6
CONTINUOUS
 62
     7
 10
103.08699
 20
-168.2514
 11
103.08699
 21
-184.2514
  0
LINE
  8
0
  6
CONTINUOUS
 62
     7
 10
106.08699
 20
-160.75146
 11
106.08699
 21
-161.10999
  0
LINE
  8
0
  6
CONTINUOUS
 62
     7
 10
72.58696
 20
-153.75146
 11
72.58696
 21
-20.751472
  0
LINE
  8
0
  6
CONTINUOUS
 62
     7
 10
88.586937
 20
-153.75146
 11
88.586937
 21
-20.751472
  0
LINE
  8
0
  6
CONTINUOUS
 62
     7
 10
250.58704
 20
-153.75146
 11
250.58704
 21
-20.751472
  0
LINE
  8
0
  6
CONTINUOUS
 62
     7
 10
266.58698
 20
-153.75146
 11
266.58698
 21
-20.751472
  0
LINE
  8
0
  6
CONTINUOUS
 62
     7
 10
236.08699
 20
-168.25139
 11
103.08699
 21
-168.25139
  0
LINE
  8
0
  6
CONTINUOUS
 62
     7
 10
236.08699
 20
-184.25142
 11
103.08699
 21
-184.25142
  0
LINE
  8
0
  6
CENTER
 62
     7
 10
519.44098
 20
2.4926636
 11
755.44086
 21
2.4926636
  0
LINE
  8
0
  6
CENTER
 62
     7
 10
637.44092
 20
-115.50726
 11
637.44092
 21
95.345879
  0
LINE
  8
0
  6
CONTINUOUS
 62
     7
 10
717.94092
 20
-92.507339
 11
717.94092
 21
-110.50734
  0
LINE
  8
0
  6
CONTINUOUS
 62
     7
 10
732.44092
 20
-78.007339
 11
750.44092
 21
-78.007339
  0
LINE
  8
0
  6
CONTINUOUS
 62
     7
 10
732.44092
 20
82.992661
 11
750.44092
 21
82.992661
  0
LINE
  8
0
  6
CONTINUOUS
 62
     7
 10
550.04022
 20
79.492661
 11
724.84155
 21
79.492661
  0
LINE
  8
0
  6
CONTINUOUS
 62
     7
 10
556.94092
 20
-92.507339
 11
556.94092
 21
-110.50734
  0
LINE
  8
0
  6
CONTINUOUS
 62
     7
 10
542.44092
 20
-78.007339
 11
524.44092
 21
-78.007339
  0
LINE
  8
0
  6
CONTINUOUS
 62
     7
 10
542.44092
 20
82.992661
 11
524.44092
 21
82.992661
  0
LINE
  8
0
  6
CONTINUOUS
 62
     7
 10
556.94092
 20
-110.50726
 11
717.94092
 21
-110.50726
  0
LINE
  8
0
  6
CONTINUOUS
 62
     7
 10
556.94092
 20
-92.507347
 11
717.94092
 21
-92.507347
  0
LINE
  8
0
  6
CONTINUOUS
 62
     7
 10
542.44086
 20
-78.007339
 11
542.44086
 21
82.992661
  0
LINE
  8
0
  6
CONTINUOUS
 62
     7
 10
524.44098
 20
-78.007339
 11
524.44098
 21
82.992661
  0
LINE
  8
0
  6
CONTINUOUS
 62
     7
 10
750.44086
 20
-78.007339
 11
750.44086
 21
82.992661
  0
LINE
  8
0
  6
CONTINUOUS
 62
     7
 10
732.44098
 20
-78.007339
 11
732.44098
 21
82.992661
  0
LINE
  8
0
  6
CENTER
 62
     7
 10
772.44104
 20
2.4926636
 11
1046.4408
 21
2.4926636
  0
LINE
  8
0
  6
CENTER
 62
     7
 10
909.44092
 20
-134.50722
 11
909.44092
 21
111.48781
  0
LINE
  8
0
  6
CONTINUOUS
 62
     7
 10
1003.9409
 20
-109.50734
 11
1003.9409
 21
-129.50734
  0
LINE
  8
0
  6
CONTINUOUS
 62
     7
 10
1021.4409
 20
96.992607
 11
1041.4409
 21
96.992607
  0
LINE
  8
0
  6
CONTINUOUS
 62
     7
 10
1021.4409
 20
-92.007385
 11
1041.4409
 21
-92.007385
  0
LINE
  8
0
  6
CONTINUOUS
 62
     7
 10
805.04028
 20
93.492607
 11
1013.8416
 21
93.492607
  0
LINE
  8
0
  6
CONTINUOUS
 62
     7
 10
814.94098
 20
-109.50734
 11
814.94098
 21
-129.50734
  0
LINE
  8
0
  6
CONTINUOUS
 62
     7
 10
797.44092
 20
96.992607
 11
777.44092
 21
96.992607
  0
LINE
  8
0
  6
CONTINUOUS
 62
     7
 10
797.44092
 20
-92.007385
 11
777.44092
 21
-92.007385
  0
LINE
  8
0
  6
CONTINUOUS
 62
     7
 10
777.44104
 20
-92.007385
 11
777.44104
 21
96.992607
  0
LINE
  8
0
  6
CONTINUOUS
 62
     7
 10
797.44098
 20
-92.007385
 11
797.44098
 21
96.992607
  0
LINE
  8
0
  6
CONTINUOUS
 62
     7
 10
1021.4409
 20
-92.007385
 11
1021.4409
 21
96.992607
  0
LINE
  8
0
  6
CONTINUOUS
 62
     7
 10
1041.4408
 20
-92.007385
 11
1041.4408
 21
96.992607
  0
LINE
  8
0
  6
CONTINUOUS
 62
     7
 10
814.94098
 20
-129.50722
 11
1003.9409
 21
-129.50722
  0
LINE
  8
0
  6
CONTINUOUS
 62
     7
 10
814.94098
 20
-109.50726
 11
1003.9409
 21
-109.50726
  0
LINE
  8
0
  6
CONTINUOUS
 62
     7
 10
121.88437
 20
61.67271
 11
121.88437
 21
59.618378
  0
LINE
  8
0
  6
CONTINUOUS
 62
     7
 10
120.38437
 20
61.67271
 11
120.38437
 21
59.618378
  0
LINE
  8
0
  6
CONTINUOUS
 62
     7
 10
120.38437
 20
48.727043
 11
120.38437
 21
46.67271
  0
LINE
  8
0
  6
CONTINUOUS
 62
     7
 10
121.88437
 20
48.727043
 11
121.88437
 21
46.67271
  0
LINE
  8
0
  6
CONTINUOUS
 62
     7
 10
120.38437
 20
58.112926
 11
120.38437
 21
54.17271
  0
LINE
  8
0
  6
CONTINUOUS
 62
     7
 10
121.88437
 20
58.112926
 11
121.88437
 21
54.17271
  0
LINE
  8
0
  6
CONTINUOUS
 62
     7
 10
-28.265635
 20
60.17271
 11
-28.265635
 21
58.529243
  0
LINE
  8
0
  6
CONTINUOUS
 62
     7
 10
-29.465635
 20
60.17271
 11
-29.465635
 21
58.529243
  0
LINE
  8
0
  6
CONTINUOUS
 62
     7
 10
-29.465635
 20
49.816177
 11
-29.465635
 21
48.17271
  0
LINE
  8
0
  6
CONTINUOUS
 62
     7
 10
-28.265635
 20
49.816177
 11
-28.265635
 21
48.17271
  0
LINE
  8
0
  6
CONTINUOUS
 62
     7
 10
-29.465635
 20
57.324883
 11
-29.465635
 21
54.17271
  0
LINE
  8
0
  6
CONTINUOUS
 62
     7
 10
-28.265635
 20
57.324883
 11
-28.265635
 21
54.17271
  0
LINE
  8
0
  6
CONTINUOUS
 62
     7
 10
-163.26563
 20
60.17271
 11
-163.26563
 21
58.529243
  0
LINE
  8
0
  6
CONTINUOUS
 62
     7
 10
-164.46564
 20
60.17271
 11
-164.46564
 21
58.529243
  0
LINE
  8
0
  6
CONTINUOUS
 62
     7
 10
-164.46564
 20
49.816177
 11
-164.46564
 21
48.17271
  0
LINE
  8
0
  6
CONTINUOUS
 62
     7
 10
-163.26563
 20
49.816177
 11
-163.26563
 21
48.17271
  0
LINE
  8
0
  6
CONTINUOUS
 62
     7
 10
-164.46564
 20
57.324883
 11
-164.46564
 21
54.17271
  0
LINE
  8
0
  6
CONTINUOUS
 62
     7
 10
-163.26563
 20
57.324883
 11
-163.26563
 21
54.17271
  0
LINE
  8
0
  6
CONTINUOUS
 62
     7
 10
169.32883
 20
153.92375
 11
169.32883
 21
152.28029
  0
LINE
  8
0
  6
CONTINUOUS
 62
     7
 10
168.12881
 20
153.92375
 11
168.12881
 21
152.28029
  0
LINE
  8
0
  6
CONTINUOUS
 62
     7
 10
168.12881
 20
143.56721
 11
168.12881
 21
141.92375
  0
LINE
  8
0
  6
CONTINUOUS
 62
     7
 10
169.32883
 20
143.56721
 11
169.32883
 21
141.92375
  0
LINE
  8
0
  6
CONTINUOUS
 62
     7
 10
168.12881
 20
151.07593
 11
168.12881
 21
147.92375
  0
LINE
  8
0
  6
CONTINUOUS
 62
     7
 10
169.32883
 20
151.07593
 11
169.32883
 21
147.92375
  0
LINE
  8
0
  6
CONTINUOUS
 62
     7
 10
76.178818
 20
152.42375
 11
76.178818
 21
151.19115
  0
LINE
  8
0
  6
CONTINUOUS
 62
     7
 10
75.278824
 20
152.42375
 11
75.278824
 21
151.19115
  0
LINE
  8
0
  6
CONTINUOUS
 62
     7
 10
75.278824
 20
144.65636
 11
75.278824
 21
143.42375
  0
LINE
  8
0
  6
CONTINUOUS
 62
     7
 10
76.178818
 20
144.65636
 11
76.178818
 21
143.42375
  0
LINE
  8
0
  6
CONTINUOUS
 62
     7
 10
75.278824
 20
150.28789
 11
75.278824
 21
147.92375
  0
LINE
  8
0
  6
CONTINUOUS
 62
     7
 10
76.178818
 20
150.28789
 11
76.178818
 21
147.92375
  0
LINE
  8
0
  6
CONTINUOUS
 62
     7
 10
-5.3211794
 20
152.42375
 11
-5.3211794
 21
151.19115
  0
LINE
  8
0
  6
CONTINUOUS
 62
     7
 10
-6.221179
 20
152.42375
 11
-6.221179
 21
151.19115
  0
LINE
  8
0
  6
CONTINUOUS
 62
     7
 10
-6.221179
 20
144.65636
 11
-6.221179
 21
143.42375
  0
LINE
  8
0
  6
CONTINUOUS
 62
     7
 10
-5.3211794
 20
144.65636
 11
-5.3211794
 21
143.42375
  0
LINE
  8
0
  6
CONTINUOUS
 62
     7
 10
-6.221179
 20
150.28789
 11
-6.221179
 21
147.92375
  0
LINE
  8
0
  6
CONTINUOUS
 62
     7
 10
-5.3211794
 20
150.28789
 11
-5.3211794
 21
147.92375
  0
LINE
  8
0
  6
CONTINUOUS
 62
     7
 10
-79.821198
 20
152.42375
 11
-79.821198
 21
151.19115
  0
LINE
  8
0
  6
CONTINUOUS
 62
     7
 10
-80.721191
 20
152.42375
 11
-80.721191
 21
151.19115
  0
LINE
  8
0
  6
CONTINUOUS
 62
     7
 10
-80.721191
 20
144.65636
 11
-80.721191
 21
143.42375
  0
LINE
  8
0
  6
CONTINUOUS
 62
     7
 10
-79.821198
 20
144.65636
 11
-79.821198
 21
143.42375
  0
LINE
  8
0
  6
CONTINUOUS
 62
     7
 10
-80.721191
 20
150.28789
 11
-80.721191
 21
147.92375
  0
LINE
  8
0
  6
CONTINUOUS
 62
     7
 10
-79.821198
 20
150.28789
 11
-79.821198
 21
147.92375
  0
LINE
  8
0
  6
CONTINUOUS
 62
     7
 10
-212.97118
 20
150.92375
 11
-212.97118
 21
150.10202
  0
LINE
  8
0
  6
CONTINUOUS
 62
     7
 10
-213.57118
 20
150.92375
 11
-213.57118
 21
150.10202
  0
LINE
  8
0
  6
CONTINUOUS
 62
     7
 10
-213.57118
 20
145.74548
 11
-213.57118
 21
144.92375
  0
LINE
  8
0
  6
CONTINUOUS
 62
     7
 10
-212.97118
 20
145.74548
 11
-212.97118
 21
144.92375
  0
LINE
  8
0
  6
CONTINUOUS
 62
     7
 10
-213.57118
 20
149.49983
 11
-213.57118
 21
147.92375
  0
LINE
  8
0
  6
CONTINUOUS
 62
     7
 10
-212.97118
 20
149.49983
 11
-212.97118
 21
147.92375
  0
LINE
  8
0
  6
CONTINUOUS
 62
     7
 10
-148.47118
 20
150.92375
 11
-148.47118
 21
150.10202
  0
LINE
  8
0
  6
CONTINUOUS
 62
     7
 10
-149.07118
 20
150.92375
 11
-149.07118
 21
150.10202
  0
LINE
  8
0
  6
CONTINUOUS
 62
     7
 10
-149.07118
 20
145.74548
 11
-149.07118
 21
144.92375
  0
LINE
  8
0
  6
CONTINUOUS
 62
     7
 10
-148.47118
 20
145.74548
 11
-148.47118
 21
144.92375
  0
LINE
  8
0
  6
CONTINUOUS
 62
     7
 10
-149.07118
 20
149.49983
 11
-149.07118
 21
147.92375
  0
LINE
  8
0
  6
CONTINUOUS
 62
     7
 10
-148.47118
 20
149.49983
 11
-148.47118
 21
147.92375
  0
LINE
  8
0
  6
CONTINUOUS
 62
     7
 10
-199.66301
 20
-79.751427
 11
-199.66301
 21
-81.805756
  0
LINE
  8
0
  6
CONTINUOUS
 62
     7
 10
-201.16301
 20
-79.751427
 11
-201.16301
 21
-81.805756
  0
LINE
  8
0
  6
CONTINUOUS
 62
     7
 10
-201.16301
 20
-92.697098
 11
-201.16301
 21
-94.751427
  0
LINE
  8
0
  6
CONTINUOUS
 62
     7
 10
-199.66301
 20
-92.697098
 11
-199.66301
 21
-94.751427
  0
LINE
  8
0
  6
CONTINUOUS
 62
     7
 10
-201.16301
 20
-83.311211
 11
-201.16301
 21
-87.251427
  0
LINE
  8
0
  6
CONTINUOUS
 62
     7
 10
-199.66301
 20
-83.311211
 11
-199.66301
 21
-87.251427
  0
LINE
  8
0
  6
CONTINUOUS
 62
     7
 10
-27.513006
 20
-78.251427
 11
-27.513006
 21
-80.716629
  0
LINE
  8
0
  6
CONTINUOUS
 62
     7
 10
-29.313005
 20
-78.251427
 11
-29.313005
 21
-80.716629
  0
LINE
  8
0
  6
CONTINUOUS
 62
     7
 10
-29.313005
 20
-93.786224
 11
-29.313005
 21
-96.251427
  0
LINE
  8
0
  6
CONTINUOUS
 62
     7
 10
-27.513006
 20
-93.786224
 11
-27.513006
 21
-96.251427
  0
LINE
  8
0
  6
CONTINUOUS
 62
     7
 10
-29.313005
 20
-82.52317
 11
-29.313005
 21
-87.251427
  0
LINE
  8
0
  6
CONTINUOUS
 62
     7
 10
-27.513006
 20
-82.52317
 11
-27.513006
 21
-87.251427
  0
LINE
  8
0
  6
CONTINUOUS
 62
     7
 10
170.48698
 20
-78.251427
 11
170.48698
 21
-80.716629
  0
LINE
  8
0
  6
CONTINUOUS
 62
     7
 10
168.687
 20
-78.251427
 11
168.687
 21
-80.716629
  0
LINE
  8
0
  6
CONTINUOUS
 62
     7
 10
168.687
 20
-93.786224
 11
168.687
 21
-96.251427
  0
LINE
  8
0
  6
CONTINUOUS
 62
     7
 10
170.48698
 20
-93.786224
 11
170.48698
 21
-96.251427
  0
LINE
  8
0
  6
CONTINUOUS
 62
     7
 10
168.687
 20
-82.52317
 11
168.687
 21
-87.251427
  0
LINE
  8
0
  6
CONTINUOUS
 62
     7
 10
170.48698
 20
-82.52317
 11
170.48698
 21
-87.251427
  0
LINE
  8
0
  6
CONTINUOUS
 62
     7
 10
638.64093
 20
14.492663
 11
638.64093
 21
11.205731
  0
LINE
  8
0
  6
CONTINUOUS
 62
     7
 10
636.24091
 20
14.492663
 11
636.24091
 21
11.205731
  0
LINE
  8
0
  6
CONTINUOUS
 62
     7
 10
636.24091
 20
-6.2204046
 11
636.24091
 21
-9.5073366
  0
LINE
  8
0
  6
CONTINUOUS
 62
     7
 10
638.64093
 20
-6.2204046
 11
638.64093
 21
-9.5073366
  0
LINE
  8
0
  6
CONTINUOUS
 62
     7
 10
636.24091
 20
8.7970095
 11
636.24091
 21
2.4926636
  0
LINE
  8
0
  6
CONTINUOUS
 62
     7
 10
638.64093
 20
8.7970095
 11
638.64093
 21
2.4926636
  0
LINE
  8
0
  6
CONTINUOUS
 62
     7
 10
910.64093
 20
14.492663
 11
910.64093
 21
11.205731
  0
LINE
  8
0
  6
CONTINUOUS
 62
     7
 10
908.24091
 20
14.492663
 11
908.24091
 21
11.205731
  0
LINE
  8
0
  6
CONTINUOUS
 62
     7
 10
908.24091
 20
-6.2204046
 11
908.24091
 21
-9.5073366
  0
LINE
  8
0
  6
CONTINUOUS
 62
     7
 10
910.64093
 20
-6.2204046
 11
910.64093
 21
-9.5073366
  0
LINE
  8
0
  6
CONTINUOUS
 62
     7
 10
908.24091
 20
8.7970095
 11
908.24091
 21
2.4926636
  0
LINE
  8
0
  6
CONTINUOUS
 62
     7
 10
910.64093
 20
8.7970095
 11
910.64093
 21
2.4926636
  0
ARC
  8
0
  6
CONTINUOUS
 62
     7
 10
-51.844147
 20
21.67271
 40
2.5
 50
62.964796
 51
67.585159
  0
ARC
  8
0
  6
CONTINUOUS
 62
     7
 10
-202.77118
 20
137.42375
 40
3
 50
90.000016
 51
180.00001
  0
ARC
  8
0
  6
CONTINUOUS
 62
     7
 10
-223.77118
 20
137.42375
 40
3
 50
3.5972178E-005
 51
90.000016
  0
ARC
  8
0
  6
CONTINUOUS
 62
     7
 10
-161.27118
 20
135.42375
 40
3
 50
359.99998
 51
90.000016
  0
ARC
  8
0
  6
CONTINUOUS
 62
     7
 10
-136.27118
 20
135.42375
 40
3
 50
90.000016
 51
180.00001
  0
ARC
  8
0
  6
CONTINUOUS
 62
     7
 10
-94.771202
 20
133.42375
 40
3
 50
359.99998
 51
90.000016
  0
ARC
  8
0
  6
CONTINUOUS
 62
     7
 10
-65.771202
 20
133.42375
 40
3
 50
90.000016
 51
180.00001
  0
ARC
  8
0
  6
CONTINUOUS
 62
     7
 10
-22.271187
 20
131.42375
 40
3
 50
359.99998
 51
90.000016
  0
ARC
  8
0
  6
CONTINUOUS
 62
     7
 10
10.728813
 20
131.42375
 40
3
 50
90.000016
 51
180.00001
  0
ARC
  8
0
  6
CONTINUOUS
 62
     7
 10
55.228813
 20
127.42375
 40
4
 50
359.99998
 51
90.000016
  0
ARC
  8
0
  6
CONTINUOUS
 62
     7
 10
96.228813
 20
127.42375
 40
4
 50
90.000016
 51
180.00001
  0
ARC
  8
0
  6
CONTINUOUS
 62
     7
 10
144.22882
 20
123.42375
 40
4
 50
359.99998
 51
90.000016
  0
ARC
  8
0
  6
CONTINUOUS
 62
     7
 10
193.22882
 20
123.42375
 40
4
 50
90.000016
 51
180.00001
  0
ARC
  8
0
  6
CONTINUOUS
 62
     7
 10
-194.86563
 20
23.17271
 40
6
 50
359.99998
 51
90.000016
  0
ARC
  8
0
  6
CONTINUOUS
 62
     7
 10
-132.86563
 20
23.17271
 40
6
 50
90.000016
 51
180.00001
  0
ARC
  8
0
  6
CONTINUOUS
 62
     7
 10
-61.365635
 20
77.15123
 40
2.5
 50
332.96479
 51
337.58515
  0
ARC
  8
0
  6
CONTINUOUS
 62
     7
 10
3.6343651
 20
77.15123
 40
2.5
 50
202.41487
 51
207.03524
  0
ARC
  8
0
  6
CONTINUOUS
 62
     7
 10
-62.865643
 20
20.17271
 40
6
 50
359.99998
 51
90.000016
  0
ARC
  8
0
  6
CONTINUOUS
 62
     7
 10
5.1343651
 20
20.17271
 40
6
 50
90.000016
 51
180.00001
  0
ARC
  8
0
  6
CONTINUOUS
 62
     7
 10
79.634361
 20
12.67271
 40
7
 50
359.99998
 51
90.000016
  0
ARC
  8
0
  6
CONTINUOUS
 62
     7
 10
162.63437
 20
12.67271
 40
7
 50
90.000016
 51
180.00001
  0
ARC
  8
0
  6
CONTINUOUS
 62
     7
 10
-151.41299
 20
-139.37802
 40
6
 50
179.99999
 51
234.31467
  0
ARC
  8
0
  6
CONTINUOUS
 62
     7
 10
-148.28641
 20
-38.251427
 40
6
 50
270
 51
324.31468
  0
ARC
  8
0
  6
CONTINUOUS
 62
     7
 10
-148.28641
 20
-136.25143
 40
6
 50
35.685358
 51
90.000016
  0
ARC
  8
0
  6
CONTINUOUS
 62
     7
 10
-149.41299
 20
-138.25146
 40
8
 50
90.000016
 51
180.00001
  0
ARC
  8
0
  6
CONTINUOUS
 62
     7
 10
-249.41302
 20
-139.37802
 40
6
 50
305.68533
 51
6.8301892E-006
  0
ARC
  8
0
  6
CONTINUOUS
 62
     7
 10
-252.53961
 20
-38.251427
 40
6
 50
215.68532
 51
270
  0
ARC
  8
0
  6
CONTINUOUS
 62
     7
 10
-252.53961
 20
-136.25143
 40
6
 50
89.999982
 51
144.31464
  0
ARC
  8
0
  6
CONTINUOUS
 62
     7
 10
-251.41302
 20
-138.25146
 40
8
 50
4.07111E-013
 51
89.999982
  0
ARC
  8
0
  6
CONTINUOUS
 62
     7
 10
31.086994
 20
-145.10999
 40
10
 50
179.99999
 51
225.57299
  0
ARC
  8
0
  6
CONTINUOUS
 62
     7
 10
29.445553
 20
-146.7514
 40
10
 50
44.42703
 51
90.000016
  0
ARC
  8
0
  6
CONTINUOUS
 62
     7
 10
29.445576
 20
-27.751427
 40
10
 50
270
 51
315.573
  0
ARC
  8
0
  6
CONTINUOUS
 62
     7
 10
29.086994
 20
-144.75143
 40
8
 50
90.000016
 51
180.00001
  0
ARC
  8
0
  6
CONTINUOUS
 62
     7
 10
-85.91301
 20
-144.75143
 40
8
 50
4.07111E-013
 51
89.999982
  0
ARC
  8
0
  6
CONTINUOUS
 62
     7
 10
-87.91301
 20
-145.10999
 40
10
 50
314.427
 51
3.256888E-013
  0
ARC
  8
0
  6
CONTINUOUS
 62
     7
 10
-86.271561
 20
-146.7514
 40
10
 50
89.999982
 51
135.57297
  0
ARC
  8
0
  6
CONTINUOUS
 62
     7
 10
-86.271591
 20
-27.751427
 40
10
 50
224.427
 51
270
  0
ARC
  8
0
  6
CONTINUOUS
 62
     7
 10
243.44557
 20
-13.751427
 40
10
 50
270
 51
315.573
  0
ARC
  8
0
  6
CONTINUOUS
 62
     7
 10
241.58699
 20
-31.858677
 40
3
 50
201.19801
 51
205.65016
  0
ARC
  8
0
  6
CONTINUOUS
 62
     7
 10
243.44557
 20
-160.75143
 40
10
 50
44.42703
 51
90.000016
  0
ARC
  8
0
  6
CONTINUOUS
 62
     7
 10
243.08702
 20
-161.10999
 40
10
 50
179.99999
 51
225.57298
  0
ARC
  8
0
  6
CONTINUOUS
 62
     7
 10
243.08699
 20
-160.75146
 40
10
 50
90.000016
 51
180.00001
  0
ARC
  8
0
  6
CONTINUOUS
 62
     7
 10
95.728409
 20
-13.751427
 40
10
 50
224.427
 51
270
  0
ARC
  8
0
  6
CONTINUOUS
 62
     7
 10
97.58699
 20
-31.858677
 40
3
 50
334.34984
 51
338.80199
  0
ARC
  8
0
  6
CONTINUOUS
 62
     7
 10
95.728409
 20
-160.75143
 40
10
 50
89.999982
 51
135.57297
  0
ARC
  8
0
  6
CONTINUOUS
 62
     7
 10
96.08696
 20
-161.10999
 40
10
 50
314.42701
 51
3.256888E-013
  0
ARC
  8
0
  6
CONTINUOUS
 62
     7
 10
96.08699
 20
-160.75146
 40
10
 50
3.256888E-013
 51
89.999982
  0
ARC
  8
0
  6
CONTINUOUS
 62
     7
 10
705.79797
 20
-84.007339
 40
3.5
 50
117.5532
 51
117.63284
  0
ARC
  8
0
  6
CONTINUOUS
 62
     7
 10
724.44092
 20
-84.908005
 40
10
 50
184.37707
 51
229.45836
  0
ARC
  8
0
  6
CONTINUOUS
 62
     7
 10
724.84161
 20
-84.507309
 40
10
 50
40.541568
 51
85.621776
  0
ARC
  8
0
  6
CONTINUOUS
 62
     7
 10
723.94092
 20
-65.864334
 40
3.5
 50
152.36714
 51
152.44678
  0
ARC
  8
0
  6
CONTINUOUS
 62
     7
 10
723.94092
 20
70.849693
 40
3.5
 50
207.55318
 51
207.63281
  0
ARC
  8
0
  6
CONTINUOUS
 62
     7
 10
724.84161
 20
89.492661
 40
10
 50
269.99996
 51
319.45836
  0
ARC
  8
0
  6
CONTINUOUS
 62
     7
 10
726.44092
 20
-86.507339
 40
12
 50
93.994393
 51
176.00451
  0
ARC
  8
0
  6
CONTINUOUS
 62
     7
 10
569.08386
 20
-84.007339
 40
3.5
 50
62.367168
 51
62.446808
  0
ARC
  8
0
  6
CONTINUOUS
 62
     7
 10
550.44092
 20
-84.908005
 40
10
 50
310.54163
 51
355.62293
  0
ARC
  8
0
  6
CONTINUOUS
 62
     7
 10
550.04022
 20
-84.507309
 40
10
 50
94.378222
 51
139.45843
  0
ARC
  8
0
  6
CONTINUOUS
 62
     7
 10
550.94092
 20
-65.864334
 40
3.5
 50
27.553229
 51
27.632869
  0
ARC
  8
0
  6
CONTINUOUS
 62
     7
 10
550.94092
 20
70.849686
 40
3.5
 50
332.36719
 51
332.44681
  0
ARC
  8
0
  6
CONTINUOUS
 62
     7
 10
550.04022
 20
89.492661
 40
10
 50
220.54163
 51
270.00004
  0
ARC
  8
0
  6
CONTINUOUS
 62
     7
 10
548.44092
 20
-86.507339
 40
12
 50
3.995495
 51
86.005605
  0
ARC
  8
0
  6
CONTINUOUS
 62
     7
 10
1010.4409
 20
-101.90799
 40
10
 50
181.56285
 51
229.45842
  0
ARC
  8
0
  6
CONTINUOUS
 62
     7
 10
1013.8416
 20
103.49267
 40
10
 50
270
 51
319.45842
  0
ARC
  8
0
  6
CONTINUOUS
 62
     7
 10
1013.8416
 20
-98.507324
 40
10
 50
40.541623
 51
88.420159
  0
ARC
  8
0
  6
CONTINUOUS
 62
     7
 10
1014.4409
 20
-102.50739
 40
14
 50
91.324376
 51
178.66301
  0
ARC
  8
0
  6
CONTINUOUS
 62
     7
 10
808.44092
 20
-101.90799
 40
10
 50
310.54158
 51
358.43715
  0
ARC
  8
0
  6
CONTINUOUS
 62
     7
 10
805.04028
 20
103.49267
 40
10
 50
220.54158
 51
270
  0
ARC
  8
0
  6
CONTINUOUS
 62
     7
 10
805.04028
 20
-98.507324
 40
10
 50
91.579839
 51
139.45838
  0
ARC
  8
0
  6
CONTINUOUS
 62
     7
 10
804.44098
 20
-102.50739
 40
14
 50
1.3369965
 51
88.675622
  0
ARC
  8
0
  6
CONTINUOUS
 62
     7
 10
124.13437
 20
54.17271
 40
3
 50
306.00832
 51
53.991676
  0
ARC
  8
0
  6
CONTINUOUS
 62
     7
 10
124.13437
 20
54.17271
 40
4.5
 50
306.00832
 51
53.991676
  0
ARC
  8
0
  6
CONTINUOUS
 62
     7
 10
118.13437
 20
54.17271
 40
3
 50
126.00833
 51
233.99168
  0
ARC
  8
0
  6
CONTINUOUS
 62
     7
 10
118.13437
 20
54.17271
 40
4.5
 50
126.00833
 51
233.99168
  0
ARC
  8
0
  6
CONTINUOUS
 62
     7
 10
121.13437
 20
50.044827
 40
9.6028843
 50
53.991676
 51
85.520553
  0
ARC
  8
0
  6
CONTINUOUS
 62
     7
 10
121.13437
 20
50.044827
 40
8.1028843
 50
53.991676
 51
84.689121
  0
ARC
  8
0
  6
CONTINUOUS
 62
     7
 10
121.13437
 20
58.300594
 40
8.1028843
 50
233.99167
 51
306.00832
  0
ARC
  8
0
  6
CONTINUOUS
 62
     7
 10
121.13437
 20
58.300594
 40
9.6028843
 50
233.99167
 51
265.52055
  0
ARC
  8
0
  6
CONTINUOUS
 62
     7
 10
121.13437
 20
61.11021
 40
0.9375
 50
36.869897
 51
143.1301
  0
ARC
  8
0
  6
CONTINUOUS
 62
     7
 10
121.13437
 20
54.73521
 40
0.9375
 50
216.8699
 51
323.1301
  0
ARC
  8
0
  6
CONTINUOUS
 62
     7
 10
121.13437
 20
47.23521
 40
0.9375
 50
216.8699
 51
323.1301
  0
ARC
  8
0
  6
CONTINUOUS
 62
     7
 10
121.13437
 20
50.044827
 40
9.6028843
 50
94.479452
 51
126.00833
  0
ARC
  8
0
  6
CONTINUOUS
 62
     7
 10
121.13437
 20
50.044827
 40
8.1028843
 50
95.310878
 51
126.00833
  0
ARC
  8
0
  6
CONTINUOUS
 62
     7
 10
121.13437
 20
58.300594
 40
9.6028843
 50
274.47945
 51
306.00832
  0
ARC
  8
0
  6
CONTINUOUS
 62
     7
 10
-26.465635
 20
54.17271
 40
2.4000001
 50
306.00832
 51
53.991676
  0
ARC
  8
0
  6
CONTINUOUS
 62
     7
 10
-26.465635
 20
54.17271
 40
3.5999999
 50
306.00832
 51
53.991676
  0
ARC
  8
0
  6
CONTINUOUS
 62
     7
 10
-31.265635
 20
54.17271
 40
2.4000001
 50
126.00833
 51
233.99168
  0
ARC
  8
0
  6
CONTINUOUS
 62
     7
 10
-31.265635
 20
54.17271
 40
3.5999999
 50
126.00833
 51
233.99168
  0
ARC
  8
0
  6
CONTINUOUS
 62
     7
 10
-28.865635
 20
50.870403
 40
7.6823077
 50
53.991676
 51
85.520553
  0
ARC
  8
0
  6
CONTINUOUS
 62
     7
 10
-28.865635
 20
50.870403
 40
6.4823079
 50
53.991676
 51
84.689121
  0
ARC
  8
0
  6
CONTINUOUS
 62
     7
 10
-28.865635
 20
57.475018
 40
6.4823079
 50
233.99167
 51
306.00832
  0
ARC
  8
0
  6
CONTINUOUS
 62
     7
 10
-28.865635
 20
57.475018
 40
7.6823077
 50
233.99167
 51
265.52055
  0
ARC
  8
0
  6
CONTINUOUS
 62
     7
 10
-28.865635
 20
59.72271
 40
0.75
 50
36.869897
 51
143.1301
  0
ARC
  8
0
  6
CONTINUOUS
 62
     7
 10
-28.865635
 20
54.622711
 40
0.75
 50
216.8699
 51
323.1301
  0
ARC
  8
0
  6
CONTINUOUS
 62
     7
 10
-28.865635
 20
48.622711
 40
0.75
 50
216.8699
 51
323.1301
  0
ARC
  8
0
  6
CONTINUOUS
 62
     7
 10
-28.865635
 20
50.870403
 40
6.4823079
 50
95.310878
 51
126.00833
  0
ARC
  8
0
  6
CONTINUOUS
 62
     7
 10
-28.865635
 20
50.870403
 40
7.6823077
 50
94.479452
 51
126.00833
  0
ARC
  8
0
  6
CONTINUOUS
 62
     7
 10
-28.865635
 20
57.475018
 40
7.6823077
 50
274.47945
 51
306.00832
  0
ARC
  8
0
  6
CONTINUOUS
 62
     7
 10
-161.46564
 20
54.17271
 40
2.4000001
 50
306.00832
 51
53.991676
  0
ARC
  8
0
  6
CONTINUOUS
 62
     7
 10
-161.46564
 20
54.17271
 40
3.5999999
 50
306.00832
 51
53.991676
  0
ARC
  8
0
  6
CONTINUOUS
 62
     7
 10
-166.26563
 20
54.17271
 40
2.4000001
 50
126.00833
 51
233.99168
  0
ARC
  8
0
  6
CONTINUOUS
 62
     7
 10
-166.26563
 20
54.17271
 40
3.5999999
 50
126.00833
 51
233.99168
  0
ARC
  8
0
  6
CONTINUOUS
 62
     7
 10
-163.86563
 20
50.870403
 40
7.6823077
 50
53.991676
 51
85.520553
  0
ARC
  8
0
  6
CONTINUOUS
 62
     7
 10
-163.86563
 20
50.870403
 40
6.4823079
 50
53.991676
 51
84.689121
  0
ARC
  8
0
  6
CONTINUOUS
 62
     7
 10
-163.86563
 20
57.475018
 40
6.4823079
 50
233.99167
 51
306.00832
  0
ARC
  8
0
  6
CONTINUOUS
 62
     7
 10
-163.86563
 20
57.475018
 40
7.6823077
 50
233.99167
 51
265.52055
  0
ARC
  8
0
  6
CONTINUOUS
 62
     7
 10
-163.86563
 20
59.72271
 40
0.75
 50
36.869897
 51
143.1301
  0
ARC
  8
0
  6
CONTINUOUS
 62
     7
 10
-163.86563
 20
54.622711
 40
0.75
 50
216.8699
 51
323.1301
  0
ARC
  8
0
  6
CONTINUOUS
 62
     7
 10
-163.86563
 20
48.622711
 40
0.75
 50
216.8699
 51
323.1301
  0
ARC
  8
0
  6
CONTINUOUS
 62
     7
 10
-163.86563
 20
50.870403
 40
6.4823079
 50
95.310878
 51
126.00833
  0
ARC
  8
0
  6
CONTINUOUS
 62
     7
 10
-163.86563
 20
50.870403
 40
7.6823077
 50
94.479452
 51
126.00833
  0
ARC
  8
0
  6
CONTINUOUS
 62
     7
 10
-163.86563
 20
57.475018
 40
7.6823077
 50
274.47945
 51
306.00832
  0
ARC
  8
0
  6
CONTINUOUS
 62
     7
 10
171.12881
 20
147.92375
 40
2.4000001
 50
306.00832
 51
53.991676
  0
ARC
  8
0
  6
CONTINUOUS
 62
     7
 10
171.12881
 20
147.92375
 40
3.5999999
 50
306.00832
 51
53.991676
  0
ARC
  8
0
  6
CONTINUOUS
 62
     7
 10
166.32883
 20
147.92375
 40
2.4000001
 50
126.00833
 51
233.99168
  0
ARC
  8
0
  6
CONTINUOUS
 62
     7
 10
166.32883
 20
147.92375
 40
3.5999999
 50
126.00833
 51
233.99168
  0
ARC
  8
0
  6
CONTINUOUS
 62
     7
 10
168.72882
 20
144.62144
 40
7.6823077
 50
53.991676
 51
85.520553
  0
ARC
  8
0
  6
CONTINUOUS
 62
     7
 10
168.72882
 20
144.62144
 40
6.4823079
 50
53.991676
 51
84.689121
  0
ARC
  8
0
  6
CONTINUOUS
 62
     7
 10
168.72882
 20
151.22606
 40
6.4823079
 50
233.99167
 51
306.00832
  0
ARC
  8
0
  6
CONTINUOUS
 62
     7
 10
168.72882
 20
151.22606
 40
7.6823077
 50
233.99167
 51
265.52055
  0
ARC
  8
0
  6
CONTINUOUS
 62
     7
 10
168.72882
 20
153.47375
 40
0.75
 50
36.869897
 51
143.1301
  0
ARC
  8
0
  6
CONTINUOUS
 62
     7
 10
168.72882
 20
148.37375
 40
0.75
 50
216.8699
 51
323.1301
  0
ARC
  8
0
  6
CONTINUOUS
 62
     7
 10
168.72882
 20
142.37375
 40
0.75
 50
216.8699
 51
323.1301
  0
ARC
  8
0
  6
CONTINUOUS
 62
     7
 10
168.72882
 20
144.62144
 40
6.4823079
 50
95.310878
 51
126.00833
  0
ARC
  8
0
  6
CONTINUOUS
 62
     7
 10
168.72882
 20
144.62144
 40
7.6823077
 50
94.479452
 51
126.00833
  0
ARC
  8
0
  6
CONTINUOUS
 62
     7
 10
168.72882
 20
151.22606
 40
7.6823077
 50
274.47945
 51
306.00832
  0
ARC
  8
0
  6
CONTINUOUS
 62
     7
 10
77.528824
 20
147.92375
 40
1.8
 50
306.00832
 51
53.991676
  0
ARC
  8
0
  6
CONTINUOUS
 62
     7
 10
77.528824
 20
147.92375
 40
2.7
 50
306.00832
 51
53.991676
  0
ARC
  8
0
  6
CONTINUOUS
 62
     7
 10
73.928818
 20
147.92375
 40
1.8
 50
126.00833
 51
233.99168
  0
ARC
  8
0
  6
CONTINUOUS
 62
     7
 10
73.928818
 20
147.92375
 40
2.7
 50
126.00833
 51
233.99168
  0
ARC
  8
0
  6
CONTINUOUS
 62
     7
 10
75.728821
 20
145.44702
 40
5.7617307
 50
53.991676
 51
85.520553
  0
ARC
  8
0
  6
CONTINUOUS
 62
     7
 10
75.728821
 20
145.44702
 40
4.8617306
 50
53.991676
 51
84.689121
  0
ARC
  8
0
  6
CONTINUOUS
 62
     7
 10
75.728821
 20
150.40048
 40
4.8617306
 50
233.99167
 51
306.00832
  0
ARC
  8
0
  6
CONTINUOUS
 62
     7
 10
75.728821
 20
150.40048
 40
5.7617307
 50
233.99167
 51
265.52055
  0
ARC
  8
0
  6
CONTINUOUS
 62
     7
 10
75.728821
 20
152.08626
 40
0.5625
 50
36.869897
 51
143.1301
  0
ARC
  8
0
  6
CONTINUOUS
 62
     7
 10
75.728821
 20
148.26125
 40
0.5625
 50
216.8699
 51
323.1301
  0
ARC
  8
0
  6
CONTINUOUS
 62
     7
 10
75.728821
 20
143.76125
 40
0.5625
 50
216.8699
 51
323.1301
  0
ARC
  8
0
  6
CONTINUOUS
 62
     7
 10
75.728821
 20
145.44702
 40
5.7617307
 50
94.479452
 51
126.00833
  0
ARC
  8
0
  6
CONTINUOUS
 62
     7
 10
75.728821
 20
145.44702
 40
4.8617306
 50
95.310878
 51
126.00833
  0
ARC
  8
0
  6
CONTINUOUS
 62
     7
 10
75.728821
 20
150.40048
 40
5.7617307
 50
274.47945
 51
306.00832
  0
ARC
  8
0
  6
CONTINUOUS
 62
     7
 10
-3.9711792
 20
147.92375
 40
1.8
 50
306.00832
 51
53.991676
  0
ARC
  8
0
  6
CONTINUOUS
 62
     7
 10
-3.9711792
 20
147.92375
 40
2.7
 50
306.00832
 51
53.991676
  0
ARC
  8
0
  6
CONTINUOUS
 62
     7
 10
-7.5711794
 20
147.92375
 40
1.8
 50
126.00833
 51
233.99168
  0
ARC
  8
0
  6
CONTINUOUS
 62
     7
 10
-7.5711794
 20
147.92375
 40
2.7
 50
126.00833
 51
233.99168
  0
ARC
  8
0
  6
CONTINUOUS
 62
     7
 10
-5.7711792
 20
145.44702
 40
5.7617307
 50
53.991676
 51
85.520553
  0
ARC
  8
0
  6
CONTINUOUS
 62
     7
 10
-5.7711792
 20
145.44702
 40
4.8617306
 50
53.991676
 51
84.689121
  0
ARC
  8
0
  6
CONTINUOUS
 62
     7
 10
-5.7711792
 20
150.40048
 40
4.8617306
 50
233.99167
 51
306.00832
  0
ARC
  8
0
  6
CONTINUOUS
 62
     7
 10
-5.7711792
 20
150.40048
 40
5.7617307
 50
233.99167
 51
265.52055
  0
ARC
  8
0
  6
CONTINUOUS
 62
     7
 10
-5.7711792
 20
152.08626
 40
0.5625
 50
36.869897
 51
143.1301
  0
ARC
  8
0
  6
CONTINUOUS
 62
     7
 10
-5.7711792
 20
148.26125
 40
0.5625
 50
216.8699
 51
323.1301
  0
ARC
  8
0
  6
CONTINUOUS
 62
     7
 10
-5.7711792
 20
143.76125
 40
0.5625
 50
216.8699
 51
323.1301
  0
ARC
  8
0
  6
CONTINUOUS
 62
     7
 10
-5.7711792
 20
145.44702
 40
5.7617307
 50
94.479452
 51
126.00833
  0
ARC
  8
0
  6
CONTINUOUS
 62
     7
 10
-5.7711792
 20
145.44702
 40
4.8617306
 50
95.310878
 51
126.00833
  0
ARC
  8
0
  6
CONTINUOUS
 62
     7
 10
-5.7711792
 20
150.40048
 40
5.7617307
 50
274.47945
 51
306.00832
  0
ARC
  8
0
  6
CONTINUOUS
 62
     7
 10
-78.471191
 20
147.92375
 40
1.8
 50
306.00832
 51
53.991676
  0
ARC
  8
0
  6
CONTINUOUS
 62
     7
 10
-78.471191
 20
147.92375
 40
2.7
 50
306.00832
 51
53.991676
  0
ARC
  8
0
  6
CONTINUOUS
 62
     7
 10
-82.071198
 20
147.92375
 40
1.8
 50
126.00833
 51
233.99168
  0
ARC
  8
0
  6
CONTINUOUS
 62
     7
 10
-82.071198
 20
147.92375
 40
2.7
 50
126.00833
 51
233.99168
  0
ARC
  8
0
  6
CONTINUOUS
 62
     7
 10
-80.271194
 20
145.44702
 40
5.7617307
 50
53.991676
 51
85.520553
  0
ARC
  8
0
  6
CONTINUOUS
 62
     7
 10
-80.271194
 20
145.44702
 40
4.8617306
 50
53.991676
 51
84.689121
  0
ARC
  8
0
  6
CONTINUOUS
 62
     7
 10
-80.271194
 20
150.40048
 40
4.8617306
 50
233.99167
 51
306.00832
  0
ARC
  8
0
  6
CONTINUOUS
 62
     7
 10
-80.271194
 20
150.40048
 40
5.7617307
 50
233.99167
 51
265.52055
  0
ARC
  8
0
  6
CONTINUOUS
 62
     7
 10
-80.271194
 20
152.08626
 40
0.5625
 50
36.869897
 51
143.1301
  0
ARC
  8
0
  6
CONTINUOUS
 62
     7
 10
-80.271194
 20
148.26125
 40
0.5625
 50
216.8699
 51
323.1301
  0
ARC
  8
0
  6
CONTINUOUS
 62
     7
 10
-80.271194
 20
143.76125
 40
0.5625
 50
216.8699
 51
323.1301
  0
ARC
  8
0
  6
CONTINUOUS
 62
     7
 10
-80.271194
 20
145.44702
 40
5.7617307
 50
94.479452
 51
126.00833
  0
ARC
  8
0
  6
CONTINUOUS
 62
     7
 10
-80.271194
 20
145.44702
 40
4.8617306
 50
95.310878
 51
126.00833
  0
ARC
  8
0
  6
CONTINUOUS
 62
     7
 10
-80.271194
 20
150.40048
 40
5.7617307
 50
274.47945
 51
306.00832
  0
ARC
  8
0
  6
CONTINUOUS
 62
     7
 10
-212.07118
 20
147.92375
 40
1.2
 50
306.00832
 51
53.991676
  0
ARC
  8
0
  6
CONTINUOUS
 62
     7
 10
-212.07118
 20
147.92375
 40
1.8
 50
306.00832
 51
53.991676
  0
ARC
  8
0
  6
CONTINUOUS
 62
     7
 10
-214.47118
 20
147.92375
 40
1.2
 50
126.00833
 51
233.99168
  0
ARC
  8
0
  6
CONTINUOUS
 62
     7
 10
-214.47118
 20
147.92375
 40
1.8
 50
126.00833
 51
233.99168
  0
ARC
  8
0
  6
CONTINUOUS
 62
     7
 10
-213.27118
 20
146.2726
 40
3.8411539
 50
53.991676
 51
85.520553
  0
ARC
  8
0
  6
CONTINUOUS
 62
     7
 10
-213.27118
 20
146.2726
 40
3.241154
 50
53.991676
 51
84.689121
  0
ARC
  8
0
  6
CONTINUOUS
 62
     7
 10
-213.27118
 20
149.57491
 40
3.241154
 50
233.99167
 51
306.00832
  0
ARC
  8
0
  6
CONTINUOUS
 62
     7
 10
-213.27118
 20
149.57491
 40
3.8411539
 50
233.99167
 51
265.52055
  0
ARC
  8
0
  6
CONTINUOUS
 62
     7
 10
-213.27118
 20
150.69875
 40
0.375
 50
36.869897
 51
143.1301
  0
ARC
  8
0
  6
CONTINUOUS
 62
     7
 10
-213.27118
 20
148.14876
 40
0.375
 50
216.8699
 51
323.1301
  0
ARC
  8
0
  6
CONTINUOUS
 62
     7
 10
-213.27118
 20
145.14876
 40
0.375
 50
216.8699
 51
323.1301
  0
ARC
  8
0
  6
CONTINUOUS
 62
     7
 10
-213.27118
 20
149.57491
 40
3.8411539
 50
274.47945
 51
306.00832
  0
ARC
  8
0
  6
CONTINUOUS
 62
     7
 10
-213.27118
 20
146.2726
 40
3.241154
 50
95.310878
 51
126.00833
  0
ARC
  8
0
  6
CONTINUOUS
 62
     7
 10
-213.27118
 20
146.2726
 40
3.8411539
 50
94.479452
 51
126.00833
  0
ARC
  8
0
  6
CONTINUOUS
 62
     7
 10
-147.57118
 20
147.92375
 40
1.2
 50
306.00832
 51
53.991676
  0
ARC
  8
0
  6
CONTINUOUS
 62
     7
 10
-147.57118
 20
147.92375
 40
1.8
 50
306.00832
 51
53.991676
  0
ARC
  8
0
  6
CONTINUOUS
 62
     7
 10
-149.97118
 20
147.92375
 40
1.2
 50
126.00833
 51
233.99168
  0
ARC
  8
0
  6
CONTINUOUS
 62
     7
 10
-149.97118
 20
147.92375
 40
1.8
 50
126.00833
 51
233.99168
  0
ARC
  8
0
  6
CONTINUOUS
 62
     7
 10
-148.77118
 20
146.2726
 40
3.8411539
 50
53.991676
 51
85.520553
  0
ARC
  8
0
  6
CONTINUOUS
 62
     7
 10
-148.77118
 20
146.2726
 40
3.241154
 50
53.991676
 51
84.689121
  0
ARC
  8
0
  6
CONTINUOUS
 62
     7
 10
-148.77118
 20
149.57491
 40
3.241154
 50
233.99167
 51
306.00832
  0
ARC
  8
0
  6
CONTINUOUS
 62
     7
 10
-148.77118
 20
149.57491
 40
3.8411539
 50
233.99167
 51
265.52055
  0
ARC
  8
0
  6
CONTINUOUS
 62
     7
 10
-148.77118
 20
150.69875
 40
0.375
 50
36.869897
 51
143.1301
  0
ARC
  8
0
  6
CONTINUOUS
 62
     7
 10
-148.77118
 20
148.14876
 40
0.375
 50
216.8699
 51
323.1301
  0
ARC
  8
0
  6
CONTINUOUS
 62
     7
 10
-148.77118
 20
145.14876
 40
0.375
 50
216.8699
 51
323.1301
  0
ARC
  8
0
  6
CONTINUOUS
 62
     7
 10
-148.77118
 20
149.57491
 40
3.8411539
 50
274.47945
 51
306.00832
  0
ARC
  8
0
  6
CONTINUOUS
 62
     7
 10
-148.77118
 20
146.2726
 40
3.241154
 50
95.310878
 51
126.00833
  0
ARC
  8
0
  6
CONTINUOUS
 62
     7
 10
-148.77118
 20
146.2726
 40
3.8411539
 50
94.479452
 51
126.00833
  0
ARC
  8
0
  6
CONTINUOUS
 62
     7
 10
-197.41301
 20
-87.251427
 40
3
 50
306.00832
 51
53.991676
  0
ARC
  8
0
  6
CONTINUOUS
 62
     7
 10
-197.41301
 20
-87.251427
 40
4.5
 50
306.00832
 51
53.991676
  0
ARC
  8
0
  6
CONTINUOUS
 62
     7
 10
-203.41301
 20
-87.251427
 40
3
 50
126.00833
 51
233.99168
  0
ARC
  8
0
  6
CONTINUOUS
 62
     7
 10
-203.41301
 20
-87.251427
 40
4.5
 50
126.00833
 51
233.99168
  0
ARC
  8
0
  6
CONTINUOUS
 62
     7
 10
-200.41301
 20
-91.379311
 40
9.6028843
 50
53.991676
 51
85.520553
  0
ARC
  8
0
  6
CONTINUOUS
 62
     7
 10
-200.41301
 20
-91.379311
 40
8.1028843
 50
53.991676
 51
84.689121
  0
ARC
  8
0
  6
CONTINUOUS
 62
     7
 10
-200.41301
 20
-83.123543
 40
8.1028843
 50
233.99167
 51
306.00832
  0
ARC
  8
0
  6
CONTINUOUS
 62
     7
 10
-200.41301
 20
-83.123543
 40
9.6028843
 50
233.99167
 51
265.52055
  0
ARC
  8
0
  6
CONTINUOUS
 62
     7
 10
-200.41301
 20
-80.313927
 40
0.9375
 50
36.869897
 51
143.1301
  0
ARC
  8
0
  6
CONTINUOUS
 62
     7
 10
-200.41301
 20
-86.688927
 40
0.9375
 50
216.8699
 51
323.1301
  0
ARC
  8
0
  6
CONTINUOUS
 62
     7
 10
-200.41301
 20
-94.188927
 40
0.9375
 50
216.8699
 51
323.1301
  0
ARC
  8
0
  6
CONTINUOUS
 62
     7
 10
-200.41301
 20
-91.379311
 40
9.6028843
 50
94.479452
 51
126.00833
  0
ARC
  8
0
  6
CONTINUOUS
 62
     7
 10
-200.41301
 20
-91.379311
 40
8.1028843
 50
95.310878
 51
126.00833
  0
ARC
  8
0
  6
CONTINUOUS
 62
     7
 10
-200.41301
 20
-83.123543
 40
9.6028843
 50
274.47945
 51
306.00832
  0
ARC
  8
0
  6
CONTINUOUS
 62
     7
 10
-24.813005
 20
-87.251427
 40
3.5999999
 50
306.00832
 51
53.991676
  0
ARC
  8
0
  6
CONTINUOUS
 62
     7
 10
-24.813005
 20
-87.251427
 40
5.4000001
 50
306.00832
 51
53.991676
  0
ARC
  8
0
  6
CONTINUOUS
 62
     7
 10
-32.013004
 20
-87.251427
 40
3.5999999
 50
126.00833
 51
233.99168
  0
ARC
  8
0
  6
CONTINUOUS
 62
     7
 10
-32.013004
 20
-87.251427
 40
5.4000001
 50
126.00833
 51
233.99168
  0
ARC
  8
0
  6
CONTINUOUS
 62
     7
 10
-28.413006
 20
-92.204887
 40
11.523461
 50
53.991676
 51
85.520553
  0
ARC
  8
0
  6
CONTINUOUS
 62
     7
 10
-28.413006
 20
-92.204887
 40
9.7234612
 50
53.991676
 51
84.689121
  0
ARC
  8
0
  6
CONTINUOUS
 62
     7
 10
-28.413006
 20
-82.297966
 40
9.7234612
 50
233.99167
 51
306.00832
  0
ARC
  8
0
  6
CONTINUOUS
 62
     7
 10
-28.413006
 20
-82.297966
 40
11.523461
 50
233.99167
 51
265.52055
  0
ARC
  8
0
  6
CONTINUOUS
 62
     7
 10
-28.413006
 20
-78.92643
 40
1.125
 50
36.869897
 51
143.1301
  0
ARC
  8
0
  6
CONTINUOUS
 62
     7
 10
-28.413006
 20
-86.576424
 40
1.125
 50
216.8699
 51
323.1301
  0
ARC
  8
0
  6
CONTINUOUS
 62
     7
 10
-28.413006
 20
-95.576424
 40
1.125
 50
216.8699
 51
323.1301
  0
ARC
  8
0
  6
CONTINUOUS
 62
     7
 10
-28.413006
 20
-92.204887
 40
11.523461
 50
94.479452
 51
126.00833
  0
ARC
  8
0
  6
CONTINUOUS
 62
     7
 10
-28.413006
 20
-92.204887
 40
9.7234612
 50
95.310878
 51
126.00833
  0
ARC
  8
0
  6
CONTINUOUS
 62
     7
 10
-28.413006
 20
-82.297966
 40
11.523461
 50
274.47945
 51
306.00832
  0
ARC
  8
0
  6
CONTINUOUS
 62
     7
 10
173.187
 20
-87.251427
 40
3.5999999
 50
306.00832
 51
53.991676
  0
ARC
  8
0
  6
CONTINUOUS
 62
     7
 10
173.187
 20
-87.251427
 40
5.4000001
 50
306.00832
 51
53.991676
  0
ARC
  8
0
  6
CONTINUOUS
 62
     7
 10
165.98698
 20
-87.251427
 40
3.5999999
 50
126.00833
 51
233.99168
  0
ARC
  8
0
  6
CONTINUOUS
 62
     7
 10
165.98698
 20
-87.251427
 40
5.4000001
 50
126.00833
 51
233.99168
  0
ARC
  8
0
  6
CONTINUOUS
 62
     7
 10
169.58699
 20
-92.204887
 40
11.523461
 50
53.991676
 51
85.520553
  0
ARC
  8
0
  6
CONTINUOUS
 62
     7
 10
169.58699
 20
-92.204887
 40
9.7234612
 50
53.991676
 51
84.689121
  0
ARC
  8
0
  6
CONTINUOUS
 62
     7
 10
169.58699
 20
-82.297966
 40
9.7234612
 50
233.99167
 51
306.00832
  0
ARC
  8
0
  6
CONTINUOUS
 62
     7
 10
169.58699
 20
-82.297966
 40
11.523461
 50
233.99167
 51
265.52055
  0
ARC
  8
0
  6
CONTINUOUS
 62
     7
 10
169.58699
 20
-78.92643
 40
1.125
 50
36.869897
 51
143.1301
  0
ARC
  8
0
  6
CONTINUOUS
 62
     7
 10
169.58699
 20
-86.576424
 40
1.125
 50
216.8699
 51
323.1301
  0
ARC
  8
0
  6
CONTINUOUS
 62
     7
 10
169.58699
 20
-95.576424
 40
1.125
 50
216.8699
 51
323.1301
  0
ARC
  8
0
  6
CONTINUOUS
 62
     7
 10
169.58699
 20
-92.204887
 40
11.523461
 50
94.479452
 51
126.00833
  0
ARC
  8
0
  6
CONTINUOUS
 62
     7
 10
169.58699
 20
-92.204887
 40
9.7234612
 50
95.310878
 51
126.00833
  0
ARC
  8
0
  6
CONTINUOUS
 62
     7
 10
169.58699
 20
-82.297966
 40
11.523461
 50
274.47945
 51
306.00832
  0
ARC
  8
0
  6
CONTINUOUS
 62
     7
 10
642.24091
 20
2.4926636
 40
4.8000002
 50
306.00832
 51
53.991676
  0
ARC
  8
0
  6
CONTINUOUS
 62
     7
 10
642.24091
 20
2.4926636
 40
7.1999998
 50
306.00832
 51
53.991676
  0
ARC
  8
0
  6
CONTINUOUS
 62
     7
 10
632.64093
 20
2.4926636
 40
4.8000002
 50
126.00833
 51
233.99168
  0
ARC
  8
0
  6
CONTINUOUS
 62
     7
 10
632.64093
 20
2.4926636
 40
7.1999998
 50
126.00833
 51
233.99168
  0
ARC
  8
0
  6
CONTINUOUS
 62
     7
 10
637.44092
 20
-4.1119518
 40
15.364615
 50
53.991676
 51
85.520553
  0
ARC
  8
0
  6
CONTINUOUS
 62
     7
 10
637.44092
 20
-4.1119518
 40
12.964616
 50
53.991676
 51
84.689121
  0
ARC
  8
0
  6
CONTINUOUS
 62
     7
 10
637.44092
 20
9.0972786
 40
15.364615
 50
233.99167
 51
265.52055
  0
ARC
  8
0
  6
CONTINUOUS
 62
     7
 10
637.44092
 20
13.592664
 40
1.5
 50
36.869897
 51
143.1301
  0
ARC
  8
0
  6
CONTINUOUS
 62
     7
 10
637.44092
 20
3.3926635
 40
1.5
 50
216.8699
 51
323.1301
  0
ARC
  8
0
  6
CONTINUOUS
 62
     7
 10
637.44092
 20
-8.607337
 40
1.5
 50
216.8699
 51
323.1301
  0
ARC
  8
0
  6
CONTINUOUS
 62
     7
 10
637.44092
 20
9.0972786
 40
12.964616
 50
233.99167
 51
306.00832
  0
ARC
  8
0
  6
CONTINUOUS
 62
     7
 10
637.44092
 20
9.0972786
 40
15.364615
 50
274.47945
 51
306.00832
  0
ARC
  8
0
  6
CONTINUOUS
 62
     7
 10
637.44092
 20
-4.1119518
 40
12.964616
 50
95.310878
 51
126.00833
  0
ARC
  8
0
  6
CONTINUOUS
 62
     7
 10
637.44092
 20
-4.1119518
 40
15.364615
 50
94.479452
 51
126.00833
  0
ARC
  8
0
  6
CONTINUOUS
 62
     7
 10
914.24091
 20
2.4926636
 40
4.8000002
 50
306.00832
 51
53.991676
  0
ARC
  8
0
  6
CONTINUOUS
 62
     7
 10
914.24091
 20
2.4926636
 40
7.1999998
 50
306.00832
 51
53.991676
  0
ARC
  8
0
  6
CONTINUOUS
 62
     7
 10
904.64093
 20
2.4926636
 40
4.8000002
 50
126.00833
 51
233.99168
  0
ARC
  8
0
  6
CONTINUOUS
 62
     7
 10
904.64093
 20
2.4926636
 40
7.1999998
 50
126.00833
 51
233.99168
  0
ARC
  8
0
  6
CONTINUOUS
 62
     7
 10
909.44092
 20
-4.1119518
 40
15.364615
 50
53.991676
 51
85.520553
  0
ARC
  8
0
  6
CONTINUOUS
 62
     7
 10
909.44092
 20
-4.1119518
 40
12.964616
 50
53.991676
 51
84.689121
  0
ARC
  8
0
  6
CONTINUOUS
 62
     7
 10
909.44092
 20
9.0972786
 40
15.364615
 50
233.99167
 51
265.52055
  0
ARC
  8
0
  6
CONTINUOUS
 62
     7
 10
909.44092
 20
13.592664
 40
1.5
 50
36.869897
 51
143.1301
  0
ARC
  8
0
  6
CONTINUOUS
 62
     7
 10
909.44092
 20
3.3926635
 40
1.5
 50
216.8699
 51
323.1301
  0
ARC
  8
0
  6
CONTINUOUS
 62
     7
 10
909.44092
 20
-8.607337
 40
1.5
 50
216.8699
 51
323.1301
  0
ARC
  8
0
  6
CONTINUOUS
 62
     7
 10
909.44092
 20
9.0972786
 40
12.964616
 50
233.99167
 51
306.00832
  0
ARC
  8
0
  6
CONTINUOUS
 62
     7
 10
909.44092
 20
9.0972786
 40
15.364615
 50
274.47945
 51
306.00832
  0
ARC
  8
0
  6
CONTINUOUS
 62
     7
 10
909.44092
 20
-4.1119518
 40
12.964616
 50
95.310878
 51
126.00833
  0
ARC
  8
0
  6
CONTINUOUS
 62
     7
 10
909.44092
 20
-4.1119518
 40
15.364615
 50
94.479452
 51
126.00833
  0
TEXT
  8
0
  6
CONTINUOUS
 62
     7
 10
-229.49051
 20
162.25823
 40
3.2
 41
0.85534224
  1
１／８
  0
TEXT
  8
0
  6
CONTINUOUS
 62
     7
 10
-162.94692
 20
163.87375
 40
3.2
 41
0.85534224
  1
１／４
  0
TEXT
  8
0
  6
CONTINUOUS
 62
     7
 10
-94.249303
 20
166.56628
 40
3.2
 41
0.85534224
  1
３／８
  0
TEXT
  8
0
  6
CONTINUOUS
 62
     7
 10
-18.012618
 20
167.64329
 40
3.2
 41
0.85534224
  1
１／２
  0
TEXT
  8
0
  6
CONTINUOUS
 62
     7
 10
61.993602
 20
172.48983
 40
3.2
 41
0.85534224
  1
３／４
  0
TEXT
  8
0
  6
CONTINUOUS
 62
     7
 10
156.00096
 20
175.72086
 40
3.2
 41
0.90036055
  1
１
  0
TEXT
  8
0
  6
CONTINUOUS
 62
     7
 10
-194.86991
 20
87.713507
 40
3.2
 41
0.85124966
  1
１１／４
  0
TEXT
  8
0
  6
CONTINUOUS
 62
     7
 10
-58.706273
 20
90.406035
 40
3.2
 41
0.85124966
  1
１１／２
  0
TEXT
  8
0
  6
CONTINUOUS
 62
     7
 10
94.063151
 20
95.99404
 40
3.2
 41
0.90036055
  1
２
  0
TEXT
  8
0
  6
CONTINUOUS
 62
     7
 10
-242.79743
 20
-34.680589
 40
3.2
 41
0.85124966
  1
２１／２
  0
TEXT
  8
0
  6
CONTINUOUS
 62
     7
 10
-67.398801
 20
-29.295539
 40
3.2
 41
0.90036055
  1
３
  0
TEXT
  8
0
  6
CONTINUOUS
 62
     7
 10
130.82847
 20
-17.316153
 40
3.2
 41
0.90036055
  1
４
  0
TEXT
  8
0
  6
CONTINUOUS
 62
     7
 10
748.77751
 20
181.83252
 40
10
 41
0.85534224
  1
チーズ
  0
TEXT
  8
0
  6
CONTINUOUS
 62
     7
 10
-35.222502
 20
181.83252
 40
10
 41
0.85534224
  1
チーズ
  0
TEXT
  8
0
  6
CONTINUOUS
 62
     7
 10
579.78591
 20
92.707777
 40
3.2
 41
1.0714291
  1
5
  0
TEXT
  8
0
  6
CONTINUOUS
 62
     7
 10
858.60202
 20
108.58558
 40
3.2
 41
1.0714291
  1
6
  0
ENDSEC
  0
EOF
