  0
SECTION
  2
HEADER
  9
$EXTMAX
 10
419.77344
 20
297.87869
  9
$EXTMIN
 10
-422.15918
 20
-295.73526
  0
ENDSEC
  0
SECTION
  2
TABLES
  0
TABLE
  2
LTYPE
 70
    22
  0
LTYPE
  2
CONTINUOUS
 70
    64
  3
Solid line
 72
    65
 73
     0
 40
0.000000
  0
LTYPE
  2
DASHED
 70
    64
  3
__ __ __ __ __ __ __ __ __ __ __ __ __ __ __
 72
    65
 73
     2
 40
3.500000
 49
2.000000
 49
-1.500000
  0
LTYPE
  2
CENTER
 70
    64
  3
____ _ ____ _ ____ _ ____ _ ____ _ ____ _ ____
 72
    65
 73
     4
 40
17.500000
 49
13.000000
 49
-1.500000
 49
1.500000
 49
-1.500000
  0
LTYPE
  2
PHANTOM
 70
    64
  3
_____ _ _ _____ _ _ _____ _ _ _____ _ _ ____  
 72
    65
 73
     6
 40
15.500000
 49
8.000000
 49
-1.500000
 49
1.500000
 49
-1.500000
 49
1.500000
 49
-1.500000
  0
LTYPE
  2
DOT
 70
    64
  3
. . . . . . . . . . . . . . . . . . . . . . . .
 72
    65
 73
     2
 40
0.25
 49
0.0
 49
-0.25
  0
ENDTAB
  0
TABLE
  2
LAYER
 70
     1
  0
LAYER
  2
0
 70
     0
 62
     7
  6
CONTINUOUS
  0
ENDTAB
  0
TABLE
  2
STYLE
 70
     1
  0
STYLE
  2
STANDARD
 70
     0
 40
0.000000
 41
1.000000
 50
0.000000
 71
     0
 42
0.200000
  3
txt
  4
BIGFONT
  0
ENDTAB
  0
TABLE
  2
VIEW
 70
     0
  0
ENDTAB
  0
ENDSEC
  0
SECTION
  2
BLOCKS
  0
ENDSEC
  0
SECTION
  2
ENTITIES
  0
POINT
  8
0
  6
CONTINUOUS
 62
     7
 10
-301.92764
 20
198.6158
  0
POINT
  8
0
  6
CONTINUOUS
 62
     7
 10
-221.42691
 20
198.6158
  0
POINT
  8
0
  6
CONTINUOUS
 62
     7
 10
-144.43047
 20
198.6158
  0
POINT
  8
0
  6
CONTINUOUS
 62
     7
 10
-54.679123
 20
198.6158
  0
POINT
  8
0
  6
CONTINUOUS
 62
     7
 10
41.075005
 20
198.6158
  0
POINT
  8
0
  6
CONTINUOUS
 62
     7
 10
149.32088
 20
198.6158
  0
POINT
  8
0
  6
CONTINUOUS
 62
     7
 10
279.23352
 20
198.6158
  0
POINT
  8
0
  6
CONTINUOUS
 62
     7
 10
249.88351
 20
49.990906
  0
POINT
  8
0
  6
CONTINUOUS
 62
     7
 10
50.882294
 20
49.990906
  0
POINT
  8
0
  6
CONTINUOUS
 62
     7
 10
-133.09612
 20
49.990906
  0
POINT
  8
0
  6
CONTINUOUS
 62
     7
 10
-301.93671
 20
49.990906
  0
POINT
  8
0
  6
CONTINUOUS
 62
     7
 10
-283.36081
 20
-152.52614
  0
POINT
  8
0
  6
CONTINUOUS
 62
     7
 10
50.882294
 20
49.990906
  0
POINT
  8
0
  6
CONTINUOUS
 62
     7
 10
249.88351
 20
49.990906
  0
POINT
  8
0
  6
CONTINUOUS
 62
     7
 10
-283.36081
 20
-152.52614
  0
POINT
  8
0
  6
CONTINUOUS
 62
     7
 10
-133.09612
 20
49.990906
  0
POINT
  8
0
  6
CONTINUOUS
 62
     7
 10
-301.93671
 20
49.990906
  0
POINT
  8
0
  6
CONTINUOUS
 62
     7
 10
279.23352
 20
198.6158
  0
POINT
  8
0
  6
CONTINUOUS
 62
     7
 10
149.32088
 20
198.6158
  0
POINT
  8
0
  6
CONTINUOUS
 62
     7
 10
41.075005
 20
198.6158
  0
POINT
  8
0
  6
CONTINUOUS
 62
     7
 10
-54.679123
 20
198.6158
  0
POINT
  8
0
  6
CONTINUOUS
 62
     7
 10
-144.43047
 20
198.6158
  0
POINT
  8
0
  6
CONTINUOUS
 62
     7
 10
-221.42691
 20
198.6158
  0
POINT
  8
0
  6
CONTINUOUS
 62
     7
 10
-301.92764
 20
198.6158
  0
LINE
  8
0
  6
CONTINUOUS
 62
     3
 10
408.61798
 20
-328.86087
 11
408.61798
 21
-902.8609
  0
LINE
  8
0
  6
CONTINUOUS
 62
     3
 10
-412.38202
 20
-328.86087
 11
408.61798
 21
-328.86087
  0
LINE
  8
0
  6
CONTINUOUS
 62
     3
 10
-412.38202
 20
-328.86087
 11
-412.38202
 21
-902.8609
  0
LINE
  8
0
  6
CONTINUOUS
 62
     3
 10
-412.38202
 20
-902.8609
 11
408.61798
 21
-902.8609
  0
LINE
  8
0
  6
CONTINUOUS
 62
     3
 10
1300.3185
 20
-328.86087
 11
1300.3185
 21
-902.8609
  0
LINE
  8
0
  6
CONTINUOUS
 62
     3
 10
479.31839
 20
-328.86087
 11
1300.3185
 21
-328.86087
  0
LINE
  8
0
  6
CONTINUOUS
 62
     3
 10
479.31839
 20
-328.86087
 11
479.31839
 21
-902.8609
  0
LINE
  8
0
  6
CONTINUOUS
 62
     3
 10
479.31839
 20
-902.8609
 11
1300.3185
 21
-902.8609
  0
LINE
  8
0
  6
CONTINUOUS
 62
     3
 10
410.5
 20
287
 11
410.5
 21
-287
  0
LINE
  8
0
  6
CONTINUOUS
 62
     3
 10
-410.5
 20
287
 11
410.5
 21
287
  0
LINE
  8
0
  6
CONTINUOUS
 62
     3
 10
-410.5
 20
287
 11
-410.5
 21
-287
  0
LINE
  8
0
  6
CONTINUOUS
 62
     3
 10
-410.5
 20
-287
 11
410.5
 21
-287
  0
LINE
  8
0
  6
CONTINUOUS
 62
     3
 10
1302.2004
 20
287
 11
1302.2004
 21
-287
  0
LINE
  8
0
  6
CONTINUOUS
 62
     3
 10
481.20041
 20
287
 11
1302.2004
 21
287
  0
LINE
  8
0
  6
CONTINUOUS
 62
     3
 10
481.20041
 20
287
 11
481.20041
 21
-287
  0
LINE
  8
0
  6
CONTINUOUS
 62
     3
 10
481.20041
 20
-287
 11
1302.2004
 21
-287
  0
LINE
  8
0
  6
CENTER
 62
     7
 10
-301.92764
 20
198.6158
 11
-301.92764
 21
178.7283
  0
LINE
  8
0
  6
CONTINUOUS
 62
     7
 10
-294.42764
 20
191.1158
 11
-294.42764
 21
189.21388
  0
LINE
  8
0
  6
CENTER
 62
     7
 10
-301.92764
 20
198.6158
 11
-273.55109
 21
198.6158
  0
LINE
  8
0
  6
CONTINUOUS
 62
     7
 10
-295.42764
 20
203.1158
 11
-286.28931
 21
203.1158
  0
LINE
  8
0
  6
CONTINUOUS
 62
     7
 10
-291.42764
 20
194.1158
 11
-286.28931
 21
194.1158
  0
LINE
  8
0
  6
CONTINUOUS
 62
     7
 10
-310.92764
 20
186.6158
 11
-310.92764
 21
181.6158
  0
LINE
  8
0
  6
CONTINUOUS
 62
     7
 10
-292.92764
 20
186.6158
 11
-292.92764
 21
181.6158
  0
LINE
  8
0
  6
CONTINUOUS
 62
     7
 10
-275.92767
 20
194.71582
 11
-276.79471
 21
193.84877
  0
LINE
  8
0
  6
CONTINUOUS
 62
     7
 10
-276.78809
 20
203.38263
 11
-275.92764
 21
202.46666
  0
LINE
  8
0
  6
CONTINUOUS
 62
     7
 10
-310.92764
 20
186.6158
 11
-292.92764
 21
186.6158
  0
LINE
  8
0
  6
CONTINUOUS
 62
     7
 10
-275.92764
 20
202.46666
 11
-275.92764
 21
194.71588
  0
LINE
  8
0
  6
CONTINUOUS
 62
     7
 10
-284.61395
 20
203.62718
 11
-284.61395
 21
193.6044
  0
LINE
  8
0
  6
CONTINUOUS
 62
     7
 10
-286.84143
 20
194.1158
 11
-276.2258
 21
194.44753
  0
LINE
  8
0
  6
CONTINUOUS
 62
     7
 10
-284.61395
 20
193.6044
 11
-276.79471
 21
193.84875
  0
LINE
  8
0
  6
CENTER
 62
     7
 10
-221.42691
 20
198.6158
 11
-221.42691
 21
176.61597
  0
LINE
  8
0
  6
CONTINUOUS
 62
     7
 10
-211.92691
 20
188.6158
 11
-211.92691
 21
187.21387
  0
LINE
  8
0
  6
CONTINUOUS
 62
     7
 10
-230.92691
 20
190.1158
 11
-230.92691
 21
187.21387
  0
LINE
  8
0
  6
CENTER
 62
     7
 10
-221.42691
 20
198.6158
 11
-189.0144
 21
198.6158
  0
LINE
  8
0
  6
CONTINUOUS
 62
     7
 10
-216.42691
 20
204.6158
 11
-206.01039
 21
204.6158
  0
LINE
  8
0
  6
CONTINUOUS
 62
     7
 10
-207.92691
 20
192.6158
 11
-206.01039
 21
192.6158
  0
LINE
  8
0
  6
CONTINUOUS
 62
     7
 10
-232.42691
 20
184.6158
 11
-232.42691
 21
179.6158
  0
LINE
  8
0
  6
CONTINUOUS
 62
     7
 10
-210.42691
 20
184.6158
 11
-210.42691
 21
179.6158
  0
LINE
  8
0
  6
CONTINUOUS
 62
     7
 10
-192.73946
 20
205.0475
 11
-191.4269
 21
203.65025
  0
LINE
  8
0
  6
CONTINUOUS
 62
     7
 10
-192.73947
 20
192.1841
 11
-191.42691
 21
193.58133
  0
LINE
  8
0
  6
CONTINUOUS
 62
     7
 10
-203.989
 20
191.83255
 11
-192.73946
 21
192.1841
  0
LINE
  8
0
  6
CONTINUOUS
 62
     7
 10
-191.42691
 20
203.65027
 11
-191.42691
 21
193.58133
  0
LINE
  8
0
  6
CONTINUOUS
 62
     7
 10
-192.73946
 20
205.0475
 11
-192.73946
 21
192.1841
  0
LINE
  8
0
  6
CONTINUOUS
 62
     7
 10
-203.989
 20
205.39905
 11
-203.989
 21
191.83255
  0
LINE
  8
0
  6
CONTINUOUS
 62
     7
 10
-232.42691
 20
184.6158
 11
-210.42691
 21
184.6158
  0
LINE
  8
0
  6
CONTINUOUS
 62
     7
 10
-276.78809
 20
203.38263
 11
-276.78809
 21
193.84895
  0
LINE
  8
0
  6
CENTER
 62
     7
 10
-144.43047
 20
198.6158
 11
-144.43047
 21
171.6158
  0
LINE
  8
0
  6
CONTINUOUS
 62
     7
 10
-132.93045
 20
187.6158
 11
-132.93045
 21
183.21387
  0
LINE
  8
0
  6
CONTINUOUS
 62
     7
 10
-155.93045
 20
187.1158
 11
-155.93045
 21
183.21387
  0
LINE
  8
0
  6
CENTER
 62
     7
 10
-144.43047
 20
198.6158
 11
-107.27369
 21
198.6158
  0
LINE
  8
0
  6
CONTINUOUS
 62
     7
 10
-137.43045
 20
205.6158
 11
-125.62264
 21
205.6158
  0
LINE
  8
0
  6
CONTINUOUS
 62
     7
 10
-111.18652
 20
206.80325
 11
-109.43046
 21
204.9339
  0
LINE
  8
0
  6
CONTINUOUS
 62
     7
 10
-128.93045
 20
191.6158
 11
-125.62264
 21
191.6158
  0
LINE
  8
0
  6
CONTINUOUS
 62
     7
 10
-131.43047
 20
180.6158
 11
-131.43047
 21
175.6158
  0
LINE
  8
0
  6
CONTINUOUS
 62
     7
 10
-157.43047
 20
180.6158
 11
-157.43047
 21
175.6158
  0
LINE
  8
0
  6
CONTINUOUS
 62
     7
 10
-109.43046
 20
204.93388
 11
-109.43046
 21
192.2977
  0
LINE
  8
0
  6
CONTINUOUS
 62
     7
 10
-157.43047
 20
180.6158
 11
-131.43047
 21
180.6158
  0
LINE
  8
0
  6
CONTINUOUS
 62
     7
 10
-203.989
 20
205.39906
 11
-192.73946
 21
205.04752
  0
LINE
  8
0
  6
CONTINUOUS
 62
     7
 10
-122.02644
 20
190.0896
 11
-111.18651
 21
190.42834
  0
LINE
  8
0
  6
CONTINUOUS
 62
     7
 10
-111.18651
 20
190.42836
 11
-109.43045
 21
192.29771
  0
LINE
  8
0
  6
CONTINUOUS
 62
     7
 10
-122.02644
 20
207.142
 11
-122.02644
 21
190.08961
  0
LINE
  8
0
  6
CONTINUOUS
 62
     7
 10
-111.18651
 20
206.80324
 11
-111.18651
 21
190.42836
  0
LINE
  8
0
  6
CENTER
 62
     7
 10
-54.679123
 20
198.6158
 11
-54.679123
 21
168.44005
  0
LINE
  8
0
  6
CONTINUOUS
 62
     7
 10
-41.179108
 20
185.6158
 11
-41.179108
 21
180.21387
  0
LINE
  8
0
  6
CONTINUOUS
 62
     7
 10
-68.179123
 20
183.6158
 11
-68.179123
 21
180.21387
  0
LINE
  8
0
  6
CONTINUOUS
 62
     7
 10
-43.679123
 20
185.6158
 11
-43.679123
 21
185.6158
  0
LINE
  8
0
  6
CENTER
 62
     7
 10
-54.679123
 20
198.6158
 11
-11.747944
 21
198.6158
  0
LINE
  8
0
  6
CONTINUOUS
 62
     7
 10
-44.179123
 20
207.6158
 11
-33.991058
 21
207.6158
  0
LINE
  8
0
  6
CONTINUOUS
 62
     7
 10
-37.179108
 20
189.6158
 11
-33.991058
 21
189.6158
  0
LINE
  8
0
  6
CONTINUOUS
 62
     7
 10
-69.679123
 20
177.6158
 11
-69.679123
 21
171.6158
  0
LINE
  8
0
  6
CONTINUOUS
 62
     7
 10
-39.679123
 20
177.6158
 11
-39.679123
 21
171.6158
  0
LINE
  8
0
  6
CONTINUOUS
 62
     7
 10
-16.9252
 20
208.90848
 11
-14.67913
 21
206.5175
  0
LINE
  8
0
  6
CONTINUOUS
 62
     7
 10
-14.679123
 20
206.51752
 11
-14.679123
 21
190.71407
  0
LINE
  8
0
  6
CONTINUOUS
 62
     7
 10
-30.227383
 20
187.90741
 11
-16.925194
 21
188.3231
  0
LINE
  8
0
  6
CONTINUOUS
 62
     7
 10
-16.9252
 20
188.3231
 11
-14.67912
 21
190.7141
  0
LINE
  8
0
  6
CONTINUOUS
 62
     7
 10
-30.227383
 20
209.32419
 11
-30.227383
 21
187.90741
  0
LINE
  8
0
  6
CONTINUOUS
 62
     7
 10
-16.925194
 20
208.90849
 11
-16.925194
 21
188.3231
  0
LINE
  8
0
  6
CONTINUOUS
 62
     7
 10
-69.679123
 20
177.6158
 11
-39.679123
 21
177.6158
  0
LINE
  8
0
  6
CONTINUOUS
 62
     7
 10
-69.679123
 20
171.6158
 11
-39.679123
 21
171.6158
  0
LINE
  8
0
  6
CENTER
 62
     7
 10
41.075005
 20
198.6158
 11
41.075005
 21
162.4158
  0
LINE
  8
0
  6
CONTINUOUS
 62
     7
 10
57.57502
 20
181.6158
 11
57.57502
 21
175.21388
  0
LINE
  8
0
  6
CONTINUOUS
 62
     7
 10
24.575012
 20
180.6158
 11
24.575012
 21
175.21388
  0
LINE
  8
0
  6
CENTER
 62
     7
 10
41.075005
 20
198.6158
 11
92.350304
 21
198.6158
  0
LINE
  8
0
  6
CONTINUOUS
 62
     7
 10
54.57502
 20
210.6158
 11
66.911591
 21
210.6158
  0
LINE
  8
0
  6
CONTINUOUS
 62
     7
 10
62.57502
 20
186.6158
 11
66.911591
 21
186.6158
  0
LINE
  8
0
  6
CONTINUOUS
 62
     7
 10
23.074997
 20
172.6158
 11
23.074997
 21
166.6158
  0
LINE
  8
0
  6
CONTINUOUS
 62
     7
 10
59.075005
 20
172.6158
 11
59.075005
 21
166.6158
  0
LINE
  8
0
  6
CONTINUOUS
 62
     7
 10
85.828758
 20
211.60867
 11
88.075012
 21
209.2175
  0
LINE
  8
0
  6
CONTINUOUS
 62
     7
 10
23.074997
 20
172.6158
 11
59.075005
 21
172.6158
  0
LINE
  8
0
  6
CONTINUOUS
 62
     7
 10
23.074997
 20
166.6158
 11
59.075005
 21
166.6158
  0
LINE
  8
0
  6
CONTINUOUS
 62
     7
 10
88.075005
 20
209.21751
 11
88.075005
 21
188.01408
  0
LINE
  8
0
  6
CONTINUOUS
 62
     7
 10
-30.227383
 20
209.32419
 11
-16.925194
 21
208.90849
  0
LINE
  8
0
  6
CONTINUOUS
 62
     7
 10
70.455925
 20
185.14253
 11
85.828758
 21
185.62292
  0
LINE
  8
0
  6
CONTINUOUS
 62
     7
 10
85.828758
 20
185.62292
 11
88.075005
 21
188.01408
  0
LINE
  8
0
  6
CONTINUOUS
 62
     7
 10
85.828758
 20
211.60869
 11
85.828758
 21
185.62291
  0
LINE
  8
0
  6
CONTINUOUS
 62
     7
 10
70.455917
 20
212.08908
 11
70.455917
 21
185.14252
  0
LINE
  8
0
  6
CENTER
 62
     7
 10
149.32088
 20
198.6158
 11
149.32088
 21
156.4158
  0
LINE
  8
0
  6
CONTINUOUS
 62
     7
 10
169.82089
 20
178.6158
 11
169.82089
 21
170.21388
  0
LINE
  8
0
  6
CONTINUOUS
 62
     7
 10
128.82089
 20
176.6158
 11
128.82089
 21
170.21388
  0
LINE
  8
0
  6
CENTER
 62
     7
 10
149.32088
 20
198.6158
 11
207.06354
 21
198.6158
  0
LINE
  8
0
  6
CONTINUOUS
 62
     7
 10
165.82089
 20
213.6158
 11
179.93796
 21
213.6158
  0
LINE
  8
0
  6
CONTINUOUS
 62
     7
 10
174.82089
 20
183.6158
 11
179.93796
 21
183.6158
  0
LINE
  8
0
  6
CONTINUOUS
 62
     7
 10
127.32088
 20
167.6158
 11
127.32088
 21
160.6158
  0
LINE
  8
0
  6
CONTINUOUS
 62
     7
 10
171.32088
 20
167.6158
 11
171.32088
 21
160.6158
  0
LINE
  8
0
  6
CONTINUOUS
 62
     7
 10
200.99998
 20
214.98814
 11
203.32088
 21
212.51752
  0
LINE
  8
0
  6
CONTINUOUS
 62
     7
 10
-31.634153
 20
208.20615
 11
-15.800619
 21
207.71135
  0
LINE
  8
0
  6
CONTINUOUS
 62
     7
 10
183.86707
 20
181.70805
 11
200.99998
 21
182.24347
  0
LINE
  8
0
  6
CONTINUOUS
 62
     7
 10
200.99997
 20
182.24345
 11
203.32086
 21
184.71408
  0
LINE
  8
0
  6
CONTINUOUS
 62
     7
 10
183.86708
 20
215.52354
 11
183.86708
 21
181.70805
  0
LINE
  8
0
  6
CONTINUOUS
 62
     7
 10
200.99998
 20
214.98814
 11
200.99998
 21
182.24345
  0
LINE
  8
0
  6
CONTINUOUS
 62
     7
 10
127.32088
 20
167.6158
 11
171.32088
 21
167.6158
  0
LINE
  8
0
  6
CONTINUOUS
 62
     7
 10
127.32088
 20
160.6158
 11
171.32088
 21
160.6158
  0
LINE
  8
0
  6
CONTINUOUS
 62
     7
 10
182.08496
 20
214.10023
 11
202.43138
 21
213.46442
  0
LINE
  8
0
  6
CENTER
 62
     7
 10
344.23349
 20
198.6158
 11
279.23352
 21
198.6158
  0
LINE
  8
0
  6
CENTER
 62
     7
 10
279.23352
 20
198.6158
 11
279.23352
 21
133.6158
  0
LINE
  8
0
  6
CONTINUOUS
 62
     7
 10
-157.43047
 20
175.6158
 11
-131.43047
 21
175.6158
  0
LINE
  8
0
  6
CONTINUOUS
 62
     7
 10
-232.42691
 20
179.6158
 11
-210.42691
 21
179.6158
  0
LINE
  8
0
  6
CONTINUOUS
 62
     7
 10
-310.92764
 20
181.6158
 11
-292.92764
 21
181.6158
  0
LINE
  8
0
  6
CONTINUOUS
 62
     7
 10
341.23349
 20
217.00955
 11
341.23349
 21
180.22205
  0
LINE
  8
0
  6
CONTINUOUS
 62
     7
 10
315.00262
 20
179.1158
 11
310.23352
 21
179.1158
  0
LINE
  8
0
  6
CONTINUOUS
 62
     7
 10
315.00262
 20
218.1158
 11
299.23352
 21
218.1158
  0
LINE
  8
0
  6
CONTINUOUS
 62
     7
 10
305.73352
 20
152.6158
 11
252.73352
 21
152.6158
  0
LINE
  8
0
  6
CONTINUOUS
 62
     7
 10
254.23352
 20
173.1158
 11
254.23352
 21
163.21387
  0
LINE
  8
0
  6
CONTINUOUS
 62
     7
 10
304.23352
 20
173.1158
 11
304.23352
 21
163.21387
  0
LINE
  8
0
  6
CONTINUOUS
 62
     7
 10
-286.8414
 20
203.1158
 11
-276.2258
 21
202.78406
  0
LINE
  8
0
  6
CONTINUOUS
 62
     7
 10
-284.61395
 20
203.62718
 11
-276.78809
 21
203.38263
  0
LINE
  8
0
  6
CONTINUOUS
 62
     7
 10
338.99933
 20
219.24376
 11
341.23352
 21
217.00955
  0
LINE
  8
0
  6
CONTINUOUS
 62
     7
 10
319.23352
 20
177.37018
 11
338.9993
 21
177.98785
  0
LINE
  8
0
  6
CONTINUOUS
 62
     7
 10
338.99933
 20
177.98787
 11
341.23349
 21
180.22206
  0
LINE
  8
0
  6
CONTINUOUS
 62
     7
 10
319.23352
 20
219.86142
 11
319.23352
 21
177.37018
  0
LINE
  8
0
  6
CONTINUOUS
 62
     7
 10
338.9993
 20
219.24374
 11
338.9993
 21
177.98785
  0
LINE
  8
0
  6
CONTINUOUS
 62
     7
 10
252.73352
 20
160.6158
 11
252.73352
 21
152.6158
  0
LINE
  8
0
  6
CONTINUOUS
 62
     7
 10
305.73352
 20
160.6158
 11
252.73352
 21
160.6158
  0
LINE
  8
0
  6
CONTINUOUS
 62
     7
 10
305.73352
 20
160.6158
 11
305.73352
 21
152.6158
  0
LINE
  8
0
  6
CENTER
 62
     7
 10
-301.93671
 20
49.990906
 11
-301.93671
 21
-3.93962
  0
LINE
  8
0
  6
CENTER
 62
     7
 10
-301.93671
 20
49.990906
 11
-231.93669
 21
49.990906
  0
LINE
  8
0
  6
CONTINUOUS
 62
     7
 10
-233.93669
 20
70.900284
 11
-233.93669
 21
29.081535
  0
LINE
  8
0
  6
CONTINUOUS
 62
     7
 10
-280.43671
 20
71.990906
 11
-260.57352
 21
71.990906
  0
LINE
  8
0
  6
CONTINUOUS
 62
     7
 10
-267.93671
 20
27.990906
 11
-260.57352
 21
27.990906
  0
LINE
  8
0
  6
CONTINUOUS
 62
     7
 10
-273.93671
 20
21.990906
 11
-273.93671
 21
14.455009
  0
LINE
  8
0
  6
CONTINUOUS
 62
     7
 10
-329.93671
 20
22.490906
 11
-329.93671
 21
14.455009
  0
LINE
  8
0
  6
CONTINUOUS
 62
     7
 10
-331.93671
 20
1.9909096
 11
-271.93671
 21
1.9909096
  0
LINE
  8
0
  6
CONTINUOUS
 62
     7
 10
319.23349
 20
219.86142
 11
338.99933
 21
219.24374
  0
LINE
  8
0
  6
CONTINUOUS
 62
     7
 10
-236.61566
 20
73.579247
 11
-233.93669
 21
70.900276
  0
LINE
  8
0
  6
CONTINUOUS
 62
     7
 10
-255.93669
 20
74.183029
 11
-255.93669
 21
25.798782
  0
LINE
  8
0
  6
CONTINUOUS
 62
     7
 10
-255.93669
 20
25.798784
 11
-236.61566
 21
26.402567
  0
LINE
  8
0
  6
CONTINUOUS
 62
     7
 10
-236.61568
 20
26.402567
 11
-233.93671
 21
29.081535
  0
LINE
  8
0
  6
CONTINUOUS
 62
     7
 10
-236.61566
 20
26.402565
 11
-236.61566
 21
73.579254
  0
LINE
  8
0
  6
CONTINUOUS
 62
     7
 10
-331.93671
 20
10.990906
 11
-331.93671
 21
1.9909096
  0
LINE
  8
0
  6
CONTINUOUS
 62
     7
 10
-331.93671
 20
10.990906
 11
-271.93671
 21
10.990906
  0
LINE
  8
0
  6
CONTINUOUS
 62
     7
 10
-271.93671
 20
10.990906
 11
-271.93671
 21
1.9909096
  0
LINE
  8
0
  6
CENTER
 62
     7
 10
-133.09612
 20
49.990906
 11
-133.09612
 21
-17.658976
  0
LINE
  8
0
  6
CENTER
 62
     7
 10
-133.09612
 20
49.990906
 11
-46.142109
 21
49.990906
  0
LINE
  8
0
  6
CONTINUOUS
 62
     7
 10
-54.096123
 20
77.484665
 11
-54.096123
 21
22.497162
  0
LINE
  8
0
  6
CONTINUOUS
 62
     7
 10
-105.59612
 20
77.990906
 11
-85.117805
 21
77.990906
  0
LINE
  8
0
  6
CONTINUOUS
 62
     7
 10
-92.596123
 20
21.990906
 11
-85.117805
 21
21.990906
  0
LINE
  8
0
  6
CONTINUOUS
 62
     7
 10
-98.596115
 20
15.990906
 11
-98.596115
 21
7.4550095
  0
LINE
  8
0
  6
CONTINUOUS
 62
     7
 10
-167.59612
 20
15.990906
 11
-167.59612
 21
7.4550095
  0
LINE
  8
0
  6
CONTINUOUS
 62
     7
 10
-169.59612
 20
-7.0090904
 11
-96.596115
 21
-7.0090904
  0
LINE
  8
0
  6
CONTINUOUS
 62
     7
 10
-80.096115
 20
80.114151
 11
-55.971733
 21
79.360268
  0
LINE
  8
0
  6
CONTINUOUS
 62
     7
 10
-55.971733
 20
79.360268
 11
-54.096123
 21
77.484657
  0
LINE
  8
0
  6
CONTINUOUS
 62
     7
 10
-80.096123
 20
19.867657
 11
-55.971729
 21
20.621544
  0
LINE
  8
0
  6
CONTINUOUS
 62
     7
 10
-55.971729
 20
20.621548
 11
-54.096119
 21
22.497156
  0
LINE
  8
0
  6
CONTINUOUS
 62
     7
 10
-80.096123
 20
19.867661
 11
-80.096123
 21
80.114166
  0
LINE
  8
0
  6
CONTINUOUS
 62
     7
 10
-55.971733
 20
79.360275
 11
-55.971733
 21
20.621544
  0
LINE
  8
0
  6
CONTINUOUS
 62
     7
 10
-96.596115
 20
3.9909096
 11
-96.596115
 21
-7.0090904
  0
LINE
  8
0
  6
CONTINUOUS
 62
     7
 10
-169.59612
 20
3.9909096
 11
-169.59612
 21
-7.0090904
  0
LINE
  8
0
  6
CONTINUOUS
 62
     7
 10
-169.59612
 20
3.9909096
 11
-96.596115
 21
3.9909096
  0
LINE
  8
0
  6
CENTER
 62
     7
 10
50.882294
 20
49.990906
 11
50.882294
 21
-27.006227
  0
LINE
  8
0
  6
CENTER
 62
     7
 10
50.882294
 20
49.990906
 11
150.88229
 21
49.990906
  0
LINE
  8
0
  6
CONTINUOUS
 62
     7
 10
142.88229
 20
84.515915
 11
142.88229
 21
15.465912
  0
LINE
  8
0
  6
CONTINUOUS
 62
     7
 10
86.382294
 20
85.990906
 11
107.39667
 21
85.990906
  0
LINE
  8
0
  6
CONTINUOUS
 62
     7
 10
99.882294
 20
13.990906
 11
107.39667
 21
13.990906
  0
LINE
  8
0
  6
CONTINUOUS
 62
     7
 10
5.3822937
 20
-19.00909
 11
96.382294
 21
-19.00909
  0
LINE
  8
0
  6
CONTINUOUS
 62
     7
 10
93.882294
 20
7.9909058
 11
93.882294
 21
-2.6789627
  0
LINE
  8
0
  6
CONTINUOUS
 62
     7
 10
7.8822937
 20
7.4909058
 11
7.8822937
 21
-2.6789627
  0
LINE
  8
0
  6
CONTINUOUS
 62
     7
 10
96.382294
 20
-7.0090904
 11
96.382294
 21
-19.00909
  0
LINE
  8
0
  6
CONTINUOUS
 62
     7
 10
5.3822937
 20
-7.0090904
 11
5.3822937
 21
-19.00909
  0
LINE
  8
0
  6
CONTINUOUS
 62
     7
 10
5.3822937
 20
-7.0090904
 11
96.382294
 21
-7.0090904
  0
LINE
  8
0
  6
CONTINUOUS
 62
     7
 10
183.86707
 20
215.52354
 11
200.99997
 21
214.98813
  0
LINE
  8
0
  6
CONTINUOUS
 62
     7
 10
140.27959
 20
87.118622
 11
142.88229
 21
84.515915
  0
LINE
  8
0
  6
CONTINUOUS
 62
     7
 10
111.88229
 20
88.006027
 11
111.88229
 21
11.975784
  0
LINE
  8
0
  6
CONTINUOUS
 62
     7
 10
110.00146
 20
13.396006
 11
141.80627
 21
14.389906
  0
LINE
  8
0
  6
CONTINUOUS
 62
     7
 10
111.88228
 20
11.975784
 11
140.27959
 21
12.8632
  0
LINE
  8
0
  6
CONTINUOUS
 62
     7
 10
140.27957
 20
12.863192
 11
142.88228
 21
15.4659
  0
LINE
  8
0
  6
CONTINUOUS
 62
     7
 10
140.27957
 20
87.118622
 11
140.27957
 21
12.863197
  0
LINE
  8
0
  6
CONTINUOUS
 62
     7
 10
-199.66806
 20
-96.961784
 11
-158.75601
 21
-98.24028
  0
LINE
  8
0
  6
CONTINUOUS
 62
     7
 10
-82.055298
 20
78.696381
 11
-54.445019
 21
77.833565
  0
LINE
  8
0
  6
CONTINUOUS
 62
     7
 10
316.98486
 20
218.4527
 11
340.52603
 21
217.71704
  0
LINE
  8
0
  6
CONTINUOUS
 62
     7
 10
-255.93669
 20
74.183029
 11
-236.61566
 21
73.579254
  0
LINE
  8
0
  6
CONTINUOUS
 62
     7
 10
319.67828
 20
219.84752
 11
338.99933
 21
219.24374
  0
LINE
  8
0
  6
CONTINUOUS
 62
     7
 10
-257.63943
 20
72.757248
 11
-235.08896
 21
72.052551
  0
LINE
  8
0
  6
CONTINUOUS
 62
     7
 10
68.783318
 20
210.97935
 11
86.953354
 21
210.41154
  0
LINE
  8
0
  6
CONTINUOUS
 62
     7
 10
-206.31686
 20
204.61581
 11
-191.91101
 21
204.16563
  0
LINE
  8
0
  6
CONTINUOUS
 62
     7
 10
-122.02643
 20
207.14198
 11
-111.18652
 21
206.80324
  0
LINE
  8
0
  6
CONTINUOUS
 62
     7
 10
-123.06664
 20
206.3185
 11
-110.35807
 21
205.92136
  0
LINE
  8
0
  6
CONTINUOUS
 62
     7
 10
-206.31685
 20
192.6158
 11
-191.91103
 21
193.06599
  0
LINE
  8
0
  6
CONTINUOUS
 62
     7
 10
-123.06663
 20
190.91309
 11
-110.35806
 21
191.31023
  0
LINE
  8
0
  6
CONTINUOUS
 62
     7
 10
-31.634155
 20
189.02544
 11
-15.800619
 21
189.52023
  0
LINE
  8
0
  6
CONTINUOUS
 62
     7
 10
70.455917
 20
212.0891
 11
85.828758
 21
211.60869
  0
LINE
  8
0
  6
CONTINUOUS
 62
     7
 10
68.783318
 20
186.25224
 11
86.953354
 21
186.82005
  0
LINE
  8
0
  6
CONTINUOUS
 62
     7
 10
182.08496
 20
183.13136
 11
202.43137
 21
183.76718
  0
LINE
  8
0
  6
CONTINUOUS
 62
     7
 10
316.98486
 20
178.77892
 11
340.526
 21
179.51457
  0
LINE
  8
0
  6
CONTINUOUS
 62
     7
 10
-257.63947
 20
27.224573
 11
-235.08896
 21
27.929277
  0
LINE
  8
0
  6
CONTINUOUS
 62
     7
 10
-82.055298
 20
21.285433
 11
-54.445026
 21
22.148254
  0
LINE
  8
0
  6
CONTINUOUS
 62
     7
 10
111.8823
 20
88.006035
 11
140.27957
 21
87.118622
  0
LINE
  8
0
  6
CONTINUOUS
 62
     7
 10
110.00145
 20
86.585815
 11
141.80629
 21
85.591919
  0
LINE
  8
0
  6
CENTER
 62
     7
 10
374.81647
 20
49.990906
 11
249.88351
 21
49.990906
  0
LINE
  8
0
  6
CENTER
 62
     7
 10
249.88351
 20
49.990906
 11
249.88351
 21
-50.009098
  0
LINE
  8
0
  6
CONTINUOUS
 62
     7
 10
353.88351
 20
90.281532
 11
353.88351
 21
9.7002811
  0
LINE
  8
0
  6
CONTINUOUS
 62
     7
 10
302.38351
 20
-28.009098
 11
197.38351
 21
-28.009098
  0
LINE
  8
0
  6
CONTINUOUS
 62
     7
 10
312.1489
 20
91.990906
 11
292.38351
 21
91.990906
  0
LINE
  8
0
  6
CONTINUOUS
 62
     7
 10
312.1489
 20
7.9909019
 11
307.38351
 21
7.9909019
  0
LINE
  8
0
  6
CONTINUOUS
 62
     7
 10
200.38351
 20
-0.009098053
 11
200.38351
 21
-7.8676643
  0
LINE
  8
0
  6
CONTINUOUS
 62
     7
 10
299.38351
 20
-0.009098053
 11
299.38351
 21
-8.7640953
  0
LINE
  8
0
  6
CONTINUOUS
 62
     7
 10
302.38351
 20
-15.009098
 11
302.38351
 21
-28.009098
  0
LINE
  8
0
  6
CONTINUOUS
 62
     7
 10
197.38351
 20
-15.009098
 11
197.38351
 21
-28.009098
  0
LINE
  8
0
  6
CONTINUOUS
 62
     7
 10
302.38351
 20
-15.009098
 11
197.38351
 21
-15.009098
  0
LINE
  8
0
  6
CONTINUOUS
 62
     7
 10
350.78015
 20
93.38488
 11
353.88351
 21
90.281525
  0
LINE
  8
0
  6
CONTINUOUS
 62
     7
 10
317.88351
 20
94.412903
 11
317.88351
 21
5.5689058
  0
LINE
  8
0
  6
CONTINUOUS
 62
     7
 10
316.0239
 20
6.9897919
 11
352.30685
 21
8.1236353
  0
LINE
  8
0
  6
CONTINUOUS
 62
     7
 10
317.88354
 20
5.5689063
 11
350.78015
 21
6.5969257
  0
LINE
  8
0
  6
CONTINUOUS
 62
     7
 10
350.78015
 20
6.59693
 11
353.88351
 21
9.7002754
  0
LINE
  8
0
  6
CONTINUOUS
 62
     7
 10
350.78015
 20
6.5969257
 11
350.78015
 21
93.384888
  0
LINE
  8
0
  6
CENTER
 62
     7
 10
-148.20808
 20
-152.52614
 11
-283.36081
 21
-152.52614
  0
LINE
  8
0
  6
CENTER
 62
     7
 10
-283.36081
 20
-152.52614
 11
-283.36081
 21
-259.02917
  0
LINE
  8
0
  6
CONTINUOUS
 62
     7
 10
-216.86079
 20
-249.52614
 11
-349.86081
 21
-249.52614
  0
LINE
  8
0
  6
CONTINUOUS
 62
     7
 10
-202.61952
 20
-207.52614
 11
-209.86079
 21
-207.52614
  0
LINE
  8
0
  6
CONTINUOUS
 62
     7
 10
-202.61952
 20
-97.526138
 11
-226.86079
 21
-97.526138
  0
LINE
  8
0
  6
CONTINUOUS
 62
     7
 10
-346.86081
 20
-217.52614
 11
-346.86081
 21
-226.3847
  0
LINE
  8
0
  6
CONTINUOUS
 62
     7
 10
-219.86079
 20
-217.52614
 11
-219.86079
 21
-226.3847
  0
LINE
  8
0
  6
CONTINUOUS
 62
     7
 10
317.88351
 20
94.412903
 11
350.78018
 21
93.384888
  0
LINE
  8
0
  6
CONTINUOUS
 62
     7
 10
316.0239
 20
92.99202
 11
352.30688
 21
91.858177
  0
LINE
  8
0
  6
CONTINUOUS
 62
     7
 10
-197.36079
 20
-95.554886
 11
-160.28273
 21
-96.71357
  0
LINE
  8
0
  6
CONTINUOUS
 62
     7
 10
-160.28273
 20
-96.713577
 11
-157.01889
 21
-99.977425
  0
LINE
  8
0
  6
CONTINUOUS
 62
     7
 10
-197.36079
 20
-95.554886
 11
-197.36079
 21
-209.49739
  0
LINE
  8
0
  6
CONTINUOUS
 62
     7
 10
-199.66805
 20
-208.09048
 11
-158.75601
 21
-206.81198
  0
LINE
  8
0
  6
CONTINUOUS
 62
     7
 10
-197.36079
 20
-209.49739
 11
-160.28273
 21
-208.3387
  0
LINE
  8
0
  6
CONTINUOUS
 62
     7
 10
-160.28275
 20
-208.3387
 11
-157.01889
 21
-205.07486
  0
LINE
  8
0
  6
CONTINUOUS
 62
     7
 10
-160.28273
 20
-96.713577
 11
-160.28273
 21
-208.3387
  0
LINE
  8
0
  6
CONTINUOUS
 62
     7
 10
-157.01889
 20
-99.977425
 11
-157.01889
 21
-205.07484
  0
LINE
  8
0
  6
CONTINUOUS
 62
     7
 10
-349.86081
 20
-233.52614
 11
-349.86081
 21
-249.52614
  0
LINE
  8
0
  6
CONTINUOUS
 62
     7
 10
-216.86079
 20
-233.52614
 11
-216.86079
 21
-249.52614
  0
LINE
  8
0
  6
CONTINUOUS
 62
     7
 10
-216.86079
 20
-233.52614
 11
-349.86081
 21
-233.52614
  0
LINE
  8
0
  6
CONTINUOUS
 62
     7
 10
203.32088
 20
212.51752
 11
203.32088
 21
184.71408
  0
LINE
  8
0
  6
CONTINUOUS
 62
     7
 10
34.563896
 20
-731.03625
 11
34.922462
 21
-731.03625
  0
LINE
  8
0
  6
CONTINUOUS
 62
     7
 10
26.563894
 20
-739.03625
 11
26.563894
 21
-739.39484
  0
LINE
  8
0
  6
CONTINUOUS
 62
     7
 10
240.5639
 20
-745.03625
 11
240.92247
 21
-745.03625
  0
LINE
  8
0
  6
CONTINUOUS
 62
     7
 10
151.50681
 20
197.27838
 11
152.66891
 21
196.11627
  0
LINE
  8
0
  6
CONTINUOUS
 62
     7
 10
150.65828
 20
196.42986
 11
151.82039
 21
195.26775
  0
LINE
  8
0
  6
CONTINUOUS
 62
     7
 10
157.98146
 20
189.10667
 11
159.14357
 21
187.94456
  0
LINE
  8
0
  6
CONTINUOUS
 62
     7
 10
158.82999
 20
189.9552
 11
159.9921
 21
188.79309
  0
LINE
  8
0
  6
CONTINUOUS
 62
     7
 10
152.672
 20
194.41614
 11
154.90092
 21
192.18721
  0
LINE
  8
0
  6
CONTINUOUS
 62
     7
 10
153.52052
 20
195.26466
 11
155.74945
 21
193.03574
  0
LINE
  8
0
  6
CONTINUOUS
 62
     7
 10
282.73749
 20
195.96039
 11
283.8996
 21
194.79828
  0
LINE
  8
0
  6
CONTINUOUS
 62
     7
 10
281.88895
 20
195.11185
 11
283.05106
 21
193.94974
  0
LINE
  8
0
  6
CONTINUOUS
 62
     7
 10
289.21213
 20
187.78868
 11
290.37424
 21
186.62657
  0
LINE
  8
0
  6
CONTINUOUS
 62
     7
 10
290.06064
 20
188.63722
 11
291.22275
 21
187.47511
  0
LINE
  8
0
  6
CONTINUOUS
 62
     7
 10
283.90268
 20
193.09813
 11
286.13159
 21
190.86922
  0
LINE
  8
0
  6
CONTINUOUS
 62
     7
 10
284.75119
 20
193.94667
 11
286.9801
 21
191.71776
  0
LINE
  8
0
  6
CONTINUOUS
 62
     7
 10
-297.55408
 20
46.456806
 11
-296.39197
 21
45.294689
  0
LINE
  8
0
  6
CONTINUOUS
 62
     7
 10
-298.40259
 20
45.60828
 11
-297.24048
 21
44.446163
  0
LINE
  8
0
  6
CONTINUOUS
 62
     7
 10
-291.07944
 20
38.285103
 11
-289.91733
 21
37.122997
  0
LINE
  8
0
  6
CONTINUOUS
 62
     7
 10
-290.2309
 20
39.133629
 11
-289.06879
 21
37.971523
  0
LINE
  8
0
  6
CONTINUOUS
 62
     7
 10
-296.38889
 20
43.594551
 11
-294.15997
 21
41.365639
  0
LINE
  8
0
  6
CONTINUOUS
 62
     7
 10
-295.54034
 20
44.443077
 11
-293.31143
 21
42.214165
  0
LINE
  8
0
  6
CONTINUOUS
 62
     7
 10
258.65417
 20
42.493053
 11
260.39734
 21
40.749889
  0
LINE
  8
0
  6
CONTINUOUS
 62
     7
 10
257.38138
 20
41.220261
 11
259.12454
 21
39.477093
  0
LINE
  8
0
  6
CONTINUOUS
 62
     7
 10
268.36612
 20
30.235493
 11
270.10928
 21
28.492338
  0
LINE
  8
0
  6
CONTINUOUS
 62
     7
 10
269.63892
 20
31.508287
 11
271.38208
 21
29.765133
  0
LINE
  8
0
  6
CONTINUOUS
 62
     7
 10
260.40195
 20
38.19968
 11
263.74533
 21
34.8563
  0
LINE
  8
0
  6
CONTINUOUS
 62
     7
 10
261.67474
 20
39.472477
 11
265.01813
 21
36.129093
  0
LINE
  8
0
  6
CONTINUOUS
 62
     7
 10
-270.48965
 20
-164.1245
 11
-268.74649
 21
-165.86766
  0
LINE
  8
0
  6
CONTINUOUS
 62
     7
 10
-271.76245
 20
-165.39729
 11
-270.01929
 21
-167.14047
  0
LINE
  8
0
  6
CONTINUOUS
 62
     7
 10
-260.77768
 20
-176.38206
 11
-259.03452
 21
-178.12523
  0
LINE
  8
0
  6
CONTINUOUS
 62
     7
 10
-259.50488
 20
-175.10927
 11
-257.76172
 21
-176.85242
  0
LINE
  8
0
  6
CONTINUOUS
 62
     7
 10
-268.74188
 20
-168.41788
 11
-265.3985
 21
-171.76126
  0
LINE
  8
0
  6
CONTINUOUS
 62
     7
 10
-267.46906
 20
-167.14508
 11
-264.12567
 21
-170.48845
  0
LINE
  8
0
  6
CONTINUOUS
 62
     7
 10
-127.76427
 20
45.719719
 11
-126.31165
 21
44.267086
  0
LINE
  8
0
  6
CONTINUOUS
 62
     7
 10
-128.82494
 20
44.659058
 11
-127.37231
 21
43.206429
  0
LINE
  8
0
  6
CONTINUOUS
 62
     7
 10
-119.67097
 20
35.505089
 11
-118.21833
 21
34.052456
  0
LINE
  8
0
  6
CONTINUOUS
 62
     7
 10
-118.61031
 20
36.56575
 11
-117.15768
 21
35.113117
  0
LINE
  8
0
  6
CONTINUOUS
 62
     7
 10
-126.30779
 20
42.141911
 11
-123.52164
 21
39.355755
  0
LINE
  8
0
  6
CONTINUOUS
 62
     7
 10
-125.24712
 20
43.202568
 11
-122.46098
 21
40.416416
  0
LINE
  8
0
  6
CONTINUOUS
 62
     7
 10
43.043961
 20
197.28325
 11
43.915543
 21
196.41167
  0
LINE
  8
0
  6
CONTINUOUS
 62
     7
 10
42.40757
 20
196.64685
 11
43.279152
 21
195.77527
  0
LINE
  8
0
  6
CONTINUOUS
 62
     7
 10
47.899952
 20
191.15446
 11
48.77153
 21
190.2829
  0
LINE
  8
0
  6
CONTINUOUS
 62
     7
 10
48.536343
 20
191.79086
 11
49.407921
 21
190.91928
  0
LINE
  8
0
  6
CONTINUOUS
 62
     7
 10
43.917858
 20
195.13657
 11
45.58955
 21
193.46487
  0
LINE
  8
0
  6
CONTINUOUS
 62
     7
 10
44.554249
 20
195.77295
 11
46.225941
 21
194.10126
  0
LINE
  8
0
  6
CONTINUOUS
 62
     7
 10
-143.92598
 20
198.74771
 11
-143.0544
 21
197.87613
  0
LINE
  8
0
  6
CONTINUOUS
 62
     7
 10
-144.56238
 20
198.11131
 11
-143.69078
 21
197.23973
  0
LINE
  8
0
  6
CONTINUOUS
 62
     7
 10
-139.06999
 20
192.61893
 11
-138.19841
 21
191.74734
  0
LINE
  8
0
  6
CONTINUOUS
 62
     7
 10
-138.43359
 20
193.25533
 11
-137.56201
 21
192.38374
  0
LINE
  8
0
  6
CONTINUOUS
 62
     7
 10
-143.05209
 20
196.60103
 11
-141.38039
 21
194.92934
  0
LINE
  8
0
  6
CONTINUOUS
 62
     7
 10
-142.4157
 20
197.23743
 11
-140.74399
 21
195.56573
  0
LINE
  8
0
  6
CONTINUOUS
 62
     7
 10
-53.588852
 20
198.16193
 11
-52.717266
 21
197.29034
  0
LINE
  8
0
  6
CONTINUOUS
 62
     7
 10
-54.225246
 20
197.52553
 11
-53.353664
 21
196.65395
  0
LINE
  8
0
  6
CONTINUOUS
 62
     7
 10
-48.732861
 20
192.03314
 11
-47.861286
 21
191.16156
  0
LINE
  8
0
  6
CONTINUOUS
 62
     7
 10
-48.096462
 20
192.66954
 11
-47.224888
 21
191.79796
  0
LINE
  8
0
  6
CONTINUOUS
 62
     7
 10
-52.714954
 20
196.01523
 11
-51.043266
 21
194.34355
  0
LINE
  8
0
  6
CONTINUOUS
 62
     7
 10
-52.078556
 20
196.65163
 11
-50.406872
 21
194.97993
  0
LINE
  8
0
  6
CONTINUOUS
 62
     7
 10
56.214138
 20
45.719723
 11
57.666775
 21
44.26709
  0
LINE
  8
0
  6
CONTINUOUS
 62
     7
 10
55.153477
 20
44.659065
 11
56.606113
 21
43.206429
  0
LINE
  8
0
  6
CONTINUOUS
 62
     7
 10
64.307449
 20
35.505093
 11
65.760086
 21
34.05246
  0
LINE
  8
0
  6
CONTINUOUS
 62
     7
 10
65.368111
 20
36.565754
 11
66.82074
 21
35.113121
  0
LINE
  8
0
  6
CONTINUOUS
 62
     7
 10
57.670631
 20
42.141911
 11
60.456779
 21
39.355762
  0
LINE
  8
0
  6
CONTINUOUS
 62
     7
 10
58.731293
 20
43.202572
 11
61.517441
 21
40.416424
  0
LINE
  8
0
  6
CONTINUOUS
 62
     7
 10
-220.5536
 20
198.16676
 11
-219.97255
 21
197.58571
  0
LINE
  8
0
  6
CONTINUOUS
 62
     7
 10
-220.97787
 20
197.74249
 11
-220.39682
 21
197.16144
  0
LINE
  8
0
  6
CONTINUOUS
 62
     7
 10
-217.31627
 20
194.0809
 11
-216.73523
 21
193.49986
  0
LINE
  8
0
  6
CONTINUOUS
 62
     7
 10
-216.89201
 20
194.50516
 11
-216.31097
 21
193.92412
  0
LINE
  8
0
  6
CONTINUOUS
 62
     7
 10
-219.97101
 20
196.73564
 11
-218.85655
 21
195.62119
  0
LINE
  8
0
  6
CONTINUOUS
 62
     7
 10
-219.54675
 20
197.1599
 11
-218.4323
 21
196.04544
  0
LINE
  8
0
  6
CONTINUOUS
 62
     7
 10
-301.64014
 20
198.75255
 11
-301.05905
 21
198.17149
  0
LINE
  8
0
  6
CONTINUOUS
 62
     7
 10
-302.06439
 20
198.32829
 11
-301.48334
 21
197.74722
  0
LINE
  8
0
  6
CONTINUOUS
 62
     7
 10
-298.4028
 20
194.66669
 11
-297.82175
 21
194.08565
  0
LINE
  8
0
  6
CONTINUOUS
 62
     7
 10
-297.97852
 20
195.09096
 11
-297.39749
 21
194.5099
  0
LINE
  8
0
  6
CONTINUOUS
 62
     7
 10
-301.05753
 20
197.32143
 11
-299.94305
 21
196.20697
  0
LINE
  8
0
  6
CONTINUOUS
 62
     7
 10
-300.63327
 20
197.74568
 11
-299.5188
 21
196.63123
  0
ARC
  8
0
  6
CONTINUOUS
 62
     7
 10
-286.28931
 20
206.1158
 40
3
 50
270
 51
303.94888
  0
ARC
  8
0
  6
CONTINUOUS
 62
     7
 10
-286.28931
 20
191.1158
 40
3
 50
56.051124
 51
90.000003
  0
ARC
  8
0
  6
CONTINUOUS
 62
     7
 10
-291.42764
 20
191.1158
 40
3
 50
90.000003
 51
180.00001
  0
ARC
  8
0
  6
CONTINUOUS
 62
     7
 10
-295.42764
 20
189.1158
 40
14
 50
90.000003
 51
180.00001
  0
ARC
  8
0
  6
CONTINUOUS
 62
     7
 10
-312.42764
 20
189.21388
 40
3
 50
300
 51
0
  0
ARC
  8
0
  6
CONTINUOUS
 62
     7
 10
-291.42764
 20
189.21388
 40
3
 50
179.99999
 51
240.00001
  0
ARC
  8
0
  6
CONTINUOUS
 62
     7
 10
-206.01039
 20
207.6158
 40
3
 50
270
 51
312.36086
  0
ARC
  8
0
  6
CONTINUOUS
 62
     7
 10
-207.92691
 20
188.6158
 40
4
 50
90.000003
 51
180.00001
  0
ARC
  8
0
  6
CONTINUOUS
 62
     7
 10
-216.42691
 20
190.1158
 40
14.5
 50
90.000003
 51
180.00001
  0
ARC
  8
0
  6
CONTINUOUS
 62
     7
 10
-233.92691
 20
187.21387
 40
3
 50
300
 51
0
  0
ARC
  8
0
  6
CONTINUOUS
 62
     7
 10
-208.92691
 20
187.21387
 40
3
 50
179.99999
 51
240.00001
  0
ARC
  8
0
  6
CONTINUOUS
 62
     7
 10
-206.01039
 20
189.6158
 40
3
 50
47.639135
 51
90.000003
  0
ARC
  8
0
  6
CONTINUOUS
 62
     7
 10
-125.62264
 20
210.6158
 40
5
 50
270
 51
315.99177
  0
ARC
  8
0
  6
CONTINUOUS
 62
     7
 10
-128.93045
 20
187.6158
 40
4
 50
90.000003
 51
180.00001
  0
ARC
  8
0
  6
CONTINUOUS
 62
     7
 10
-137.43045
 20
187.1158
 40
18.5
 50
90.000003
 51
180.00001
  0
ARC
  8
0
  6
CONTINUOUS
 62
     7
 10
-129.93045
 20
183.21387
 40
3
 50
180.00001
 51
239.99966
  0
ARC
  8
0
  6
CONTINUOUS
 62
     7
 10
-158.93048
 20
183.21387
 40
3
 50
300.00034
 51
0
  0
ARC
  8
0
  6
CONTINUOUS
 62
     7
 10
-125.62264
 20
186.6158
 40
5
 50
44.008227
 51
90.000003
  0
ARC
  8
0
  6
CONTINUOUS
 62
     7
 10
-33.991058
 20
212.6158
 40
5
 50
270
 51
318.82787
  0
ARC
  8
0
  6
CONTINUOUS
 62
     7
 10
-71.179123
 20
180.21387
 40
3
 50
300
 51
0
  0
ARC
  8
0
  6
CONTINUOUS
 62
     7
 10
-38.179123
 20
180.21387
 40
3
 50
180.00001
 51
240.00001
  0
ARC
  8
0
  6
CONTINUOUS
 62
     7
 10
-44.179123
 20
183.6158
 40
24
 50
90.000003
 51
180.00001
  0
ARC
  8
0
  6
CONTINUOUS
 62
     7
 10
-37.179108
 20
185.6158
 40
4
 50
90.000003
 51
180.00001
  0
ARC
  8
0
  6
CONTINUOUS
 62
     7
 10
-33.991058
 20
184.6158
 40
5
 50
41.172128
 51
90.000003
  0
ARC
  8
0
  6
CONTINUOUS
 62
     7
 10
62.57502
 20
181.6158
 40
5
 50
90.000003
 51
180.00001
  0
ARC
  8
0
  6
CONTINUOUS
 62
     7
 10
54.57502
 20
180.6158
 40
30
 50
90.000003
 51
180.00001
  0
ARC
  8
0
  6
CONTINUOUS
 62
     7
 10
21.575012
 20
175.21388
 40
3
 50
299.99966
 51
0
  0
ARC
  8
0
  6
CONTINUOUS
 62
     7
 10
60.574989
 20
175.21388
 40
3
 50
179.99999
 51
240.00033
  0
ARC
  8
0
  6
CONTINUOUS
 62
     7
 10
66.911591
 20
215.6158
 40
5
 50
270
 51
315.14272
  0
ARC
  8
0
  6
CONTINUOUS
 62
     7
 10
66.911591
 20
181.6158
 40
5
 50
44.857278
 51
90.000003
  0
ARC
  8
0
  6
CONTINUOUS
 62
     7
 10
179.93796
 20
218.6158
 40
5
 50
270
 51
321.79688
  0
ARC
  8
0
  6
CONTINUOUS
 62
     7
 10
165.82089
 20
176.6158
 40
37
 50
90.000003
 51
180.00001
  0
ARC
  8
0
  6
CONTINUOUS
 62
     7
 10
174.82089
 20
178.6158
 40
5
 50
90.000003
 51
180.00001
  0
ARC
  8
0
  6
CONTINUOUS
 62
     7
 10
125.82089
 20
170.21388
 40
3
 50
299.99966
 51
0
  0
ARC
  8
0
  6
CONTINUOUS
 62
     7
 10
172.82086
 20
170.21388
 40
3
 50
180.00001
 51
240.00034
  0
ARC
  8
0
  6
CONTINUOUS
 62
     7
 10
179.93796
 20
178.6158
 40
5
 50
38.203123
 51
90.000003
  0
ARC
  8
0
  6
CONTINUOUS
 62
     7
 10
299.23352
 20
173.1158
 40
45
 50
90.000003
 51
180.00001
  0
ARC
  8
0
  6
CONTINUOUS
 62
     7
 10
310.23352
 20
173.1158
 40
6
 50
90.000003
 51
180.00001
  0
ARC
  8
0
  6
CONTINUOUS
 62
     7
 10
315.00262
 20
224.1158
 40
6
 50
270
 51
314.84131
  0
ARC
  8
0
  6
CONTINUOUS
 62
     7
 10
315.00262
 20
173.1158
 40
6
 50
45.15869
 51
90.000003
  0
ARC
  8
0
  6
CONTINUOUS
 62
     7
 10
251.23352
 20
163.21387
 40
3
 50
300
 51
0
  0
ARC
  8
0
  6
CONTINUOUS
 62
     7
 10
307.23352
 20
163.21387
 40
3
 50
180.00001
 51
240.00001
  0
ARC
  8
0
  6
CONTINUOUS
 62
     7
 10
-280.43671
 20
22.490906
 40
49.5
 50
90.000003
 51
180.00001
  0
ARC
  8
0
  6
CONTINUOUS
 62
     7
 10
-267.93671
 20
21.990906
 40
6
 50
90.000003
 51
180.00001
  0
ARC
  8
0
  6
CONTINUOUS
 62
     7
 10
-260.57352
 20
77.990906
 40
6
 50
270
 51
320.60627
  0
ARC
  8
0
  6
CONTINUOUS
 62
     7
 10
-260.57352
 20
21.990906
 40
6
 50
39.393721
 51
90.000003
  0
ARC
  8
0
  6
CONTINUOUS
 62
     7
 10
-333.93671
 20
14.455009
 40
4
 50
300
 51
360
  0
ARC
  8
0
  6
CONTINUOUS
 62
     7
 10
-269.93671
 20
14.455009
 40
4
 50
180.00001
 51
240.00001
  0
ARC
  8
0
  6
CONTINUOUS
 62
     7
 10
-105.59612
 20
15.990906
 40
62
 50
90.000003
 51
180.00001
  0
ARC
  8
0
  6
CONTINUOUS
 62
     7
 10
-92.596123
 20
15.990906
 40
6
 50
90.000003
 51
180.00001
  0
ARC
  8
0
  6
CONTINUOUS
 62
     7
 10
-85.117805
 20
84.990906
 40
7
 50
270
 51
315.83888
  0
ARC
  8
0
  6
CONTINUOUS
 62
     7
 10
-85.117805
 20
14.990906
 40
7
 50
44.161128
 51
90.000003
  0
ARC
  8
0
  6
CONTINUOUS
 62
     7
 10
-171.59612
 20
7.4550095
 40
4
 50
300
 51
360
  0
ARC
  8
0
  6
CONTINUOUS
 62
     7
 10
-94.596123
 20
7.4550095
 40
4
 50
180.00001
 51
240.00001
  0
ARC
  8
0
  6
CONTINUOUS
 62
     7
 10
86.382294
 20
7.4909058
 40
78.5
 50
90.000003
 51
180.00001
  0
ARC
  8
0
  6
CONTINUOUS
 62
     7
 10
99.882294
 20
7.9909058
 40
6
 50
90.000003
 51
180.00001
  0
ARC
  8
0
  6
CONTINUOUS
 62
     7
 10
2.8822937
 20
-2.6789627
 40
5
 50
300
 51
360
  0
ARC
  8
0
  6
CONTINUOUS
 62
     7
 10
98.882294
 20
-2.6789627
 40
5
 50
180.00001
 51
240.00001
  0
ARC
  8
0
  6
CONTINUOUS
 62
     7
 10
107.39667
 20
91.990906
 40
6
 50
270
 51
318.38318
  0
ARC
  8
0
  6
CONTINUOUS
 62
     7
 10
107.39667
 20
7.9909058
 40
6
 50
41.616831
 51
90.000003
  0
ARC
  8
0
  6
CONTINUOUS
 62
     7
 10
292.38351
 20
-0.009098053
 40
92
 50
90.000003
 51
180.00001
  0
ARC
  8
0
  6
CONTINUOUS
 62
     7
 10
307.38351
 20
-0.009098053
 40
8
 50
90.000003
 51
180.00001
  0
ARC
  8
0
  6
CONTINUOUS
 62
     7
 10
190.38351
 20
-7.8676643
 40
10
 50
314.427
 51
360
  0
ARC
  8
0
  6
CONTINUOUS
 62
     7
 10
307.38351
 20
-8.7640953
 40
8
 50
180.00001
 51
231.31783
  0
ARC
  8
0
  6
CONTINUOUS
 62
     7
 10
312.1489
 20
99.990906
 40
8
 50
270
 51
315.79323
  0
ARC
  8
0
  6
CONTINUOUS
 62
     7
 10
312.1489
 20
-0.0090923309
 40
8
 50
44.206767
 51
90.000003
  0
ARC
  8
0
  6
CONTINUOUS
 62
     7
 10
-226.86079
 20
-217.52614
 40
120
 50
90.000003
 51
180.00001
  0
ARC
  8
0
  6
CONTINUOUS
 62
     7
 10
-209.86079
 20
-217.52614
 40
10
 50
90.000003
 51
180.00001
  0
ARC
  8
0
  6
CONTINUOUS
 62
     7
 10
-202.61952
 20
-89.526138
 40
8
 50
270
 51
311.09736
  0
ARC
  8
0
  6
CONTINUOUS
 62
     7
 10
-202.61952
 20
-215.52614
 40
8
 50
48.902645
 51
90.000003
  0
ARC
  8
0
  6
CONTINUOUS
 62
     7
 10
-356.86081
 20
-226.3847
 40
10
 50
314.427
 51
0
  0
ARC
  8
0
  6
CONTINUOUS
 62
     7
 10
-209.86079
 20
-226.3847
 40
10
 50
179.99999
 51
225.57299
  0
ARC
  8
0
  6
CONTINUOUS
 62
     7
 10
157.02225
 20
194.30853
 40
2.4000001
 50
351.00832
 51
98.991673
  0
ARC
  8
0
  6
CONTINUOUS
 62
     7
 10
157.02225
 20
194.30853
 40
3.5999999
 50
351.00832
 51
98.991673
  0
ARC
  8
0
  6
CONTINUOUS
 62
     7
 10
153.62814
 20
190.91443
 40
2.4000001
 50
171.00833
 51
278.99167
  0
ARC
  8
0
  6
CONTINUOUS
 62
     7
 10
153.62814
 20
190.91443
 40
3.5999999
 50
171.00833
 51
278.99167
  0
ARC
  8
0
  6
CONTINUOUS
 62
     7
 10
157.66028
 20
190.2764
 40
7.6823077
 50
98.991673
 51
130.52056
  0
ARC
  8
0
  6
CONTINUOUS
 62
     7
 10
157.66028
 20
190.2764
 40
6.4823079
 50
98.991673
 51
129.68912
  0
ARC
  8
0
  6
CONTINUOUS
 62
     7
 10
152.99011
 20
194.94656
 40
6.4823079
 50
278.99167
 51
351.00832
  0
ARC
  8
0
  6
CONTINUOUS
 62
     7
 10
152.99011
 20
194.94656
 40
7.6823077
 50
278.99167
 51
310.52055
  0
ARC
  8
0
  6
CONTINUOUS
 62
     7
 10
151.40076
 20
196.53592
 40
0.75
 50
81.869899
 51
188.1301
  0
ARC
  8
0
  6
CONTINUOUS
 62
     7
 10
155.007
 20
192.92967
 40
0.75
 50
261.8699
 51
8.1301031
  0
ARC
  8
0
  6
CONTINUOUS
 62
     7
 10
159.24963
 20
188.68704
 40
0.75
 50
261.8699
 51
8.1301031
  0
ARC
  8
0
  6
CONTINUOUS
 62
     7
 10
157.66028
 20
190.2764
 40
6.4823079
 50
140.31088
 51
171.00833
  0
ARC
  8
0
  6
CONTINUOUS
 62
     7
 10
157.66028
 20
190.2764
 40
7.6823077
 50
139.47946
 51
171.00833
  0
ARC
  8
0
  6
CONTINUOUS
 62
     7
 10
152.99011
 20
194.94656
 40
7.6823077
 50
319.47945
 51
351.00832
  0
ARC
  8
0
  6
CONTINUOUS
 62
     7
 10
288.2529
 20
192.99052
 40
2.4000001
 50
351.00832
 51
98.991673
  0
ARC
  8
0
  6
CONTINUOUS
 62
     7
 10
288.2529
 20
192.99052
 40
3.5999999
 50
351.00832
 51
98.991673
  0
ARC
  8
0
  6
CONTINUOUS
 62
     7
 10
284.8588
 20
189.59641
 40
2.4000001
 50
171.00833
 51
278.99167
  0
ARC
  8
0
  6
CONTINUOUS
 62
     7
 10
284.8588
 20
189.59641
 40
3.5999999
 50
171.00833
 51
278.99167
  0
ARC
  8
0
  6
CONTINUOUS
 62
     7
 10
288.89093
 20
188.95839
 40
7.6823077
 50
98.991673
 51
130.52056
  0
ARC
  8
0
  6
CONTINUOUS
 62
     7
 10
288.89093
 20
188.95839
 40
6.4823079
 50
98.991673
 51
129.68912
  0
ARC
  8
0
  6
CONTINUOUS
 62
     7
 10
284.22076
 20
193.62856
 40
6.4823079
 50
278.99167
 51
351.00832
  0
ARC
  8
0
  6
CONTINUOUS
 62
     7
 10
284.22076
 20
193.62856
 40
7.6823077
 50
278.99167
 51
310.52055
  0
ARC
  8
0
  6
CONTINUOUS
 62
     7
 10
282.63141
 20
195.21791
 40
0.75
 50
81.869899
 51
188.1301
  0
ARC
  8
0
  6
CONTINUOUS
 62
     7
 10
286.23767
 20
191.61166
 40
0.75
 50
261.8699
 51
8.1301031
  0
ARC
  8
0
  6
CONTINUOUS
 62
     7
 10
290.48029
 20
187.36902
 40
0.75
 50
261.8699
 51
8.1301031
  0
ARC
  8
0
  6
CONTINUOUS
 62
     7
 10
288.89093
 20
188.95839
 40
6.4823079
 50
140.31088
 51
171.00833
  0
ARC
  8
0
  6
CONTINUOUS
 62
     7
 10
288.89093
 20
188.95839
 40
7.6823077
 50
139.47946
 51
171.00833
  0
ARC
  8
0
  6
CONTINUOUS
 62
     7
 10
284.22076
 20
193.62856
 40
7.6823077
 50
319.47945
 51
351.00832
  0
ARC
  8
0
  6
CONTINUOUS
 62
     7
 10
-292.03864
 20
43.48695
 40
2.4000001
 50
351.00832
 51
98.991673
  0
ARC
  8
0
  6
CONTINUOUS
 62
     7
 10
-292.03864
 20
43.48695
 40
3.5999999
 50
351.00832
 51
98.991673
  0
ARC
  8
0
  6
CONTINUOUS
 62
     7
 10
-295.43274
 20
40.092838
 40
2.4000001
 50
171.00833
 51
278.99167
  0
ARC
  8
0
  6
CONTINUOUS
 62
     7
 10
-295.43274
 20
40.092838
 40
3.5999999
 50
171.00833
 51
278.99167
  0
ARC
  8
0
  6
CONTINUOUS
 62
     7
 10
-291.4006
 20
39.454811
 40
7.6823077
 50
98.991673
 51
130.52056
  0
ARC
  8
0
  6
CONTINUOUS
 62
     7
 10
-291.4006
 20
39.454811
 40
6.4823079
 50
98.991673
 51
129.68912
  0
ARC
  8
0
  6
CONTINUOUS
 62
     7
 10
-296.07077
 20
44.124977
 40
6.4823079
 50
278.99167
 51
351.00832
  0
ARC
  8
0
  6
CONTINUOUS
 62
     7
 10
-296.07077
 20
44.124977
 40
7.6823077
 50
278.99167
 51
310.52055
  0
ARC
  8
0
  6
CONTINUOUS
 62
     7
 10
-297.66013
 20
45.714336
 40
0.75
 50
81.869899
 51
188.1301
  0
ARC
  8
0
  6
CONTINUOUS
 62
     7
 10
-294.05389
 20
42.108093
 40
0.75
 50
261.8699
 51
8.1301031
  0
ARC
  8
0
  6
CONTINUOUS
 62
     7
 10
-289.81125
 20
37.865452
 40
0.75
 50
261.8699
 51
8.1301031
  0
ARC
  8
0
  6
CONTINUOUS
 62
     7
 10
-291.4006
 20
39.454811
 40
6.4823079
 50
140.31088
 51
171.00833
  0
ARC
  8
0
  6
CONTINUOUS
 62
     7
 10
-291.4006
 20
39.454811
 40
7.6823077
 50
139.47946
 51
171.00833
  0
ARC
  8
0
  6
CONTINUOUS
 62
     7
 10
-296.07077
 20
44.124977
 40
7.6823077
 50
319.47945
 51
351.00832
  0
ARC
  8
0
  6
CONTINUOUS
 62
     7
 10
266.92731
 20
38.038277
 40
3.5999999
 50
351.00832
 51
98.991673
  0
ARC
  8
0
  6
CONTINUOUS
 62
     7
 10
266.92731
 20
38.038277
 40
5.4000001
 50
351.00832
 51
98.991673
  0
ARC
  8
0
  6
CONTINUOUS
 62
     7
 10
261.83615
 20
32.947105
 40
3.5999999
 50
171.00833
 51
278.99167
  0
ARC
  8
0
  6
CONTINUOUS
 62
     7
 10
261.83615
 20
32.947105
 40
5.4000001
 50
171.00833
 51
278.99167
  0
ARC
  8
0
  6
CONTINUOUS
 62
     7
 10
267.88434
 20
31.990067
 40
11.523461
 50
98.991673
 51
130.52056
  0
ARC
  8
0
  6
CONTINUOUS
 62
     7
 10
267.88434
 20
31.990067
 40
9.7234612
 50
98.991673
 51
129.68912
  0
ARC
  8
0
  6
CONTINUOUS
 62
     7
 10
260.87909
 20
38.995316
 40
9.7234612
 50
278.99167
 51
351.00832
  0
ARC
  8
0
  6
CONTINUOUS
 62
     7
 10
260.87909
 20
38.995316
 40
11.523461
 50
278.99167
 51
310.52055
  0
ARC
  8
0
  6
CONTINUOUS
 62
     7
 10
258.49506
 20
41.379356
 40
1.125
 50
81.869899
 51
188.1301
  0
ARC
  8
0
  6
CONTINUOUS
 62
     7
 10
263.90442
 20
35.969986
 40
1.125
 50
261.8699
 51
8.1301031
  0
ARC
  8
0
  6
CONTINUOUS
 62
     7
 10
270.2684
 20
29.606026
 40
1.125
 50
261.8699
 51
8.1301031
  0
ARC
  8
0
  6
CONTINUOUS
 62
     7
 10
267.88434
 20
31.990067
 40
11.523461
 50
139.47946
 51
171.00833
  0
ARC
  8
0
  6
CONTINUOUS
 62
     7
 10
267.88434
 20
31.990067
 40
9.7234612
 50
140.31088
 51
171.00833
  0
ARC
  8
0
  6
CONTINUOUS
 62
     7
 10
260.87909
 20
38.995316
 40
11.523461
 50
319.47945
 51
351.00832
  0
ARC
  8
0
  6
CONTINUOUS
 62
     7
 10
-262.21649
 20
-168.57928
 40
3.5999999
 50
351.00832
 51
98.991673
  0
ARC
  8
0
  6
CONTINUOUS
 62
     7
 10
-262.21649
 20
-168.57928
 40
5.4000001
 50
351.00832
 51
98.991673
  0
ARC
  8
0
  6
CONTINUOUS
 62
     7
 10
-267.30768
 20
-173.67044
 40
3.5999999
 50
171.00833
 51
278.99167
  0
ARC
  8
0
  6
CONTINUOUS
 62
     7
 10
-267.30768
 20
-173.67044
 40
5.4000001
 50
171.00833
 51
278.99167
  0
ARC
  8
0
  6
CONTINUOUS
 62
     7
 10
-261.25946
 20
-174.62749
 40
11.523461
 50
98.991673
 51
130.52056
  0
ARC
  8
0
  6
CONTINUOUS
 62
     7
 10
-261.25946
 20
-174.62749
 40
9.7234612
 50
98.991673
 51
129.68912
  0
ARC
  8
0
  6
CONTINUOUS
 62
     7
 10
-268.26471
 20
-167.62224
 40
9.7234612
 50
278.99167
 51
351.00832
  0
ARC
  8
0
  6
CONTINUOUS
 62
     7
 10
-268.26471
 20
-167.62224
 40
11.523461
 50
278.99167
 51
310.52055
  0
ARC
  8
0
  6
CONTINUOUS
 62
     7
 10
-270.64874
 20
-165.23819
 40
1.125
 50
81.869899
 51
188.1301
  0
ARC
  8
0
  6
CONTINUOUS
 62
     7
 10
-265.23938
 20
-170.64757
 40
1.125
 50
261.8699
 51
8.1301031
  0
ARC
  8
0
  6
CONTINUOUS
 62
     7
 10
-258.87543
 20
-177.01154
 40
1.125
 50
261.8699
 51
8.1301031
  0
ARC
  8
0
  6
CONTINUOUS
 62
     7
 10
-261.25946
 20
-174.62749
 40
11.523461
 50
139.47946
 51
171.00833
  0
ARC
  8
0
  6
CONTINUOUS
 62
     7
 10
-261.25946
 20
-174.62749
 40
9.7234612
 50
140.31088
 51
171.00833
  0
ARC
  8
0
  6
CONTINUOUS
 62
     7
 10
-268.26471
 20
-167.62224
 40
11.523461
 50
319.47945
 51
351.00832
  0
ARC
  8
0
  6
CONTINUOUS
 62
     7
 10
-120.86998
 20
42.007408
 40
3
 50
351.00832
 51
98.991673
  0
ARC
  8
0
  6
CONTINUOUS
 62
     7
 10
-120.86998
 20
42.007408
 40
4.5
 50
351.00832
 51
98.991673
  0
ARC
  8
0
  6
CONTINUOUS
 62
     7
 10
-125.11263
 20
37.764771
 40
3
 50
171.00833
 51
278.99167
  0
ARC
  8
0
  6
CONTINUOUS
 62
     7
 10
-125.11263
 20
37.764771
 40
4.5
 50
171.00833
 51
278.99167
  0
ARC
  8
0
  6
CONTINUOUS
 62
     7
 10
-120.07245
 20
36.967236
 40
9.6028843
 50
98.991673
 51
130.52056
  0
ARC
  8
0
  6
CONTINUOUS
 62
     7
 10
-120.07245
 20
36.967236
 40
8.1028843
 50
98.991673
 51
129.68912
  0
ARC
  8
0
  6
CONTINUOUS
 62
     7
 10
-125.91016
 20
42.804943
 40
8.1028843
 50
278.99167
 51
351.00832
  0
ARC
  8
0
  6
CONTINUOUS
 62
     7
 10
-125.91016
 20
42.804943
 40
9.6028843
 50
278.99167
 51
310.52055
  0
ARC
  8
0
  6
CONTINUOUS
 62
     7
 10
-127.89686
 20
44.791641
 40
0.9375
 50
81.869899
 51
188.1301
  0
ARC
  8
0
  6
CONTINUOUS
 62
     7
 10
-123.38905
 20
40.283836
 40
0.9375
 50
261.8699
 51
8.1301031
  0
ARC
  8
0
  6
CONTINUOUS
 62
     7
 10
-118.08575
 20
34.980537
 40
0.9375
 50
261.8699
 51
8.1301031
  0
ARC
  8
0
  6
CONTINUOUS
 62
     7
 10
-120.07245
 20
36.967236
 40
9.6028843
 50
139.47946
 51
171.00833
  0
ARC
  8
0
  6
CONTINUOUS
 62
     7
 10
-120.07245
 20
36.967236
 40
8.1028843
 50
140.31088
 51
171.00833
  0
ARC
  8
0
  6
CONTINUOUS
 62
     7
 10
-125.91016
 20
42.804943
 40
9.6028843
 50
319.47945
 51
351.00832
  0
ARC
  8
0
  6
CONTINUOUS
 62
     7
 10
47.180534
 20
195.05586
 40
1.8
 50
351.00832
 51
98.991673
  0
ARC
  8
0
  6
CONTINUOUS
 62
     7
 10
47.180534
 20
195.05586
 40
2.7
 50
351.00832
 51
98.991673
  0
ARC
  8
0
  6
CONTINUOUS
 62
     7
 10
44.634956
 20
192.51027
 40
1.8
 50
171.00833
 51
278.99167
  0
ARC
  8
0
  6
CONTINUOUS
 62
     7
 10
44.634956
 20
192.51027
 40
2.7
 50
171.00833
 51
278.99167
  0
ARC
  8
0
  6
CONTINUOUS
 62
     7
 10
47.659058
 20
192.03175
 40
5.7617307
 50
98.991673
 51
130.52056
  0
ARC
  8
0
  6
CONTINUOUS
 62
     7
 10
47.659058
 20
192.03175
 40
4.8617306
 50
98.991673
 51
129.68912
  0
ARC
  8
0
  6
CONTINUOUS
 62
     7
 10
44.156433
 20
195.53438
 40
4.8617306
 50
278.99167
 51
351.00832
  0
ARC
  8
0
  6
CONTINUOUS
 62
     7
 10
44.156433
 20
195.53438
 40
5.7617307
 50
278.99167
 51
310.52055
  0
ARC
  8
0
  6
CONTINUOUS
 62
     7
 10
42.964417
 20
196.72639
 40
0.5625
 50
81.869899
 51
188.1301
  0
ARC
  8
0
  6
CONTINUOUS
 62
     7
 10
45.669098
 20
194.02171
 40
0.5625
 50
261.8699
 51
8.1301031
  0
ARC
  8
0
  6
CONTINUOUS
 62
     7
 10
48.851074
 20
190.83974
 40
0.5625
 50
261.8699
 51
8.1301031
  0
ARC
  8
0
  6
CONTINUOUS
 62
     7
 10
47.659058
 20
192.03175
 40
5.7617307
 50
139.47946
 51
171.00833
  0
ARC
  8
0
  6
CONTINUOUS
 62
     7
 10
47.659058
 20
192.03175
 40
4.8617306
 50
140.31088
 51
171.00833
  0
ARC
  8
0
  6
CONTINUOUS
 62
     7
 10
44.156433
 20
195.53438
 40
5.7617307
 50
319.47945
 51
351.00832
  0
ARC
  8
0
  6
CONTINUOUS
 62
     7
 10
-139.7894
 20
196.52032
 40
1.8
 50
351.00832
 51
98.991673
  0
ARC
  8
0
  6
CONTINUOUS
 62
     7
 10
-139.7894
 20
196.52032
 40
2.7
 50
351.00832
 51
98.991673
  0
ARC
  8
0
  6
CONTINUOUS
 62
     7
 10
-142.33499
 20
193.97473
 40
1.8
 50
171.00833
 51
278.99167
  0
ARC
  8
0
  6
CONTINUOUS
 62
     7
 10
-142.33499
 20
193.97473
 40
2.7
 50
171.00833
 51
278.99167
  0
ARC
  8
0
  6
CONTINUOUS
 62
     7
 10
-139.31088
 20
193.49622
 40
5.7617307
 50
98.991673
 51
130.52056
  0
ARC
  8
0
  6
CONTINUOUS
 62
     7
 10
-139.31088
 20
193.49622
 40
4.8617306
 50
98.991673
 51
129.68912
  0
ARC
  8
0
  6
CONTINUOUS
 62
     7
 10
-142.81351
 20
196.99884
 40
4.8617306
 50
278.99167
 51
351.00832
  0
ARC
  8
0
  6
CONTINUOUS
 62
     7
 10
-142.81351
 20
196.99884
 40
5.7617307
 50
278.99167
 51
310.52055
  0
ARC
  8
0
  6
CONTINUOUS
 62
     7
 10
-144.00552
 20
198.19086
 40
0.5625
 50
81.869899
 51
188.1301
  0
ARC
  8
0
  6
CONTINUOUS
 62
     7
 10
-141.30084
 20
195.48618
 40
0.5625
 50
261.8699
 51
8.1301031
  0
ARC
  8
0
  6
CONTINUOUS
 62
     7
 10
-138.11887
 20
192.3042
 40
0.5625
 50
261.8699
 51
8.1301031
  0
ARC
  8
0
  6
CONTINUOUS
 62
     7
 10
-139.31088
 20
193.49622
 40
5.7617307
 50
139.47946
 51
171.00833
  0
ARC
  8
0
  6
CONTINUOUS
 62
     7
 10
-139.31088
 20
193.49622
 40
4.8617306
 50
140.31088
 51
171.00833
  0
ARC
  8
0
  6
CONTINUOUS
 62
     7
 10
-142.81351
 20
196.99884
 40
5.7617307
 50
319.47945
 51
351.00832
  0
ARC
  8
0
  6
CONTINUOUS
 62
     7
 10
-49.452271
 20
195.93454
 40
1.8
 50
351.00832
 51
98.991673
  0
ARC
  8
0
  6
CONTINUOUS
 62
     7
 10
-49.452271
 20
195.93454
 40
2.7
 50
351.00832
 51
98.991673
  0
ARC
  8
0
  6
CONTINUOUS
 62
     7
 10
-51.997856
 20
193.38895
 40
1.8
 50
171.00833
 51
278.99167
  0
ARC
  8
0
  6
CONTINUOUS
 62
     7
 10
-51.997856
 20
193.38895
 40
2.7
 50
171.00833
 51
278.99167
  0
ARC
  8
0
  6
CONTINUOUS
 62
     7
 10
-48.973751
 20
192.91043
 40
5.7617307
 50
98.991673
 51
130.52056
  0
ARC
  8
0
  6
CONTINUOUS
 62
     7
 10
-48.973751
 20
192.91043
 40
4.8617306
 50
98.991673
 51
129.68912
  0
ARC
  8
0
  6
CONTINUOUS
 62
     7
 10
-52.476379
 20
196.41306
 40
4.8617306
 50
278.99167
 51
351.00832
  0
ARC
  8
0
  6
CONTINUOUS
 62
     7
 10
-52.476379
 20
196.41306
 40
5.7617307
 50
278.99167
 51
310.52055
  0
ARC
  8
0
  6
CONTINUOUS
 62
     7
 10
-53.668396
 20
197.60507
 40
0.5625
 50
81.869899
 51
188.1301
  0
ARC
  8
0
  6
CONTINUOUS
 62
     7
 10
-50.963715
 20
194.90039
 40
0.5625
 50
261.8699
 51
8.1301031
  0
ARC
  8
0
  6
CONTINUOUS
 62
     7
 10
-47.781731
 20
191.71841
 40
0.5625
 50
261.8699
 51
8.1301031
  0
ARC
  8
0
  6
CONTINUOUS
 62
     7
 10
-48.973751
 20
192.91043
 40
5.7617307
 50
139.47946
 51
171.00833
  0
ARC
  8
0
  6
CONTINUOUS
 62
     7
 10
-48.973751
 20
192.91043
 40
4.8617306
 50
140.31088
 51
171.00833
  0
ARC
  8
0
  6
CONTINUOUS
 62
     7
 10
-52.476379
 20
196.41306
 40
5.7617307
 50
319.47945
 51
351.00832
  0
ARC
  8
0
  6
CONTINUOUS
 62
     7
 10
63.108429
 20
42.007408
 40
3
 50
351.00832
 51
98.991673
  0
ARC
  8
0
  6
CONTINUOUS
 62
     7
 10
63.108429
 20
42.007408
 40
4.5
 50
351.00832
 51
98.991673
  0
ARC
  8
0
  6
CONTINUOUS
 62
     7
 10
58.865784
 20
37.764763
 40
3
 50
171.00833
 51
278.99167
  0
ARC
  8
0
  6
CONTINUOUS
 62
     7
 10
58.865784
 20
37.764763
 40
4.5
 50
171.00833
 51
278.99167
  0
ARC
  8
0
  6
CONTINUOUS
 62
     7
 10
63.90596
 20
36.967232
 40
9.6028843
 50
98.991673
 51
130.52056
  0
ARC
  8
0
  6
CONTINUOUS
 62
     7
 10
63.90596
 20
36.967232
 40
8.1028843
 50
98.991673
 51
129.68912
  0
ARC
  8
0
  6
CONTINUOUS
 62
     7
 10
58.068253
 20
42.804939
 40
8.1028843
 50
278.99167
 51
351.00832
  0
ARC
  8
0
  6
CONTINUOUS
 62
     7
 10
58.068253
 20
42.804939
 40
9.6028843
 50
278.99167
 51
310.52055
  0
ARC
  8
0
  6
CONTINUOUS
 62
     7
 10
56.081558
 20
44.791641
 40
0.9375
 50
81.869899
 51
188.1301
  0
ARC
  8
0
  6
CONTINUOUS
 62
     7
 10
60.589355
 20
40.283836
 40
0.9375
 50
261.8699
 51
8.1301031
  0
ARC
  8
0
  6
CONTINUOUS
 62
     7
 10
65.892654
 20
34.98053
 40
0.9375
 50
261.8699
 51
8.1301031
  0
ARC
  8
0
  6
CONTINUOUS
 62
     7
 10
63.90596
 20
36.967232
 40
9.6028843
 50
139.47946
 51
171.00833
  0
ARC
  8
0
  6
CONTINUOUS
 62
     7
 10
63.90596
 20
36.967232
 40
8.1028843
 50
140.31088
 51
171.00833
  0
ARC
  8
0
  6
CONTINUOUS
 62
     7
 10
58.068253
 20
42.804939
 40
9.6028843
 50
319.47945
 51
351.00832
  0
ARC
  8
0
  6
CONTINUOUS
 62
     7
 10
-217.7959
 20
196.68184
 40
1.2
 50
351.00832
 51
98.991673
  0
ARC
  8
0
  6
CONTINUOUS
 62
     7
 10
-217.7959
 20
196.68184
 40
1.8
 50
351.00832
 51
98.991673
  0
ARC
  8
0
  6
CONTINUOUS
 62
     7
 10
-219.49295
 20
194.98479
 40
1.2
 50
171.00833
 51
278.99167
  0
ARC
  8
0
  6
CONTINUOUS
 62
     7
 10
-219.49295
 20
194.98479
 40
1.8
 50
171.00833
 51
278.99167
  0
ARC
  8
0
  6
CONTINUOUS
 62
     7
 10
-217.47688
 20
194.66577
 40
3.8411539
 50
98.991673
 51
130.52056
  0
ARC
  8
0
  6
CONTINUOUS
 62
     7
 10
-217.47688
 20
194.66577
 40
3.241154
 50
98.991673
 51
129.68912
  0
ARC
  8
0
  6
CONTINUOUS
 62
     7
 10
-219.81197
 20
197.00085
 40
3.241154
 50
278.99167
 51
351.00832
  0
ARC
  8
0
  6
CONTINUOUS
 62
     7
 10
-219.81197
 20
197.00085
 40
3.8411539
 50
278.99167
 51
310.52055
  0
ARC
  8
0
  6
CONTINUOUS
 62
     7
 10
-220.60664
 20
197.79553
 40
0.375
 50
81.869899
 51
188.1301
  0
ARC
  8
0
  6
CONTINUOUS
 62
     7
 10
-218.80353
 20
195.99242
 40
0.375
 50
261.8699
 51
8.1301031
  0
ARC
  8
0
  6
CONTINUOUS
 62
     7
 10
-216.68221
 20
193.87109
 40
0.375
 50
261.8699
 51
8.1301031
  0
ARC
  8
0
  6
CONTINUOUS
 62
     7
 10
-219.81197
 20
197.00085
 40
3.8411539
 50
319.47945
 51
351.00832
  0
ARC
  8
0
  6
CONTINUOUS
 62
     7
 10
-217.47688
 20
194.66577
 40
3.241154
 50
140.31088
 51
171.00833
  0
ARC
  8
0
  6
CONTINUOUS
 62
     7
 10
-217.47688
 20
194.66577
 40
3.8411539
 50
139.47946
 51
171.00833
  0
ARC
  8
0
  6
CONTINUOUS
 62
     7
 10
-298.88242
 20
197.26762
 40
1.2
 50
351.00832
 51
98.991673
  0
ARC
  8
0
  6
CONTINUOUS
 62
     7
 10
-298.88242
 20
197.26762
 40
1.8
 50
351.00832
 51
98.991673
  0
ARC
  8
0
  6
CONTINUOUS
 62
     7
 10
-300.57947
 20
195.57057
 40
1.2
 50
171.00833
 51
278.99167
  0
ARC
  8
0
  6
CONTINUOUS
 62
     7
 10
-300.57947
 20
195.57057
 40
1.8
 50
171.00833
 51
278.99167
  0
ARC
  8
0
  6
CONTINUOUS
 62
     7
 10
-298.56342
 20
195.25156
 40
3.8411539
 50
98.991673
 51
130.52056
  0
ARC
  8
0
  6
CONTINUOUS
 62
     7
 10
-298.56342
 20
195.25156
 40
3.241154
 50
98.991673
 51
129.68912
  0
ARC
  8
0
  6
CONTINUOUS
 62
     7
 10
-300.8985
 20
197.58664
 40
3.241154
 50
278.99167
 51
351.00832
  0
ARC
  8
0
  6
CONTINUOUS
 62
     7
 10
-300.8985
 20
197.58664
 40
3.8411539
 50
278.99167
 51
310.52055
  0
ARC
  8
0
  6
CONTINUOUS
 62
     7
 10
-301.69318
 20
198.38132
 40
0.375
 50
81.869899
 51
188.1301
  0
ARC
  8
0
  6
CONTINUOUS
 62
     7
 10
-299.89005
 20
196.5782
 40
0.375
 50
261.8699
 51
8.1301031
  0
ARC
  8
0
  6
CONTINUOUS
 62
     7
 10
-297.76874
 20
194.45688
 40
0.375
 50
261.8699
 51
8.1301031
  0
ARC
  8
0
  6
CONTINUOUS
 62
     7
 10
-300.8985
 20
197.58664
 40
3.8411539
 50
319.47945
 51
351.00832
  0
ARC
  8
0
  6
CONTINUOUS
 62
     7
 10
-298.56342
 20
195.25156
 40
3.241154
 50
140.31088
 51
171.00833
  0
ARC
  8
0
  6
CONTINUOUS
 62
     7
 10
-298.56342
 20
195.25156
 40
3.8411539
 50
139.47946
 51
171.00833
  0
TEXT
  8
0
  6
CONTINUOUS
 62
     7
 10
-124.26322
 20
255.19467
 40
20
 41
0.84273711
  1
めすおすエルボ（ストリートエルボ）
  0
TEXT
  8
0
  6
CONTINUOUS
 62
     7
 10
-306.94838
 20
216.12645
 40
10
 41
1.0178573
  1
1/8
  0
TEXT
  8
0
  6
CONTINUOUS
 62
     7
 10
-221.84043
 20
216.12645
 40
10
 41
1.0178573
  1
1/4
  0
TEXT
  8
0
  6
CONTINUOUS
 62
     7
 10
-148.08019
 20
216.12645
 40
10
 41
1.0178573
  1
3/8
  0
TEXT
  8
0
  6
CONTINUOUS
 62
     7
 10
-55.87989
 20
218.96338
 40
10
 41
1.0178573
  1
1/2
  0
TEXT
  8
0
  6
CONTINUOUS
 62
     7
 10
46.249668
 20
220.38185
 40
10
 41
1.0178573
  1
3/4
  0
TEXT
  8
0
  6
CONTINUOUS
 62
     7
 10
152.63462
 20
221.80032
 40
10
 41
1.0714291
  1
1
  0
TEXT
  8
0
  6
CONTINUOUS
 62
     7
 10
273.69844
 20
227.65216
 40
10
 41
1.0129871
  1
11/4
  0
TEXT
  8
0
  6
CONTINUOUS
 62
     7
 10
-304.91365
 20
86.207733
 40
10
 41
1.0129871
  1
11/2
  0
TEXT
  8
0
  6
CONTINUOUS
 62
     7
 10
-118.2924
 20
92.719902
 40
10
 41
1.0714291
  1
2
  0
TEXT
  8
0
  6
CONTINUOUS
 62
     7
 10
63.271259
 20
99.812233
 40
10
 41
1.0129871
  1
21/2
  0
TEXT
  8
0
  6
CONTINUOUS
 62
     7
 10
267.53038
 20
101.2307
 40
10
 41
1.0714291
  1
3
  0
TEXT
  8
0
  6
CONTINUOUS
 62
     7
 10
-288.64644
 20
-91.099998
 40
10
 41
1.0714291
  1
4
  0
ENDSEC
  0
EOF
