  0
SECTION
  2
HEADER
  9
$EXTMAX
 10
296.17499
 20
209.41667
  9
$EXTMIN
 10
-298.56836
 20
-209.41667
  0
ENDSEC
  0
SECTION
  2
TABLES
  0
TABLE
  2
LTYPE
 70
    22
  0
LTYPE
  2
CONTINUOUS
 70
    64
  3
Solid line
 72
    65
 73
     0
 40
0.000000
  0
LTYPE
  2
DASHED
 70
    64
  3
__ __ __ __ __ __ __ __ __ __ __ __ __ __ __
 72
    65
 73
     2
 40
3.500000
 49
2.000000
 49
-1.500000
  0
LTYPE
  2
CENTER
 70
    64
  3
____ _ ____ _ ____ _ ____ _ ____ _ ____ _ ____
 72
    65
 73
     4
 40
17.500000
 49
13.000000
 49
-1.500000
 49
1.500000
 49
-1.500000
  0
LTYPE
  2
PHANTOM
 70
    64
  3
_____ _ _ _____ _ _ _____ _ _ _____ _ _ ____  
 72
    65
 73
     6
 40
15.500000
 49
8.000000
 49
-1.500000
 49
1.500000
 49
-1.500000
 49
1.500000
 49
-1.500000
  0
LTYPE
  2
DOT
 70
    64
  3
. . . . . . . . . . . . . . . . . . . . . . . .
 72
    65
 73
     2
 40
0.25
 49
0.0
 49
-0.25
  0
ENDTAB
  0
TABLE
  2
LAYER
 70
     1
  0
LAYER
  2
0
 70
     0
 62
     7
  6
CONTINUOUS
  0
ENDTAB
  0
TABLE
  2
STYLE
 70
     1
  0
STYLE
  2
STANDARD
 70
     0
 40
0.000000
 41
1.000000
 50
0.000000
 71
     0
 42
0.200000
  3
txt
  4
BIGFONT
  0
ENDTAB
  0
TABLE
  2
VIEW
 70
     0
  0
ENDTAB
  0
ENDSEC
  0
SECTION
  2
BLOCKS
  0
ENDSEC
  0
SECTION
  2
ENTITIES
  0
POINT
  8
0
  6
CONTINUOUS
 62
     7
 10
-210.27118
 20
145.92375
  0
POINT
  8
0
  6
CONTINUOUS
 62
     7
 10
-137.61594
 20
145.92375
  0
POINT
  8
0
  6
CONTINUOUS
 62
     7
 10
-49.220242
 20
145.92375
  0
POINT
  8
0
  6
CONTINUOUS
 62
     7
 10
43.281666
 20
145.92375
  0
POINT
  8
0
  6
CONTINUOUS
 62
     7
 10
139.93091
 20
145.92375
  0
POINT
  8
0
  6
CONTINUOUS
 62
     7
 10
-220.27118
 20
72.165306
  0
POINT
  8
0
  6
CONTINUOUS
 62
     7
 10
-117.61594
 20
72.165306
  0
POINT
  8
0
  6
CONTINUOUS
 62
     7
 10
-19.220242
 20
72.165306
  0
POINT
  8
0
  6
CONTINUOUS
 62
     7
 10
83.28167
 20
72.165306
  0
POINT
  8
0
  6
CONTINUOUS
 62
     7
 10
189.93091
 20
72.165306
  0
POINT
  8
0
  6
CONTINUOUS
 62
     7
 10
-210.27118
 20
-84.861656
  0
POINT
  8
0
  6
CONTINUOUS
 62
     7
 10
-97.615944
 20
-84.861656
  0
POINT
  8
0
  6
CONTINUOUS
 62
     7
 10
-210.27118
 20
145.92375
  0
POINT
  8
0
  6
CONTINUOUS
 62
     7
 10
-137.61594
 20
145.92375
  0
POINT
  8
0
  6
CONTINUOUS
 62
     7
 10
-49.220242
 20
145.92375
  0
POINT
  8
0
  6
CONTINUOUS
 62
     7
 10
43.281666
 20
145.92375
  0
POINT
  8
0
  6
CONTINUOUS
 62
     7
 10
139.93091
 20
145.92375
  0
POINT
  8
0
  6
CONTINUOUS
 62
     7
 10
-117.61594
 20
72.165306
  0
POINT
  8
0
  6
CONTINUOUS
 62
     7
 10
-19.220242
 20
72.165306
  0
POINT
  8
0
  6
CONTINUOUS
 62
     7
 10
83.28167
 20
72.165306
  0
POINT
  8
0
  6
CONTINUOUS
 62
     7
 10
-210.27118
 20
-84.861656
  0
POINT
  8
0
  6
CONTINUOUS
 62
     7
 10
35.779758
 20
-84.861656
  0
POINT
  8
0
  6
CONTINUOUS
 62
     7
 10
139.93091
 20
145.92375
  0
POINT
  8
0
  6
CONTINUOUS
 62
     7
 10
189.93091
 20
72.165306
  0
POINT
  8
0
  6
CONTINUOUS
 62
     7
 10
189.93091
 20
-84.861656
  0
POINT
  8
0
  6
CONTINUOUS
 62
     7
 10
-220.27118
 20
72.165306
  0
POINT
  8
0
  6
CONTINUOUS
 62
     7
 10
35.779758
 20
-84.861656
  0
POINT
  8
0
  6
CONTINUOUS
 62
     7
 10
189.93091
 20
-84.861656
  0
LINE
  8
0
  6
CONTINUOUS
 62
     7
 10
287
 20
200
 11
287
 21
-200
  0
LINE
  8
0
  6
CONTINUOUS
 62
     7
 10
-287
 20
200
 11
287
 21
200
  0
LINE
  8
0
  6
CONTINUOUS
 62
     7
 10
-287
 20
200
 11
-287
 21
-200
  0
LINE
  8
0
  6
CONTINUOUS
 62
     7
 10
-287
 20
-200
 11
287
 21
-200
  0
LINE
  8
0
  6
CONTINUOUS
 62
     7
 10
-199.27118
 20
153.42375
 11
-216.17679
 21
153.42375
  0
LINE
  8
0
  6
CONTINUOUS
 62
     7
 10
-199.27118
 20
153.42375
 11
-199.27118
 21
145.92375
  0
LINE
  8
0
  6
CONTINUOUS
 62
     7
 10
-221.27116
 20
153.42375
 11
-221.27116
 21
145.92375
  0
LINE
  8
0
  6
CENTER
 62
     7
 10
-224.13333
 20
145.92375
 11
-196.92844
 21
145.92375
  0
LINE
  8
0
  6
CONTINUOUS
 62
     7
 10
-199.27118
 20
138.42375
 11
-205.52118
 21
138.42375
  0
LINE
  8
0
  6
CONTINUOUS
 62
     7
 10
-199.27118
 20
138.42375
 11
-199.27118
 21
145.92375
  0
LINE
  8
0
  6
CONTINUOUS
 62
     7
 10
-221.27116
 20
138.42375
 11
-221.27116
 21
145.92375
  0
LINE
  8
0
  6
CENTER
 62
     7
 10
-224.13333
 20
145.92375
 11
-196.92844
 21
145.92375
  0
LINE
  8
0
  6
CONTINUOUS
 62
     7
 10
-207.52118
 20
154.92375
 11
-213.02118
 21
154.92375
  0
LINE
  8
0
  6
CONTINUOUS
 62
     7
 10
-207.52118
 20
136.92375
 11
-213.02118
 21
136.92375
  0
LINE
  8
0
  6
CONTINUOUS
 62
     7
 10
-204.80397
 20
138.42375
 11
-221.27118
 21
138.42375
  0
LINE
  8
0
  6
CONTINUOUS
 62
     7
 10
-215.02118
 20
153.42375
 11
-221.27118
 21
153.42375
  0
LINE
  8
0
  6
CONTINUOUS
 62
     7
 10
-125.11594
 20
155.42375
 11
-125.11594
 21
145.92375
  0
LINE
  8
0
  6
CONTINUOUS
 62
     7
 10
-125.11594
 20
155.42375
 11
-150.11594
 21
155.42375
  0
LINE
  8
0
  6
CONTINUOUS
 62
     7
 10
-150.11592
 20
155.42375
 11
-150.11592
 21
145.92375
  0
LINE
  8
0
  6
CENTER
 62
     7
 10
-152.71964
 20
145.92375
 11
-121.61736
 21
145.92375
  0
LINE
  8
0
  6
CONTINUOUS
 62
     7
 10
-125.11594
 20
136.42375
 11
-125.11594
 21
145.92375
  0
LINE
  8
0
  6
CONTINUOUS
 62
     7
 10
-125.11594
 20
136.42375
 11
-150.11594
 21
136.42375
  0
LINE
  8
0
  6
CONTINUOUS
 62
     7
 10
-150.11592
 20
136.42375
 11
-150.11592
 21
145.92375
  0
LINE
  8
0
  6
CENTER
 62
     7
 10
-152.71964
 20
145.92375
 11
-121.61736
 21
145.92375
  0
LINE
  8
0
  6
CONTINUOUS
 62
     7
 10
-134.11594
 20
156.92375
 11
-141.11594
 21
156.92375
  0
LINE
  8
0
  6
CONTINUOUS
 62
     7
 10
-134.11594
 20
134.92375
 11
-141.11594
 21
134.92375
  0
LINE
  8
0
  6
CONTINUOUS
 62
     7
 10
-34.220242
 20
157.42375
 11
-34.220242
 21
145.92375
  0
LINE
  8
0
  6
CONTINUOUS
 62
     7
 10
-34.220242
 20
157.42375
 11
-64.220245
 21
157.42375
  0
LINE
  8
0
  6
CONTINUOUS
 62
     7
 10
-64.22023
 20
157.42375
 11
-64.22023
 21
145.92375
  0
LINE
  8
0
  6
CENTER
 62
     7
 10
-66.894951
 20
145.92375
 11
-31.094362
 21
145.92375
  0
LINE
  8
0
  6
CONTINUOUS
 62
     7
 10
-34.220242
 20
134.42375
 11
-34.220242
 21
145.92375
  0
LINE
  8
0
  6
CONTINUOUS
 62
     7
 10
-34.220242
 20
134.42375
 11
-64.220245
 21
134.42375
  0
LINE
  8
0
  6
CONTINUOUS
 62
     7
 10
-64.22023
 20
134.42375
 11
-64.22023
 21
145.92375
  0
LINE
  8
0
  6
CENTER
 62
     7
 10
-66.894951
 20
145.92375
 11
-31.094362
 21
145.92375
  0
LINE
  8
0
  6
CONTINUOUS
 62
     7
 10
-44.470242
 20
132.92375
 11
-53.970242
 21
132.92375
  0
LINE
  8
0
  6
CONTINUOUS
 62
     7
 10
-44.470242
 20
158.92375
 11
-53.970242
 21
158.92375
  0
LINE
  8
0
  6
CONTINUOUS
 62
     7
 10
60.781673
 20
159.42375
 11
60.781673
 21
145.92375
  0
LINE
  8
0
  6
CONTINUOUS
 62
     7
 10
60.781673
 20
159.42375
 11
25.781668
 21
159.42375
  0
LINE
  8
0
  6
CONTINUOUS
 62
     7
 10
25.781668
 20
159.42375
 11
25.781668
 21
145.92375
  0
LINE
  8
0
  6
CENTER
 62
     7
 10
23.396852
 20
145.92375
 11
63.127838
 21
145.92375
  0
LINE
  8
0
  6
CONTINUOUS
 62
     7
 10
60.781673
 20
132.42375
 11
60.781673
 21
145.92375
  0
LINE
  8
0
  6
CONTINUOUS
 62
     7
 10
60.781673
 20
132.42375
 11
25.781668
 21
132.42375
  0
LINE
  8
0
  6
CONTINUOUS
 62
     7
 10
25.781668
 20
132.42375
 11
25.781668
 21
145.92375
  0
LINE
  8
0
  6
CENTER
 62
     7
 10
23.396852
 20
145.92375
 11
63.127838
 21
145.92375
  0
LINE
  8
0
  6
CONTINUOUS
 62
     7
 10
49.281666
 20
130.92375
 11
37.281666
 21
130.92375
  0
LINE
  8
0
  6
CONTINUOUS
 62
     7
 10
49.281666
 20
160.92375
 11
37.281666
 21
160.92375
  0
LINE
  8
0
  6
CONTINUOUS
 62
     7
 10
159.93091
 20
162.42375
 11
159.93091
 21
145.92375
  0
LINE
  8
0
  6
CONTINUOUS
 62
     7
 10
159.93091
 20
162.42375
 11
119.93091
 21
162.42375
  0
LINE
  8
0
  6
CONTINUOUS
 62
     7
 10
119.93091
 20
162.42375
 11
119.93091
 21
145.92375
  0
LINE
  8
0
  6
CENTER
 62
     7
 10
115.09652
 20
145.92375
 11
163.46529
 21
145.92375
  0
LINE
  8
0
  6
CONTINUOUS
 62
     7
 10
159.93091
 20
129.42375
 11
159.93091
 21
145.92375
  0
LINE
  8
0
  6
CONTINUOUS
 62
     7
 10
159.93091
 20
129.42375
 11
119.93091
 21
129.42375
  0
LINE
  8
0
  6
CONTINUOUS
 62
     7
 10
119.93091
 20
129.42375
 11
119.93091
 21
145.92375
  0
LINE
  8
0
  6
CENTER
 62
     7
 10
115.09652
 20
145.92375
 11
163.46529
 21
145.92375
  0
LINE
  8
0
  6
CONTINUOUS
 62
     7
 10
147.18091
 20
127.92375
 11
132.68091
 21
127.92375
  0
LINE
  8
0
  6
CONTINUOUS
 62
     7
 10
147.18091
 20
163.92375
 11
132.68091
 21
163.92375
  0
LINE
  8
0
  6
CONTINUOUS
 62
     7
 10
-197.77118
 20
92.665306
 11
-197.77118
 21
72.165306
  0
LINE
  8
0
  6
CONTINUOUS
 62
     7
 10
-197.77118
 20
92.665306
 11
-242.77118
 21
92.665306
  0
LINE
  8
0
  6
CONTINUOUS
 62
     7
 10
-242.77118
 20
92.665306
 11
-242.77118
 21
72.165306
  0
LINE
  8
0
  6
CENTER
 62
     7
 10
-247.99619
 20
72.165306
 11
-192.34618
 21
72.165306
  0
LINE
  8
0
  6
CONTINUOUS
 62
     7
 10
-197.77118
 20
51.665306
 11
-197.77118
 21
72.165306
  0
LINE
  8
0
  6
CONTINUOUS
 62
     7
 10
-197.77118
 20
51.665306
 11
-242.77118
 21
51.665306
  0
LINE
  8
0
  6
CONTINUOUS
 62
     7
 10
-242.77118
 20
51.665306
 11
-242.77118
 21
72.165306
  0
LINE
  8
0
  6
CENTER
 62
     7
 10
-247.99619
 20
72.165306
 11
-192.34618
 21
72.165306
  0
LINE
  8
0
  6
CONTINUOUS
 62
     7
 10
-211.77118
 20
50.165306
 11
-228.77118
 21
50.165306
  0
LINE
  8
0
  6
CONTINUOUS
 62
     7
 10
-211.77118
 20
94.165306
 11
-228.77118
 21
94.165306
  0
LINE
  8
0
  6
CONTINUOUS
 62
     7
 10
-92.615944
 20
97.165306
 11
-92.615944
 21
72.165306
  0
LINE
  8
0
  6
CONTINUOUS
 62
     7
 10
-92.615944
 20
97.165306
 11
-142.61594
 21
97.165306
  0
LINE
  8
0
  6
CONTINUOUS
 62
     7
 10
-142.61594
 20
97.165306
 11
-142.61594
 21
72.165306
  0
LINE
  8
0
  6
CENTER
 62
     7
 10
-148.79094
 20
72.165306
 11
-88.240944
 21
72.165306
  0
LINE
  8
0
  6
CONTINUOUS
 62
     7
 10
-92.615944
 20
47.165306
 11
-92.615944
 21
72.165306
  0
LINE
  8
0
  6
CONTINUOUS
 62
     7
 10
-92.615944
 20
47.165306
 11
-142.61594
 21
47.165306
  0
LINE
  8
0
  6
CONTINUOUS
 62
     7
 10
-142.61594
 20
47.165306
 11
-142.61594
 21
72.165306
  0
LINE
  8
0
  6
CENTER
 62
     7
 10
-148.79094
 20
72.165306
 11
-88.240944
 21
72.165306
  0
LINE
  8
0
  6
CONTINUOUS
 62
     7
 10
-107.86594
 20
45.665306
 11
-127.36594
 21
45.665306
  0
LINE
  8
0
  6
CONTINUOUS
 62
     7
 10
-107.86594
 20
98.665306
 11
-127.36594
 21
98.665306
  0
LINE
  8
0
  6
CONTINUOUS
 62
     7
 10
8.2797575
 20
100.16531
 11
8.2797575
 21
72.165306
  0
LINE
  8
0
  6
CONTINUOUS
 62
     7
 10
8.2797575
 20
100.16531
 11
-46.720242
 21
100.16531
  0
LINE
  8
0
  6
CONTINUOUS
 62
     7
 10
-46.720242
 20
100.16531
 11
-46.720242
 21
72.165306
  0
LINE
  8
0
  6
CENTER
 62
     7
 10
-53.845242
 20
72.165306
 11
14.404757
 21
72.165306
  0
LINE
  8
0
  6
CONTINUOUS
 62
     7
 10
8.2797575
 20
44.165306
 11
8.2797575
 21
72.165306
  0
LINE
  8
0
  6
CONTINUOUS
 62
     7
 10
8.2797575
 20
44.165306
 11
-46.720242
 21
44.165306
  0
LINE
  8
0
  6
CONTINUOUS
 62
     7
 10
-46.720242
 20
44.165306
 11
-46.720242
 21
72.165306
  0
LINE
  8
0
  6
CENTER
 62
     7
 10
-53.845242
 20
72.165306
 11
14.404757
 21
72.165306
  0
LINE
  8
0
  6
CONTINUOUS
 62
     7
 10
-8.7202425
 20
102.16531
 11
-29.720242
 21
102.16531
  0
LINE
  8
0
  6
CONTINUOUS
 62
     7
 10
-8.7202425
 20
42.165306
 11
-29.720242
 21
42.165306
  0
LINE
  8
0
  6
CONTINUOUS
 62
     7
 10
113.28167
 20
106.66531
 11
113.28167
 21
72.165306
  0
LINE
  8
0
  6
CONTINUOUS
 62
     7
 10
113.28167
 20
106.66531
 11
53.281666
 21
106.66531
  0
LINE
  8
0
  6
CONTINUOUS
 62
     7
 10
53.281681
 20
106.66531
 11
53.281681
 21
72.165306
  0
LINE
  8
0
  6
CENTER
 62
     7
 10
48.006664
 20
72.165306
 11
118.00667
 21
72.165306
  0
LINE
  8
0
  6
CONTINUOUS
 62
     7
 10
113.28167
 20
37.665306
 11
113.28167
 21
72.165306
  0
LINE
  8
0
  6
CONTINUOUS
 62
     7
 10
113.28167
 20
37.665306
 11
53.281666
 21
37.665306
  0
LINE
  8
0
  6
CONTINUOUS
 62
     7
 10
53.281681
 20
37.665306
 11
53.281681
 21
72.165306
  0
LINE
  8
0
  6
CENTER
 62
     7
 10
48.006664
 20
72.165306
 11
118.00667
 21
72.165306
  0
LINE
  8
0
  6
CONTINUOUS
 62
     7
 10
95.03167
 20
35.665306
 11
71.53167
 21
35.665306
  0
LINE
  8
0
  6
CONTINUOUS
 62
     7
 10
95.03167
 20
108.66531
 11
71.53167
 21
108.66531
  0
LINE
  8
0
  6
CONTINUOUS
 62
     7
 10
224.93091
 20
117.66531
 11
224.93091
 21
72.165306
  0
LINE
  8
0
  6
CONTINUOUS
 62
     7
 10
166.93091
 20
117.66531
 11
224.93091
 21
117.66531
  0
LINE
  8
0
  6
CONTINUOUS
 62
     7
 10
208.05751
 20
115.16531
 11
171.80431
 21
115.16531
  0
LINE
  8
0
  6
CONTINUOUS
 62
     7
 10
166.93091
 20
117.66531
 11
154.93091
 21
117.66531
  0
LINE
  8
0
  6
CONTINUOUS
 62
     7
 10
154.93091
 20
72.165306
 11
154.93091
 21
117.66531
  0
LINE
  8
0
  6
CONTINUOUS
 62
     7
 10
166.93091
 20
26.665306
 11
166.93091
 21
117.66531
  0
LINE
  8
0
  6
CONTINUOUS
 62
     7
 10
212.93091
 20
117.66531
 11
212.93091
 21
26.665306
  0
LINE
  8
0
  6
CENTER
 62
     7
 10
148.80591
 20
72.165306
 11
229.6559
 21
72.165306
  0
LINE
  8
0
  6
CONTINUOUS
 62
     7
 10
224.93091
 20
26.665306
 11
224.93091
 21
72.165306
  0
LINE
  8
0
  6
CONTINUOUS
 62
     7
 10
166.93091
 20
26.665306
 11
224.93091
 21
26.665306
  0
LINE
  8
0
  6
CONTINUOUS
 62
     7
 10
208.05751
 20
29.165306
 11
171.80431
 21
29.165306
  0
LINE
  8
0
  6
CONTINUOUS
 62
     7
 10
166.93091
 20
26.665306
 11
154.93091
 21
26.665306
  0
LINE
  8
0
  6
CONTINUOUS
 62
     7
 10
154.93091
 20
72.165306
 11
154.93091
 21
26.665306
  0
LINE
  8
0
  6
CENTER
 62
     7
 10
148.80591
 20
72.165306
 11
229.6559
 21
72.165306
  0
LINE
  8
0
  6
CONTINUOUS
 62
     7
 10
-172.77118
 20
-32.361656
 11
-172.77118
 21
-84.861656
  0
LINE
  8
0
  6
CONTINUOUS
 62
     7
 10
-234.77118
 20
-32.361656
 11
-172.77118
 21
-32.361656
  0
LINE
  8
0
  6
CONTINUOUS
 62
     7
 10
-227.62975
 20
-35.361656
 11
-192.9126
 21
-35.361656
  0
LINE
  8
0
  6
CONTINUOUS
 62
     7
 10
-234.77116
 20
-32.361656
 11
-247.77116
 21
-32.361656
  0
LINE
  8
0
  6
CONTINUOUS
 62
     7
 10
-247.77118
 20
-84.861656
 11
-247.77118
 21
-32.361656
  0
LINE
  8
0
  6
CONTINUOUS
 62
     7
 10
-234.77118
 20
-137.36166
 11
-234.77118
 21
-32.361656
  0
LINE
  8
0
  6
CONTINUOUS
 62
     7
 10
-185.77118
 20
-32.361656
 11
-185.77118
 21
-137.36166
  0
LINE
  8
0
  6
CENTER
 62
     7
 10
-254.14618
 20
-84.861656
 11
-167.34618
 21
-84.861656
  0
LINE
  8
0
  6
CONTINUOUS
 62
     7
 10
-172.77118
 20
-137.36166
 11
-172.77118
 21
-84.861656
  0
LINE
  8
0
  6
CONTINUOUS
 62
     7
 10
-234.77118
 20
-137.36166
 11
-172.77118
 21
-137.36166
  0
LINE
  8
0
  6
CONTINUOUS
 62
     7
 10
-227.62975
 20
-134.36166
 11
-192.9126
 21
-134.36166
  0
LINE
  8
0
  6
CONTINUOUS
 62
     7
 10
-234.77116
 20
-137.36166
 11
-247.77116
 21
-137.36166
  0
LINE
  8
0
  6
CONTINUOUS
 62
     7
 10
-247.77118
 20
-84.861656
 11
-247.77118
 21
-137.36166
  0
LINE
  8
0
  6
CENTER
 62
     7
 10
-254.14618
 20
-84.861656
 11
-167.34618
 21
-84.861656
  0
LINE
  8
0
  6
CONTINUOUS
 62
     7
 10
-55.115955
 20
-18.361658
 11
-55.115955
 21
-84.861656
  0
LINE
  8
0
  6
CONTINUOUS
 62
     7
 10
-55.115955
 20
-18.361658
 11
-124.11595
 21
-18.361658
  0
LINE
  8
0
  6
CONTINUOUS
 62
     7
 10
-78.257378
 20
-21.361658
 11
-116.9745
 21
-21.361658
  0
LINE
  8
0
  6
CONTINUOUS
 62
     7
 10
-124.11595
 20
-18.361658
 11
-140.11594
 21
-18.361658
  0
LINE
  8
0
  6
CONTINUOUS
 62
     7
 10
-140.11594
 20
-18.361658
 11
-140.11594
 21
-84.861656
  0
LINE
  8
0
  6
CONTINUOUS
 62
     7
 10
-124.11595
 20
-18.361658
 11
-124.11595
 21
-78.861656
  0
LINE
  8
0
  6
CONTINUOUS
 62
     7
 10
-122.11595
 20
-80.861656
 11
-73.115952
 21
-80.861656
  0
LINE
  8
0
  6
CONTINUOUS
 62
     7
 10
-71.115952
 20
-18.361658
 11
-71.115952
 21
-78.861656
  0
LINE
  8
0
  6
CONTINUOUS
 62
     7
 10
-55.115955
 20
-151.36166
 11
-55.115955
 21
-84.861656
  0
LINE
  8
0
  6
CONTINUOUS
 62
     7
 10
-55.115955
 20
-151.36166
 11
-124.11595
 21
-151.36166
  0
LINE
  8
0
  6
CONTINUOUS
 62
     7
 10
-78.257378
 20
-148.36166
 11
-116.9745
 21
-148.36166
  0
LINE
  8
0
  6
CONTINUOUS
 62
     7
 10
-124.11595
 20
-151.36166
 11
-140.11594
 21
-151.36166
  0
LINE
  8
0
  6
CONTINUOUS
 62
     7
 10
-140.11594
 20
-151.36166
 11
-140.11594
 21
-84.861656
  0
LINE
  8
0
  6
CONTINUOUS
 62
     7
 10
-124.11595
 20
-151.36166
 11
-124.11595
 21
-90.861656
  0
LINE
  8
0
  6
CONTINUOUS
 62
     7
 10
-122.11595
 20
-88.861656
 11
-73.115952
 21
-88.861656
  0
LINE
  8
0
  6
CONTINUOUS
 62
     7
 10
-71.115952
 20
-151.36166
 11
-71.115952
 21
-90.861656
  0
LINE
  8
0
  6
CENTER
 62
     7
 10
-147.69095
 20
-84.861656
 11
-49.690952
 21
-84.861656
  0
LINE
  8
0
  6
CONTINUOUS
 62
     7
 10
83.279755
 20
-4.3616576
 11
83.279755
 21
-84.861656
  0
LINE
  8
0
  6
CONTINUOUS
 62
     7
 10
6.279758
 20
-4.3616576
 11
83.279755
 21
-4.3616576
  0
LINE
  8
0
  6
CONTINUOUS
 62
     7
 10
57.680424
 20
-7.8616424
 11
13.879092
 21
-7.8616424
  0
LINE
  8
0
  6
CONTINUOUS
 62
     7
 10
6.279758
 20
-4.3616424
 11
-11.720243
 21
-4.3616424
  0
LINE
  8
0
  6
CONTINUOUS
 62
     7
 10
-11.720243
 20
-84.861656
 11
-11.720243
 21
-4.3616424
  0
LINE
  8
0
  6
CONTINUOUS
 62
     7
 10
6.279758
 20
-75.861656
 11
6.279758
 21
-4.3616424
  0
LINE
  8
0
  6
CONTINUOUS
 62
     7
 10
11.279757
 20
-80.861656
 11
60.279789
 21
-80.861656
  0
LINE
  8
0
  6
CONTINUOUS
 62
     7
 10
65.279785
 20
-4.3616576
 11
65.279785
 21
-75.861656
  0
LINE
  8
0
  6
CENTER
 62
     7
 10
-19.095242
 20
-84.861656
 11
89.054756
 21
-84.861656
  0
LINE
  8
0
  6
CONTINUOUS
 62
     7
 10
83.279755
 20
-165.36166
 11
83.279755
 21
-84.861656
  0
LINE
  8
0
  6
CONTINUOUS
 62
     7
 10
6.279758
 20
-165.36166
 11
83.279755
 21
-165.36166
  0
LINE
  8
0
  6
CONTINUOUS
 62
     7
 10
57.680424
 20
-161.86168
 11
13.879092
 21
-161.86168
  0
LINE
  8
0
  6
CONTINUOUS
 62
     7
 10
6.279758
 20
-165.36168
 11
-11.720243
 21
-165.36168
  0
LINE
  8
0
  6
CONTINUOUS
 62
     7
 10
-11.720243
 20
-84.861656
 11
-11.720243
 21
-165.36168
  0
LINE
  8
0
  6
CONTINUOUS
 62
     7
 10
6.279758
 20
-93.861656
 11
6.279758
 21
-165.36168
  0
LINE
  8
0
  6
CONTINUOUS
 62
     7
 10
11.279757
 20
-88.861656
 11
60.279789
 21
-88.861656
  0
LINE
  8
0
  6
CONTINUOUS
 62
     7
 10
65.279785
 20
-165.36166
 11
65.279785
 21
-93.861656
  0
LINE
  8
0
  6
CENTER
 62
     7
 10
-19.095242
 20
-84.861656
 11
89.054756
 21
-84.861656
  0
LINE
  8
0
  6
CONTINUOUS
 62
     7
 10
242.43091
 20
9.6383419
 11
242.43091
 21
-84.861656
  0
LINE
  8
0
  6
CONTINUOUS
 62
     7
 10
157.43091
 20
9.6383419
 11
242.43091
 21
9.6383419
  0
LINE
  8
0
  6
CONTINUOUS
 62
     7
 10
214.83157
 20
6.1383424
 11
165.03024
 21
6.1383424
  0
LINE
  8
0
  6
CONTINUOUS
 62
     7
 10
157.43091
 20
9.6383419
 11
137.43091
 21
9.6383419
  0
LINE
  8
0
  6
CONTINUOUS
 62
     7
 10
137.43091
 20
-84.861656
 11
137.43091
 21
9.6383419
  0
LINE
  8
0
  6
CONTINUOUS
 62
     7
 10
157.43091
 20
9.6383419
 11
157.43091
 21
-75.861656
  0
LINE
  8
0
  6
CONTINUOUS
 62
     7
 10
162.43091
 20
-80.861656
 11
217.43091
 21
-80.861656
  0
LINE
  8
0
  6
CONTINUOUS
 62
     7
 10
222.43091
 20
9.6383419
 11
222.43091
 21
-75.861656
  0
LINE
  8
0
  6
CENTER
 62
     7
 10
130.60591
 20
-84.861656
 11
249.25591
 21
-84.861656
  0
LINE
  8
0
  6
CONTINUOUS
 62
     7
 10
242.43091
 20
-179.36166
 11
242.43091
 21
-84.861656
  0
LINE
  8
0
  6
CONTINUOUS
 62
     7
 10
157.43091
 20
-179.36166
 11
242.43091
 21
-179.36166
  0
LINE
  8
0
  6
CONTINUOUS
 62
     7
 10
214.83157
 20
-175.86166
 11
165.03024
 21
-175.86166
  0
LINE
  8
0
  6
CONTINUOUS
 62
     7
 10
157.43091
 20
-179.36166
 11
137.43091
 21
-179.36166
  0
LINE
  8
0
  6
CONTINUOUS
 62
     7
 10
137.43091
 20
-84.861656
 11
137.43091
 21
-179.36166
  0
LINE
  8
0
  6
CONTINUOUS
 62
     7
 10
157.43091
 20
-179.36166
 11
157.43091
 21
-93.861656
  0
LINE
  8
0
  6
CONTINUOUS
 62
     7
 10
162.43091
 20
-88.861656
 11
217.43091
 21
-88.861656
  0
LINE
  8
0
  6
CONTINUOUS
 62
     7
 10
222.43091
 20
-179.36166
 11
222.43091
 21
-93.861656
  0
LINE
  8
0
  6
CENTER
 62
     7
 10
130.60591
 20
-84.861656
 11
249.25591
 21
-84.861656
  0
LINE
  8
0
  6
CONTINUOUS
 62
     7
 10
43.731667
 20
150.42375
 11
43.731667
 21
149.19115
  0
LINE
  8
0
  6
CONTINUOUS
 62
     7
 10
42.831665
 20
150.42375
 11
42.831665
 21
149.19115
  0
LINE
  8
0
  6
CONTINUOUS
 62
     7
 10
42.831665
 20
142.65636
 11
42.831665
 21
141.42375
  0
LINE
  8
0
  6
CONTINUOUS
 62
     7
 10
43.731667
 20
142.65636
 11
43.731667
 21
141.42375
  0
LINE
  8
0
  6
CONTINUOUS
 62
     7
 10
42.831665
 20
148.28789
 11
42.831665
 21
145.92375
  0
LINE
  8
0
  6
CONTINUOUS
 62
     7
 10
43.731667
 20
148.28789
 11
43.731667
 21
145.92375
  0
LINE
  8
0
  6
CONTINUOUS
 62
     7
 10
140.38091
 20
150.42375
 11
140.38091
 21
149.19115
  0
LINE
  8
0
  6
CONTINUOUS
 62
     7
 10
139.48091
 20
150.42375
 11
139.48091
 21
149.19115
  0
LINE
  8
0
  6
CONTINUOUS
 62
     7
 10
139.48091
 20
142.65636
 11
139.48091
 21
141.42375
  0
LINE
  8
0
  6
CONTINUOUS
 62
     7
 10
140.38091
 20
142.65636
 11
140.38091
 21
141.42375
  0
LINE
  8
0
  6
CONTINUOUS
 62
     7
 10
139.48091
 20
148.28789
 11
139.48091
 21
145.92375
  0
LINE
  8
0
  6
CONTINUOUS
 62
     7
 10
140.38091
 20
148.28789
 11
140.38091
 21
145.92375
  0
LINE
  8
0
  6
CONTINUOUS
 62
     7
 10
-219.67117
 20
78.165306
 11
-219.67117
 21
76.521843
  0
LINE
  8
0
  6
CONTINUOUS
 62
     7
 10
-220.87119
 20
78.165306
 11
-220.87119
 21
76.521843
  0
LINE
  8
0
  6
CONTINUOUS
 62
     7
 10
-220.87119
 20
67.808769
 11
-220.87119
 21
66.165306
  0
LINE
  8
0
  6
CONTINUOUS
 62
     7
 10
-219.67117
 20
67.808769
 11
-219.67117
 21
66.165306
  0
LINE
  8
0
  6
CONTINUOUS
 62
     7
 10
-220.87119
 20
75.317482
 11
-220.87119
 21
72.165306
  0
LINE
  8
0
  6
CONTINUOUS
 62
     7
 10
-219.67117
 20
75.317482
 11
-219.67117
 21
72.165306
  0
LINE
  8
0
  6
CONTINUOUS
 62
     7
 10
-209.97118
 20
148.92375
 11
-209.97118
 21
148.10202
  0
LINE
  8
0
  6
CONTINUOUS
 62
     7
 10
-210.57118
 20
148.92375
 11
-210.57118
 21
148.10202
  0
LINE
  8
0
  6
CONTINUOUS
 62
     7
 10
-210.57118
 20
143.74548
 11
-210.57118
 21
142.92375
  0
LINE
  8
0
  6
CONTINUOUS
 62
     7
 10
-209.97118
 20
143.74548
 11
-209.97118
 21
142.92375
  0
LINE
  8
0
  6
CONTINUOUS
 62
     7
 10
-210.57118
 20
147.49983
 11
-210.57118
 21
145.92375
  0
LINE
  8
0
  6
CONTINUOUS
 62
     7
 10
-209.97118
 20
147.49983
 11
-209.97118
 21
145.92375
  0
LINE
  8
0
  6
CONTINUOUS
 62
     7
 10
-117.01595
 20
78.165306
 11
-117.01595
 21
76.521843
  0
LINE
  8
0
  6
CONTINUOUS
 62
     7
 10
-118.21594
 20
78.165306
 11
-118.21594
 21
76.521843
  0
LINE
  8
0
  6
CONTINUOUS
 62
     7
 10
-118.21594
 20
67.808769
 11
-118.21594
 21
66.165306
  0
LINE
  8
0
  6
CONTINUOUS
 62
     7
 10
-117.01595
 20
67.808769
 11
-117.01595
 21
66.165306
  0
LINE
  8
0
  6
CONTINUOUS
 62
     7
 10
-118.21594
 20
75.317482
 11
-118.21594
 21
72.165306
  0
LINE
  8
0
  6
CONTINUOUS
 62
     7
 10
-117.01595
 20
75.317482
 11
-117.01595
 21
72.165306
  0
LINE
  8
0
  6
CONTINUOUS
 62
     7
 10
-137.31593
 20
148.92375
 11
-137.31593
 21
148.10202
  0
LINE
  8
0
  6
CONTINUOUS
 62
     7
 10
-137.91594
 20
148.92375
 11
-137.91594
 21
148.10202
  0
LINE
  8
0
  6
CONTINUOUS
 62
     7
 10
-137.91594
 20
143.74548
 11
-137.91594
 21
142.92375
  0
LINE
  8
0
  6
CONTINUOUS
 62
     7
 10
-137.31593
 20
143.74548
 11
-137.31593
 21
142.92375
  0
LINE
  8
0
  6
CONTINUOUS
 62
     7
 10
-137.91594
 20
147.49983
 11
-137.91594
 21
145.92375
  0
LINE
  8
0
  6
CONTINUOUS
 62
     7
 10
-137.31593
 20
147.49983
 11
-137.31593
 21
145.92375
  0
LINE
  8
0
  6
CONTINUOUS
 62
     7
 10
-48.770241
 20
150.42375
 11
-48.770241
 21
149.19115
  0
LINE
  8
0
  6
CONTINUOUS
 62
     7
 10
-49.670242
 20
150.42375
 11
-49.670242
 21
149.19115
  0
LINE
  8
0
  6
CONTINUOUS
 62
     7
 10
-49.670242
 20
142.65636
 11
-49.670242
 21
141.42375
  0
LINE
  8
0
  6
CONTINUOUS
 62
     7
 10
-48.770241
 20
142.65636
 11
-48.770241
 21
141.42375
  0
LINE
  8
0
  6
CONTINUOUS
 62
     7
 10
-49.670242
 20
148.28789
 11
-49.670242
 21
145.92375
  0
LINE
  8
0
  6
CONTINUOUS
 62
     7
 10
-48.770241
 20
148.28789
 11
-48.770241
 21
145.92375
  0
LINE
  8
0
  6
CONTINUOUS
 62
     7
 10
-18.620241
 20
78.165306
 11
-18.620241
 21
76.521843
  0
LINE
  8
0
  6
CONTINUOUS
 62
     7
 10
-19.820242
 20
78.165306
 11
-19.820242
 21
76.521843
  0
LINE
  8
0
  6
CONTINUOUS
 62
     7
 10
-19.820242
 20
67.808769
 11
-19.820242
 21
66.165306
  0
LINE
  8
0
  6
CONTINUOUS
 62
     7
 10
-18.620241
 20
67.808769
 11
-18.620241
 21
66.165306
  0
LINE
  8
0
  6
CONTINUOUS
 62
     7
 10
-19.820242
 20
75.317482
 11
-19.820242
 21
72.165306
  0
LINE
  8
0
  6
CONTINUOUS
 62
     7
 10
-18.620241
 20
75.317482
 11
-18.620241
 21
72.165306
  0
LINE
  8
0
  6
CONTINUOUS
 62
     7
 10
84.03167
 20
79.665306
 11
84.03167
 21
77.610977
  0
LINE
  8
0
  6
CONTINUOUS
 62
     7
 10
82.53167
 20
79.665306
 11
82.53167
 21
77.610977
  0
LINE
  8
0
  6
CONTINUOUS
 62
     7
 10
82.53167
 20
66.719635
 11
82.53167
 21
64.665306
  0
LINE
  8
0
  6
CONTINUOUS
 62
     7
 10
84.03167
 20
66.719635
 11
84.03167
 21
64.665306
  0
LINE
  8
0
  6
CONTINUOUS
 62
     7
 10
82.53167
 20
76.105522
 11
82.53167
 21
72.165306
  0
LINE
  8
0
  6
CONTINUOUS
 62
     7
 10
84.03167
 20
76.105522
 11
84.03167
 21
72.165306
  0
LINE
  8
0
  6
CONTINUOUS
 62
     7
 10
190.68091
 20
79.665306
 11
190.68091
 21
77.610977
  0
LINE
  8
0
  6
CONTINUOUS
 62
     7
 10
189.18091
 20
79.665306
 11
189.18091
 21
77.610977
  0
LINE
  8
0
  6
CONTINUOUS
 62
     7
 10
189.18091
 20
66.719635
 11
189.18091
 21
64.665306
  0
LINE
  8
0
  6
CONTINUOUS
 62
     7
 10
190.68091
 20
66.719635
 11
190.68091
 21
64.665306
  0
LINE
  8
0
  6
CONTINUOUS
 62
     7
 10
189.18091
 20
76.105522
 11
189.18091
 21
72.165306
  0
LINE
  8
0
  6
CONTINUOUS
 62
     7
 10
190.68091
 20
76.105522
 11
190.68091
 21
72.165306
  0
LINE
  8
0
  6
CONTINUOUS
 62
     7
 10
-209.37119
 20
-75.861656
 11
-209.37119
 21
-78.326859
  0
LINE
  8
0
  6
CONTINUOUS
 62
     7
 10
-211.17117
 20
-75.861656
 11
-211.17117
 21
-78.326859
  0
LINE
  8
0
  6
CONTINUOUS
 62
     7
 10
-211.17117
 20
-91.396454
 11
-211.17117
 21
-93.861656
  0
LINE
  8
0
  6
CONTINUOUS
 62
     7
 10
-209.37119
 20
-91.396454
 11
-209.37119
 21
-93.861656
  0
LINE
  8
0
  6
CONTINUOUS
 62
     7
 10
-211.17117
 20
-80.1334
 11
-211.17117
 21
-84.861656
  0
LINE
  8
0
  6
CONTINUOUS
 62
     7
 10
-209.37119
 20
-80.1334
 11
-209.37119
 21
-84.861656
  0
LINE
  8
0
  6
CONTINUOUS
 62
     7
 10
-96.390953
 20
-56.961655
 11
-96.390953
 21
-59.426853
  0
LINE
  8
0
  6
CONTINUOUS
 62
     7
 10
-98.190956
 20
-56.961655
 11
-98.190956
 21
-59.426853
  0
LINE
  8
0
  6
CONTINUOUS
 62
     7
 10
-98.190956
 20
-72.496452
 11
-98.190956
 21
-74.961655
  0
LINE
  8
0
  6
CONTINUOUS
 62
     7
 10
-96.390953
 20
-72.496452
 11
-96.390953
 21
-74.961655
  0
LINE
  8
0
  6
CONTINUOUS
 62
     7
 10
-98.190956
 20
-61.233398
 11
-98.190956
 21
-65.961655
  0
LINE
  8
0
  6
CONTINUOUS
 62
     7
 10
-96.390953
 20
-61.233398
 11
-96.390953
 21
-65.961655
  0
LINE
  8
0
  6
CONTINUOUS
 62
     7
 10
36.454758
 20
-54.311661
 11
36.454758
 21
-57.598595
  0
LINE
  8
0
  6
CONTINUOUS
 62
     7
 10
34.054756
 20
-54.311661
 11
34.054756
 21
-57.598595
  0
LINE
  8
0
  6
CONTINUOUS
 62
     7
 10
34.054756
 20
-75.024727
 11
34.054756
 21
-78.311661
  0
LINE
  8
0
  6
CONTINUOUS
 62
     7
 10
36.454758
 20
-75.024727
 11
36.454758
 21
-78.311661
  0
LINE
  8
0
  6
CONTINUOUS
 62
     7
 10
34.054756
 20
-60.007317
 11
34.054756
 21
-66.311661
  0
LINE
  8
0
  6
CONTINUOUS
 62
     7
 10
36.454758
 20
-60.007317
 11
36.454758
 21
-66.311661
  0
LINE
  8
0
  6
CONTINUOUS
 62
     7
 10
190.9559
 20
-53.261658
 11
190.9559
 21
-56.548592
  0
LINE
  8
0
  6
CONTINUOUS
 62
     7
 10
188.55591
 20
-53.261658
 11
188.55591
 21
-56.548592
  0
LINE
  8
0
  6
CONTINUOUS
 62
     7
 10
188.55591
 20
-73.974724
 11
188.55591
 21
-77.261658
  0
LINE
  8
0
  6
CONTINUOUS
 62
     7
 10
190.9559
 20
-73.974724
 11
190.9559
 21
-77.261658
  0
LINE
  8
0
  6
CONTINUOUS
 62
     7
 10
188.55591
 20
-58.957314
 11
188.55591
 21
-65.261658
  0
LINE
  8
0
  6
CONTINUOUS
 62
     7
 10
190.9559
 20
-58.957314
 11
190.9559
 21
-65.261658
  0
ARC
  8
0
  6
CONTINUOUS
 62
     7
 10
-207.52118
 20
153.42375
 40
1.5
 50
30.000001
 51
90.000003
  0
ARC
  8
0
  6
CONTINUOUS
 62
     7
 10
-213.02118
 20
153.42375
 40
1.5
 50
90.000003
 51
150
  0
ARC
  8
0
  6
CONTINUOUS
 62
     7
 10
-213.02118
 20
138.42375
 40
1.5
 50
210
 51
270
  0
ARC
  8
0
  6
CONTINUOUS
 62
     7
 10
-207.52118
 20
138.42375
 40
1.5
 50
270
 51
330
  0
ARC
  8
0
  6
CONTINUOUS
 62
     7
 10
-204.9231
 20
154.92375
 40
1.5
 50
210
 51
270
  0
ARC
  8
0
  6
CONTINUOUS
 62
     7
 10
-215.61925
 20
154.92375
 40
1.5
 50
270
 51
330
  0
ARC
  8
0
  6
CONTINUOUS
 62
     7
 10
-215.61925
 20
136.92375
 40
1.5
 50
30.000001
 51
90.000003
  0
ARC
  8
0
  6
CONTINUOUS
 62
     7
 10
-204.9231
 20
136.92375
 40
1.5
 50
90.000003
 51
150
  0
ARC
  8
0
  6
CONTINUOUS
 62
     7
 10
-134.11594
 20
155.42375
 40
1.5
 50
30.000001
 51
90.000003
  0
ARC
  8
0
  6
CONTINUOUS
 62
     7
 10
-141.11594
 20
155.42375
 40
1.5
 50
90.000003
 51
150
  0
ARC
  8
0
  6
CONTINUOUS
 62
     7
 10
-141.11594
 20
136.42375
 40
1.5
 50
210
 51
270
  0
ARC
  8
0
  6
CONTINUOUS
 62
     7
 10
-134.11594
 20
136.42375
 40
1.5
 50
270
 51
330
  0
ARC
  8
0
  6
CONTINUOUS
 62
     7
 10
-131.51787
 20
156.92375
 40
1.5
 50
210
 51
270
  0
ARC
  8
0
  6
CONTINUOUS
 62
     7
 10
-143.71402
 20
156.92375
 40
1.5
 50
270
 51
330
  0
ARC
  8
0
  6
CONTINUOUS
 62
     7
 10
-143.71402
 20
134.92375
 40
1.5
 50
30.000001
 51
90.000003
  0
ARC
  8
0
  6
CONTINUOUS
 62
     7
 10
-131.51787
 20
134.92375
 40
1.5
 50
90.000003
 51
150
  0
ARC
  8
0
  6
CONTINUOUS
 62
     7
 10
-44.470242
 20
157.42375
 40
1.5
 50
30.000001
 51
90.000003
  0
ARC
  8
0
  6
CONTINUOUS
 62
     7
 10
-53.970242
 20
157.42375
 40
1.5
 50
90.000003
 51
150
  0
ARC
  8
0
  6
CONTINUOUS
 62
     7
 10
-53.970242
 20
134.42375
 40
1.5
 50
210
 51
270
  0
ARC
  8
0
  6
CONTINUOUS
 62
     7
 10
-44.470242
 20
134.42375
 40
1.5
 50
270
 51
330
  0
ARC
  8
0
  6
CONTINUOUS
 62
     7
 10
-41.872166
 20
158.92375
 40
1.5
 50
210
 51
270
  0
ARC
  8
0
  6
CONTINUOUS
 62
     7
 10
-56.568317
 20
158.92375
 40
1.5
 50
270
 51
330
  0
ARC
  8
0
  6
CONTINUOUS
 62
     7
 10
-56.568317
 20
132.92375
 40
1.5
 50
30.000001
 51
90.000003
  0
ARC
  8
0
  6
CONTINUOUS
 62
     7
 10
-41.872166
 20
132.92375
 40
1.5
 50
90.000003
 51
150
  0
ARC
  8
0
  6
CONTINUOUS
 62
     7
 10
49.281666
 20
159.42375
 40
1.5
 50
30.000001
 51
90.000003
  0
ARC
  8
0
  6
CONTINUOUS
 62
     7
 10
37.281666
 20
159.42375
 40
1.5
 50
90.000003
 51
150
  0
ARC
  8
0
  6
CONTINUOUS
 62
     7
 10
37.281666
 20
132.42375
 40
1.5
 50
210
 51
270
  0
ARC
  8
0
  6
CONTINUOUS
 62
     7
 10
49.281666
 20
132.42375
 40
1.5
 50
270
 51
330
  0
ARC
  8
0
  6
CONTINUOUS
 62
     7
 10
51.879742
 20
130.92375
 40
1.5
 50
90.000003
 51
150
  0
ARC
  8
0
  6
CONTINUOUS
 62
     7
 10
51.879742
 20
160.92375
 40
1.5
 50
210
 51
270
  0
ARC
  8
0
  6
CONTINUOUS
 62
     7
 10
34.68359
 20
160.92375
 40
1.5
 50
270
 51
330
  0
ARC
  8
0
  6
CONTINUOUS
 62
     7
 10
34.68359
 20
130.92375
 40
1.5
 50
30.000001
 51
90.000003
  0
ARC
  8
0
  6
CONTINUOUS
 62
     7
 10
147.18091
 20
162.42375
 40
1.5
 50
30.000001
 51
90.000003
  0
ARC
  8
0
  6
CONTINUOUS
 62
     7
 10
132.68091
 20
162.42375
 40
1.5
 50
90.000003
 51
150
  0
ARC
  8
0
  6
CONTINUOUS
 62
     7
 10
132.68091
 20
129.42375
 40
1.5
 50
210
 51
270
  0
ARC
  8
0
  6
CONTINUOUS
 62
     7
 10
147.18091
 20
129.42375
 40
1.5
 50
270
 51
330
  0
ARC
  8
0
  6
CONTINUOUS
 62
     7
 10
149.77898
 20
163.92375
 40
1.5
 50
210
 51
270
  0
ARC
  8
0
  6
CONTINUOUS
 62
     7
 10
130.08282
 20
163.92375
 40
1.5
 50
270
 51
330
  0
ARC
  8
0
  6
CONTINUOUS
 62
     7
 10
130.08282
 20
127.92375
 40
1.5
 50
30.000001
 51
90.000003
  0
ARC
  8
0
  6
CONTINUOUS
 62
     7
 10
149.77898
 20
127.92375
 40
1.5
 50
90.000003
 51
150
  0
ARC
  8
0
  6
CONTINUOUS
 62
     7
 10
-211.77118
 20
92.665306
 40
1.5
 50
30.000001
 51
90.000003
  0
ARC
  8
0
  6
CONTINUOUS
 62
     7
 10
-228.77118
 20
92.665306
 40
1.5
 50
90.000003
 51
150
  0
ARC
  8
0
  6
CONTINUOUS
 62
     7
 10
-228.77118
 20
51.665306
 40
1.5
 50
210
 51
270
  0
ARC
  8
0
  6
CONTINUOUS
 62
     7
 10
-211.77118
 20
51.665306
 40
1.5
 50
270
 51
330
  0
ARC
  8
0
  6
CONTINUOUS
 62
     7
 10
-209.1731
 20
94.165306
 40
1.5
 50
210
 51
270
  0
ARC
  8
0
  6
CONTINUOUS
 62
     7
 10
-231.36925
 20
94.165306
 40
1.5
 50
270
 51
330
  0
ARC
  8
0
  6
CONTINUOUS
 62
     7
 10
-231.36925
 20
50.165306
 40
1.5
 50
30.000001
 51
90.000003
  0
ARC
  8
0
  6
CONTINUOUS
 62
     7
 10
-209.1731
 20
50.165306
 40
1.5
 50
90.000003
 51
150
  0
ARC
  8
0
  6
CONTINUOUS
 62
     7
 10
-107.86594
 20
97.165306
 40
1.5
 50
30.000001
 51
90.000003
  0
ARC
  8
0
  6
CONTINUOUS
 62
     7
 10
-127.36594
 20
97.165306
 40
1.5
 50
90.000003
 51
150
  0
ARC
  8
0
  6
CONTINUOUS
 62
     7
 10
-107.86594
 20
47.165306
 40
1.5
 50
270
 51
330
  0
ARC
  8
0
  6
CONTINUOUS
 62
     7
 10
-127.36594
 20
47.165306
 40
1.5
 50
210
 51
270
  0
ARC
  8
0
  6
CONTINUOUS
 62
     7
 10
-105.26787
 20
45.665306
 40
1.5
 50
90.000003
 51
150
  0
ARC
  8
0
  6
CONTINUOUS
 62
     7
 10
-129.96402
 20
45.665306
 40
1.5
 50
30.000001
 51
90.000003
  0
ARC
  8
0
  6
CONTINUOUS
 62
     7
 10
-105.26787
 20
98.665306
 40
1.5
 50
210
 51
270
  0
ARC
  8
0
  6
CONTINUOUS
 62
     7
 10
-129.96402
 20
98.665306
 40
1.5
 50
270
 51
330
  0
ARC
  8
0
  6
CONTINUOUS
 62
     7
 10
-8.7202425
 20
100.16531
 40
2
 50
30.000001
 51
90.000003
  0
ARC
  8
0
  6
CONTINUOUS
 62
     7
 10
-29.720242
 20
100.16531
 40
2
 50
90.000003
 51
150
  0
ARC
  8
0
  6
CONTINUOUS
 62
     7
 10
-8.7202425
 20
44.165306
 40
2
 50
270
 51
330
  0
ARC
  8
0
  6
CONTINUOUS
 62
     7
 10
-29.720242
 20
44.165306
 40
2
 50
210
 51
270
  0
ARC
  8
0
  6
CONTINUOUS
 62
     7
 10
-5.2561407
 20
42.165306
 40
2
 50
90.000003
 51
150
  0
ARC
  8
0
  6
CONTINUOUS
 62
     7
 10
-33.184345
 20
42.165306
 40
2
 50
30.000001
 51
90.000003
  0
ARC
  8
0
  6
CONTINUOUS
 62
     7
 10
-5.2561407
 20
102.16531
 40
2
 50
210
 51
270
  0
ARC
  8
0
  6
CONTINUOUS
 62
     7
 10
-33.184345
 20
102.16531
 40
2
 50
270
 51
330
  0
ARC
  8
0
  6
CONTINUOUS
 62
     7
 10
95.03167
 20
106.66531
 40
2
 50
30.000001
 51
90.000003
  0
ARC
  8
0
  6
CONTINUOUS
 62
     7
 10
71.53167
 20
106.66531
 40
2
 50
90.000003
 51
150
  0
ARC
  8
0
  6
CONTINUOUS
 62
     7
 10
71.53167
 20
37.665306
 40
2
 50
210
 51
270
  0
ARC
  8
0
  6
CONTINUOUS
 62
     7
 10
95.03167
 20
37.665306
 40
2
 50
270
 51
330
  0
ARC
  8
0
  6
CONTINUOUS
 62
     7
 10
98.495766
 20
35.665306
 40
2
 50
90.000003
 51
150
  0
ARC
  8
0
  6
CONTINUOUS
 62
     7
 10
68.067566
 20
35.665306
 40
2
 50
30.000001
 51
90.000003
  0
ARC
  8
0
  6
CONTINUOUS
 62
     7
 10
98.495766
 20
108.66531
 40
2
 50
210
 51
270
  0
ARC
  8
0
  6
CONTINUOUS
 62
     7
 10
68.067566
 20
108.66531
 40
2
 50
270
 51
330
  0
ARC
  8
0
  6
CONTINUOUS
 62
     7
 10
208.05751
 20
121.16531
 40
6
 50
270
 51
324.31468
  0
ARC
  8
0
  6
CONTINUOUS
 62
     7
 10
171.80431
 20
121.16531
 40
6
 50
215.68536
 51
270.00002
  0
ARC
  8
0
  6
CONTINUOUS
 62
     7
 10
208.05751
 20
23.165306
 40
6
 50
35.685324
 51
90.000003
  0
ARC
  8
0
  6
CONTINUOUS
 62
     7
 10
171.80431
 20
23.165306
 40
6
 50
89.999982
 51
144.31464
  0
ARC
  8
0
  6
CONTINUOUS
 62
     7
 10
-192.9126
 20
-25.361658
 40
10
 50
270
 51
315.57299
  0
ARC
  8
0
  6
CONTINUOUS
 62
     7
 10
-227.62975
 20
-25.361658
 40
10
 50
224.42703
 51
270.00002
  0
ARC
  8
0
  6
CONTINUOUS
 62
     7
 10
-192.9126
 20
-144.36166
 40
10
 50
44.42701
 51
90.000003
  0
ARC
  8
0
  6
CONTINUOUS
 62
     7
 10
-227.62975
 20
-144.36166
 40
10
 50
89.999982
 51
135.57297
  0
ARC
  8
0
  6
CONTINUOUS
 62
     7
 10
-78.257378
 20
-11.361673
 40
10
 50
270
 51
315.57299
  0
ARC
  8
0
  6
CONTINUOUS
 62
     7
 10
-116.97452
 20
-11.361673
 40
10
 50
224.42703
 51
270.00002
  0
ARC
  8
0
  6
CONTINUOUS
 62
     7
 10
-122.11595
 20
-78.861656
 40
2
 50
179.99999
 51
270
  0
ARC
  8
0
  6
CONTINUOUS
 62
     7
 10
-73.115952
 20
-78.861656
 40
2
 50
270
 51
0
  0
ARC
  8
0
  6
CONTINUOUS
 62
     7
 10
-78.257378
 20
-158.36165
 40
10
 50
44.42701
 51
90.000003
  0
ARC
  8
0
  6
CONTINUOUS
 62
     7
 10
-116.97452
 20
-158.36165
 40
10
 50
89.999982
 51
135.57297
  0
ARC
  8
0
  6
CONTINUOUS
 62
     7
 10
-122.11595
 20
-90.861656
 40
2
 50
90.000003
 51
180.00001
  0
ARC
  8
0
  6
CONTINUOUS
 62
     7
 10
-73.115952
 20
-90.861656
 40
2
 50
0
 51
90.000003
  0
ARC
  8
0
  6
CONTINUOUS
 62
     7
 10
57.680424
 20
2.1383269
 40
10
 50
270
 51
319.45841
  0
ARC
  8
0
  6
CONTINUOUS
 62
     7
 10
13.879123
 20
2.1383421
 40
10
 50
220.54162
 51
270.00002
  0
ARC
  8
0
  6
CONTINUOUS
 62
     7
 10
11.279757
 20
-75.861656
 40
5
 50
179.99998
 51
270.00003
  0
ARC
  8
0
  6
CONTINUOUS
 62
     7
 10
60.279789
 20
-75.861656
 40
5
 50
270.00002
 51
0
  0
ARC
  8
0
  6
CONTINUOUS
 62
     7
 10
57.680424
 20
-171.86165
 40
10
 50
40.541588
 51
90.000003
  0
ARC
  8
0
  6
CONTINUOUS
 62
     7
 10
13.879123
 20
-171.86166
 40
10
 50
89.999982
 51
139.45838
  0
ARC
  8
0
  6
CONTINUOUS
 62
     7
 10
11.279757
 20
-93.861656
 40
5
 50
89.999982
 51
180.00002
  0
ARC
  8
0
  6
CONTINUOUS
 62
     7
 10
60.279789
 20
-93.861656
 40
5
 50
0
 51
89.999982
  0
ARC
  8
0
  6
CONTINUOUS
 62
     7
 10
214.83157
 20
16.138342
 40
10
 50
270
 51
319.45841
  0
ARC
  8
0
  6
CONTINUOUS
 62
     7
 10
165.03027
 20
16.138327
 40
10
 50
220.54162
 51
270.00002
  0
ARC
  8
0
  6
CONTINUOUS
 62
     7
 10
162.43091
 20
-75.861656
 40
5
 50
179.99998
 51
270.00003
  0
ARC
  8
0
  6
CONTINUOUS
 62
     7
 10
217.43091
 20
-75.861656
 40
5
 50
270.00002
 51
0
  0
ARC
  8
0
  6
CONTINUOUS
 62
     7
 10
214.83157
 20
-185.86166
 40
10
 50
40.541588
 51
90.000003
  0
ARC
  8
0
  6
CONTINUOUS
 62
     7
 10
165.03027
 20
-185.86165
 40
10
 50
89.999982
 51
139.45838
  0
ARC
  8
0
  6
CONTINUOUS
 62
     7
 10
162.43091
 20
-93.861656
 40
5
 50
89.999982
 51
180.00002
  0
ARC
  8
0
  6
CONTINUOUS
 62
     7
 10
217.43091
 20
-93.861656
 40
5
 50
0
 51
89.999982
  0
ARC
  8
0
  6
CONTINUOUS
 62
     7
 10
45.081665
 20
145.92375
 40
1.8
 50
306.00832
 51
53.991676
  0
ARC
  8
0
  6
CONTINUOUS
 62
     7
 10
45.081665
 20
145.92375
 40
2.7
 50
306.00832
 51
53.991676
  0
ARC
  8
0
  6
CONTINUOUS
 62
     7
 10
41.481667
 20
145.92375
 40
1.8
 50
126.00833
 51
233.99168
  0
ARC
  8
0
  6
CONTINUOUS
 62
     7
 10
41.481667
 20
145.92375
 40
2.7
 50
126.00833
 51
233.99168
  0
ARC
  8
0
  6
CONTINUOUS
 62
     7
 10
43.281666
 20
143.44702
 40
5.7617307
 50
53.991676
 51
85.520553
  0
ARC
  8
0
  6
CONTINUOUS
 62
     7
 10
43.281666
 20
143.44702
 40
4.8617306
 50
53.991676
 51
84.689121
  0
ARC
  8
0
  6
CONTINUOUS
 62
     7
 10
43.281666
 20
148.40048
 40
4.8617306
 50
233.99167
 51
306.00832
  0
ARC
  8
0
  6
CONTINUOUS
 62
     7
 10
43.281666
 20
148.40048
 40
5.7617307
 50
233.99167
 51
265.52055
  0
ARC
  8
0
  6
CONTINUOUS
 62
     7
 10
43.281666
 20
150.08626
 40
0.5625
 50
36.869897
 51
143.1301
  0
ARC
  8
0
  6
CONTINUOUS
 62
     7
 10
43.281666
 20
146.26125
 40
0.5625
 50
216.8699
 51
323.1301
  0
ARC
  8
0
  6
CONTINUOUS
 62
     7
 10
43.281666
 20
141.76125
 40
0.5625
 50
216.8699
 51
323.1301
  0
ARC
  8
0
  6
CONTINUOUS
 62
     7
 10
43.281666
 20
143.44702
 40
5.7617307
 50
94.479452
 51
126.00833
  0
ARC
  8
0
  6
CONTINUOUS
 62
     7
 10
43.281666
 20
143.44702
 40
4.8617306
 50
95.310878
 51
126.00833
  0
ARC
  8
0
  6
CONTINUOUS
 62
     7
 10
43.281666
 20
148.40048
 40
5.7617307
 50
274.47945
 51
306.00832
  0
ARC
  8
0
  6
CONTINUOUS
 62
     7
 10
141.73091
 20
145.92375
 40
1.8
 50
306.00832
 51
53.991676
  0
ARC
  8
0
  6
CONTINUOUS
 62
     7
 10
141.73091
 20
145.92375
 40
2.7
 50
306.00832
 51
53.991676
  0
ARC
  8
0
  6
CONTINUOUS
 62
     7
 10
138.13091
 20
145.92375
 40
1.8
 50
126.00833
 51
233.99168
  0
ARC
  8
0
  6
CONTINUOUS
 62
     7
 10
138.13091
 20
145.92375
 40
2.7
 50
126.00833
 51
233.99168
  0
ARC
  8
0
  6
CONTINUOUS
 62
     7
 10
139.93091
 20
143.44702
 40
5.7617307
 50
53.991676
 51
85.520553
  0
ARC
  8
0
  6
CONTINUOUS
 62
     7
 10
139.93091
 20
143.44702
 40
4.8617306
 50
53.991676
 51
84.689121
  0
ARC
  8
0
  6
CONTINUOUS
 62
     7
 10
139.93091
 20
148.40048
 40
4.8617306
 50
233.99167
 51
306.00832
  0
ARC
  8
0
  6
CONTINUOUS
 62
     7
 10
139.93091
 20
148.40048
 40
5.7617307
 50
233.99167
 51
265.52055
  0
ARC
  8
0
  6
CONTINUOUS
 62
     7
 10
139.93091
 20
150.08626
 40
0.5625
 50
36.869897
 51
143.1301
  0
ARC
  8
0
  6
CONTINUOUS
 62
     7
 10
139.93091
 20
146.26125
 40
0.5625
 50
216.8699
 51
323.1301
  0
ARC
  8
0
  6
CONTINUOUS
 62
     7
 10
139.93091
 20
141.76125
 40
0.5625
 50
216.8699
 51
323.1301
  0
ARC
  8
0
  6
CONTINUOUS
 62
     7
 10
139.93091
 20
143.44702
 40
5.7617307
 50
94.479452
 51
126.00833
  0
ARC
  8
0
  6
CONTINUOUS
 62
     7
 10
139.93091
 20
143.44702
 40
4.8617306
 50
95.310878
 51
126.00833
  0
ARC
  8
0
  6
CONTINUOUS
 62
     7
 10
139.93091
 20
148.40048
 40
5.7617307
 50
274.47945
 51
306.00832
  0
ARC
  8
0
  6
CONTINUOUS
 62
     7
 10
-217.87119
 20
72.165306
 40
2.4000001
 50
306.00832
 51
53.991676
  0
ARC
  8
0
  6
CONTINUOUS
 62
     7
 10
-217.87119
 20
72.165306
 40
3.5999999
 50
306.00832
 51
53.991676
  0
ARC
  8
0
  6
CONTINUOUS
 62
     7
 10
-222.67117
 20
72.165306
 40
2.4000001
 50
126.00833
 51
233.99168
  0
ARC
  8
0
  6
CONTINUOUS
 62
     7
 10
-222.67117
 20
72.165306
 40
3.5999999
 50
126.00833
 51
233.99168
  0
ARC
  8
0
  6
CONTINUOUS
 62
     7
 10
-220.27118
 20
68.862999
 40
7.6823077
 50
53.991676
 51
85.520553
  0
ARC
  8
0
  6
CONTINUOUS
 62
     7
 10
-220.27118
 20
68.862999
 40
6.4823079
 50
53.991676
 51
84.689121
  0
ARC
  8
0
  6
CONTINUOUS
 62
     7
 10
-220.27118
 20
75.467613
 40
6.4823079
 50
233.99167
 51
306.00832
  0
ARC
  8
0
  6
CONTINUOUS
 62
     7
 10
-220.27118
 20
75.467613
 40
7.6823077
 50
233.99167
 51
265.52055
  0
ARC
  8
0
  6
CONTINUOUS
 62
     7
 10
-220.27118
 20
77.715309
 40
0.75
 50
36.869897
 51
143.1301
  0
ARC
  8
0
  6
CONTINUOUS
 62
     7
 10
-220.27118
 20
72.615303
 40
0.75
 50
216.8699
 51
323.1301
  0
ARC
  8
0
  6
CONTINUOUS
 62
     7
 10
-220.27118
 20
66.615303
 40
0.75
 50
216.8699
 51
323.1301
  0
ARC
  8
0
  6
CONTINUOUS
 62
     7
 10
-220.27118
 20
68.862999
 40
6.4823079
 50
95.310878
 51
126.00833
  0
ARC
  8
0
  6
CONTINUOUS
 62
     7
 10
-220.27118
 20
68.862999
 40
7.6823077
 50
94.479452
 51
126.00833
  0
ARC
  8
0
  6
CONTINUOUS
 62
     7
 10
-220.27118
 20
75.467613
 40
7.6823077
 50
274.47945
 51
306.00832
  0
ARC
  8
0
  6
CONTINUOUS
 62
     7
 10
-209.07118
 20
145.92375
 40
1.2
 50
306.00832
 51
53.991676
  0
ARC
  8
0
  6
CONTINUOUS
 62
     7
 10
-209.07118
 20
145.92375
 40
1.8
 50
306.00832
 51
53.991676
  0
ARC
  8
0
  6
CONTINUOUS
 62
     7
 10
-211.47118
 20
145.92375
 40
1.2
 50
126.00833
 51
233.99168
  0
ARC
  8
0
  6
CONTINUOUS
 62
     7
 10
-211.47118
 20
145.92375
 40
1.8
 50
126.00833
 51
233.99168
  0
ARC
  8
0
  6
CONTINUOUS
 62
     7
 10
-210.27118
 20
144.2726
 40
3.8411539
 50
53.991676
 51
85.520553
  0
ARC
  8
0
  6
CONTINUOUS
 62
     7
 10
-210.27118
 20
144.2726
 40
3.241154
 50
53.991676
 51
84.689121
  0
ARC
  8
0
  6
CONTINUOUS
 62
     7
 10
-210.27118
 20
147.57491
 40
3.241154
 50
233.99167
 51
306.00832
  0
ARC
  8
0
  6
CONTINUOUS
 62
     7
 10
-210.27118
 20
147.57491
 40
3.8411539
 50
233.99167
 51
265.52055
  0
ARC
  8
0
  6
CONTINUOUS
 62
     7
 10
-210.27118
 20
148.69875
 40
0.375
 50
36.869897
 51
143.1301
  0
ARC
  8
0
  6
CONTINUOUS
 62
     7
 10
-210.27118
 20
146.14876
 40
0.375
 50
216.8699
 51
323.1301
  0
ARC
  8
0
  6
CONTINUOUS
 62
     7
 10
-210.27118
 20
143.14876
 40
0.375
 50
216.8699
 51
323.1301
  0
ARC
  8
0
  6
CONTINUOUS
 62
     7
 10
-210.27118
 20
147.57491
 40
3.8411539
 50
274.47945
 51
306.00832
  0
ARC
  8
0
  6
CONTINUOUS
 62
     7
 10
-210.27118
 20
144.2726
 40
3.241154
 50
95.310878
 51
126.00833
  0
ARC
  8
0
  6
CONTINUOUS
 62
     7
 10
-210.27118
 20
144.2726
 40
3.8411539
 50
94.479452
 51
126.00833
  0
ARC
  8
0
  6
CONTINUOUS
 62
     7
 10
-115.21594
 20
72.165306
 40
2.4000001
 50
306.00832
 51
53.991676
  0
ARC
  8
0
  6
CONTINUOUS
 62
     7
 10
-115.21594
 20
72.165306
 40
3.5999999
 50
306.00832
 51
53.991676
  0
ARC
  8
0
  6
CONTINUOUS
 62
     7
 10
-120.01595
 20
72.165306
 40
2.4000001
 50
126.00833
 51
233.99168
  0
ARC
  8
0
  6
CONTINUOUS
 62
     7
 10
-120.01595
 20
72.165306
 40
3.5999999
 50
126.00833
 51
233.99168
  0
ARC
  8
0
  6
CONTINUOUS
 62
     7
 10
-117.61594
 20
68.862999
 40
7.6823077
 50
53.991676
 51
85.520553
  0
ARC
  8
0
  6
CONTINUOUS
 62
     7
 10
-117.61594
 20
68.862999
 40
6.4823079
 50
53.991676
 51
84.689121
  0
ARC
  8
0
  6
CONTINUOUS
 62
     7
 10
-117.61594
 20
75.467613
 40
6.4823079
 50
233.99167
 51
306.00832
  0
ARC
  8
0
  6
CONTINUOUS
 62
     7
 10
-117.61594
 20
75.467613
 40
7.6823077
 50
233.99167
 51
265.52055
  0
ARC
  8
0
  6
CONTINUOUS
 62
     7
 10
-117.61594
 20
77.715309
 40
0.75
 50
36.869897
 51
143.1301
  0
ARC
  8
0
  6
CONTINUOUS
 62
     7
 10
-117.61594
 20
72.615303
 40
0.75
 50
216.8699
 51
323.1301
  0
ARC
  8
0
  6
CONTINUOUS
 62
     7
 10
-117.61594
 20
66.615303
 40
0.75
 50
216.8699
 51
323.1301
  0
ARC
  8
0
  6
CONTINUOUS
 62
     7
 10
-117.61594
 20
68.862999
 40
6.4823079
 50
95.310878
 51
126.00833
  0
ARC
  8
0
  6
CONTINUOUS
 62
     7
 10
-117.61594
 20
68.862999
 40
7.6823077
 50
94.479452
 51
126.00833
  0
ARC
  8
0
  6
CONTINUOUS
 62
     7
 10
-117.61594
 20
75.467613
 40
7.6823077
 50
274.47945
 51
306.00832
  0
ARC
  8
0
  6
CONTINUOUS
 62
     7
 10
-136.41594
 20
145.92375
 40
1.2
 50
306.00832
 51
53.991676
  0
ARC
  8
0
  6
CONTINUOUS
 62
     7
 10
-136.41594
 20
145.92375
 40
1.8
 50
306.00832
 51
53.991676
  0
ARC
  8
0
  6
CONTINUOUS
 62
     7
 10
-138.81593
 20
145.92375
 40
1.2
 50
126.00833
 51
233.99168
  0
ARC
  8
0
  6
CONTINUOUS
 62
     7
 10
-138.81593
 20
145.92375
 40
1.8
 50
126.00833
 51
233.99168
  0
ARC
  8
0
  6
CONTINUOUS
 62
     7
 10
-137.61594
 20
144.2726
 40
3.8411539
 50
53.991676
 51
85.520553
  0
ARC
  8
0
  6
CONTINUOUS
 62
     7
 10
-137.61594
 20
144.2726
 40
3.241154
 50
53.991676
 51
84.689121
  0
ARC
  8
0
  6
CONTINUOUS
 62
     7
 10
-137.61594
 20
147.57491
 40
3.241154
 50
233.99167
 51
306.00832
  0
ARC
  8
0
  6
CONTINUOUS
 62
     7
 10
-137.61594
 20
147.57491
 40
3.8411539
 50
233.99167
 51
265.52055
  0
ARC
  8
0
  6
CONTINUOUS
 62
     7
 10
-137.61594
 20
148.69875
 40
0.375
 50
36.869897
 51
143.1301
  0
ARC
  8
0
  6
CONTINUOUS
 62
     7
 10
-137.61594
 20
146.14876
 40
0.375
 50
216.8699
 51
323.1301
  0
ARC
  8
0
  6
CONTINUOUS
 62
     7
 10
-137.61594
 20
143.14876
 40
0.375
 50
216.8699
 51
323.1301
  0
ARC
  8
0
  6
CONTINUOUS
 62
     7
 10
-137.61594
 20
147.57491
 40
3.8411539
 50
274.47945
 51
306.00832
  0
ARC
  8
0
  6
CONTINUOUS
 62
     7
 10
-137.61594
 20
144.2726
 40
3.241154
 50
95.310878
 51
126.00833
  0
ARC
  8
0
  6
CONTINUOUS
 62
     7
 10
-137.61594
 20
144.2726
 40
3.8411539
 50
94.479452
 51
126.00833
  0
ARC
  8
0
  6
CONTINUOUS
 62
     7
 10
-47.420242
 20
145.92375
 40
1.8
 50
306.00832
 51
53.991676
  0
ARC
  8
0
  6
CONTINUOUS
 62
     7
 10
-47.420242
 20
145.92375
 40
2.7
 50
306.00832
 51
53.991676
  0
ARC
  8
0
  6
CONTINUOUS
 62
     7
 10
-51.020241
 20
145.92375
 40
1.8
 50
126.00833
 51
233.99168
  0
ARC
  8
0
  6
CONTINUOUS
 62
     7
 10
-51.020241
 20
145.92375
 40
2.7
 50
126.00833
 51
233.99168
  0
ARC
  8
0
  6
CONTINUOUS
 62
     7
 10
-49.220242
 20
143.44702
 40
5.7617307
 50
53.991676
 51
85.520553
  0
ARC
  8
0
  6
CONTINUOUS
 62
     7
 10
-49.220242
 20
143.44702
 40
4.8617306
 50
53.991676
 51
84.689121
  0
ARC
  8
0
  6
CONTINUOUS
 62
     7
 10
-49.220242
 20
148.40048
 40
4.8617306
 50
233.99167
 51
306.00832
  0
ARC
  8
0
  6
CONTINUOUS
 62
     7
 10
-49.220242
 20
148.40048
 40
5.7617307
 50
233.99167
 51
265.52055
  0
ARC
  8
0
  6
CONTINUOUS
 62
     7
 10
-49.220242
 20
150.08626
 40
0.5625
 50
36.869897
 51
143.1301
  0
ARC
  8
0
  6
CONTINUOUS
 62
     7
 10
-49.220242
 20
146.26125
 40
0.5625
 50
216.8699
 51
323.1301
  0
ARC
  8
0
  6
CONTINUOUS
 62
     7
 10
-49.220242
 20
141.76125
 40
0.5625
 50
216.8699
 51
323.1301
  0
ARC
  8
0
  6
CONTINUOUS
 62
     7
 10
-49.220242
 20
143.44702
 40
5.7617307
 50
94.479452
 51
126.00833
  0
ARC
  8
0
  6
CONTINUOUS
 62
     7
 10
-49.220242
 20
143.44702
 40
4.8617306
 50
95.310878
 51
126.00833
  0
ARC
  8
0
  6
CONTINUOUS
 62
     7
 10
-49.220242
 20
148.40048
 40
5.7617307
 50
274.47945
 51
306.00832
  0
ARC
  8
0
  6
CONTINUOUS
 62
     7
 10
-16.820242
 20
72.165306
 40
2.4000001
 50
306.00832
 51
53.991676
  0
ARC
  8
0
  6
CONTINUOUS
 62
     7
 10
-16.820242
 20
72.165306
 40
3.5999999
 50
306.00832
 51
53.991676
  0
ARC
  8
0
  6
CONTINUOUS
 62
     7
 10
-21.620241
 20
72.165306
 40
2.4000001
 50
126.00833
 51
233.99168
  0
ARC
  8
0
  6
CONTINUOUS
 62
     7
 10
-21.620241
 20
72.165306
 40
3.5999999
 50
126.00833
 51
233.99168
  0
ARC
  8
0
  6
CONTINUOUS
 62
     7
 10
-19.220242
 20
68.862999
 40
7.6823077
 50
53.991676
 51
85.520553
  0
ARC
  8
0
  6
CONTINUOUS
 62
     7
 10
-19.220242
 20
68.862999
 40
6.4823079
 50
53.991676
 51
84.689121
  0
ARC
  8
0
  6
CONTINUOUS
 62
     7
 10
-19.220242
 20
75.467613
 40
6.4823079
 50
233.99167
 51
306.00832
  0
ARC
  8
0
  6
CONTINUOUS
 62
     7
 10
-19.220242
 20
75.467613
 40
7.6823077
 50
233.99167
 51
265.52055
  0
ARC
  8
0
  6
CONTINUOUS
 62
     7
 10
-19.220242
 20
77.715309
 40
0.75
 50
36.869897
 51
143.1301
  0
ARC
  8
0
  6
CONTINUOUS
 62
     7
 10
-19.220242
 20
72.615303
 40
0.75
 50
216.8699
 51
323.1301
  0
ARC
  8
0
  6
CONTINUOUS
 62
     7
 10
-19.220242
 20
66.615303
 40
0.75
 50
216.8699
 51
323.1301
  0
ARC
  8
0
  6
CONTINUOUS
 62
     7
 10
-19.220242
 20
68.862999
 40
6.4823079
 50
95.310878
 51
126.00833
  0
ARC
  8
0
  6
CONTINUOUS
 62
     7
 10
-19.220242
 20
68.862999
 40
7.6823077
 50
94.479452
 51
126.00833
  0
ARC
  8
0
  6
CONTINUOUS
 62
     7
 10
-19.220242
 20
75.467613
 40
7.6823077
 50
274.47945
 51
306.00832
  0
ARC
  8
0
  6
CONTINUOUS
 62
     7
 10
86.28167
 20
72.165306
 40
3
 50
306.00832
 51
53.991676
  0
ARC
  8
0
  6
CONTINUOUS
 62
     7
 10
86.28167
 20
72.165306
 40
4.5
 50
306.00832
 51
53.991676
  0
ARC
  8
0
  6
CONTINUOUS
 62
     7
 10
80.28167
 20
72.165306
 40
3
 50
126.00833
 51
233.99168
  0
ARC
  8
0
  6
CONTINUOUS
 62
     7
 10
80.28167
 20
72.165306
 40
4.5
 50
126.00833
 51
233.99168
  0
ARC
  8
0
  6
CONTINUOUS
 62
     7
 10
83.28167
 20
68.037422
 40
9.6028843
 50
53.991676
 51
85.520553
  0
ARC
  8
0
  6
CONTINUOUS
 62
     7
 10
83.28167
 20
68.037422
 40
8.1028843
 50
53.991676
 51
84.689121
  0
ARC
  8
0
  6
CONTINUOUS
 62
     7
 10
83.28167
 20
76.29319
 40
8.1028843
 50
233.99167
 51
306.00832
  0
ARC
  8
0
  6
CONTINUOUS
 62
     7
 10
83.28167
 20
76.29319
 40
9.6028843
 50
233.99167
 51
265.52055
  0
ARC
  8
0
  6
CONTINUOUS
 62
     7
 10
83.28167
 20
79.102806
 40
0.9375
 50
36.869897
 51
143.1301
  0
ARC
  8
0
  6
CONTINUOUS
 62
     7
 10
83.28167
 20
72.727806
 40
0.9375
 50
216.8699
 51
323.1301
  0
ARC
  8
0
  6
CONTINUOUS
 62
     7
 10
83.28167
 20
65.227806
 40
0.9375
 50
216.8699
 51
323.1301
  0
ARC
  8
0
  6
CONTINUOUS
 62
     7
 10
83.28167
 20
68.037422
 40
9.6028843
 50
94.479452
 51
126.00833
  0
ARC
  8
0
  6
CONTINUOUS
 62
     7
 10
83.28167
 20
68.037422
 40
8.1028843
 50
95.310878
 51
126.00833
  0
ARC
  8
0
  6
CONTINUOUS
 62
     7
 10
83.28167
 20
76.29319
 40
9.6028843
 50
274.47945
 51
306.00832
  0
ARC
  8
0
  6
CONTINUOUS
 62
     7
 10
192.93091
 20
72.165306
 40
3
 50
306.00832
 51
53.991676
  0
ARC
  8
0
  6
CONTINUOUS
 62
     7
 10
192.93091
 20
72.165306
 40
4.5
 50
306.00832
 51
53.991676
  0
ARC
  8
0
  6
CONTINUOUS
 62
     7
 10
186.93091
 20
72.165306
 40
3
 50
126.00833
 51
233.99168
  0
ARC
  8
0
  6
CONTINUOUS
 62
     7
 10
186.93091
 20
72.165306
 40
4.5
 50
126.00833
 51
233.99168
  0
ARC
  8
0
  6
CONTINUOUS
 62
     7
 10
189.93091
 20
68.037422
 40
9.6028843
 50
53.991676
 51
85.520553
  0
ARC
  8
0
  6
CONTINUOUS
 62
     7
 10
189.93091
 20
68.037422
 40
8.1028843
 50
53.991676
 51
84.689121
  0
ARC
  8
0
  6
CONTINUOUS
 62
     7
 10
189.93091
 20
76.29319
 40
8.1028843
 50
233.99167
 51
306.00832
  0
ARC
  8
0
  6
CONTINUOUS
 62
     7
 10
189.93091
 20
76.29319
 40
9.6028843
 50
233.99167
 51
265.52055
  0
ARC
  8
0
  6
CONTINUOUS
 62
     7
 10
189.93091
 20
79.102806
 40
0.9375
 50
36.869897
 51
143.1301
  0
ARC
  8
0
  6
CONTINUOUS
 62
     7
 10
189.93091
 20
72.727806
 40
0.9375
 50
216.8699
 51
323.1301
  0
ARC
  8
0
  6
CONTINUOUS
 62
     7
 10
189.93091
 20
65.227806
 40
0.9375
 50
216.8699
 51
323.1301
  0
ARC
  8
0
  6
CONTINUOUS
 62
     7
 10
189.93091
 20
68.037422
 40
9.6028843
 50
94.479452
 51
126.00833
  0
ARC
  8
0
  6
CONTINUOUS
 62
     7
 10
189.93091
 20
68.037422
 40
8.1028843
 50
95.310878
 51
126.00833
  0
ARC
  8
0
  6
CONTINUOUS
 62
     7
 10
189.93091
 20
76.29319
 40
9.6028843
 50
274.47945
 51
306.00832
  0
ARC
  8
0
  6
CONTINUOUS
 62
     7
 10
-206.67117
 20
-84.861656
 40
3.5999999
 50
306.00832
 51
53.991676
  0
ARC
  8
0
  6
CONTINUOUS
 62
     7
 10
-206.67117
 20
-84.861656
 40
5.4000001
 50
306.00832
 51
53.991676
  0
ARC
  8
0
  6
CONTINUOUS
 62
     7
 10
-213.87119
 20
-84.861656
 40
3.5999999
 50
126.00833
 51
233.99168
  0
ARC
  8
0
  6
CONTINUOUS
 62
     7
 10
-213.87119
 20
-84.861656
 40
5.4000001
 50
126.00833
 51
233.99168
  0
ARC
  8
0
  6
CONTINUOUS
 62
     7
 10
-210.27118
 20
-89.815117
 40
11.523461
 50
53.991676
 51
85.520553
  0
ARC
  8
0
  6
CONTINUOUS
 62
     7
 10
-210.27118
 20
-89.815117
 40
9.7234612
 50
53.991676
 51
84.689121
  0
ARC
  8
0
  6
CONTINUOUS
 62
     7
 10
-210.27118
 20
-79.908195
 40
9.7234612
 50
233.99167
 51
306.00832
  0
ARC
  8
0
  6
CONTINUOUS
 62
     7
 10
-210.27118
 20
-79.908195
 40
11.523461
 50
233.99167
 51
265.52055
  0
ARC
  8
0
  6
CONTINUOUS
 62
     7
 10
-210.27118
 20
-76.536659
 40
1.125
 50
36.869897
 51
143.1301
  0
ARC
  8
0
  6
CONTINUOUS
 62
     7
 10
-210.27118
 20
-84.186653
 40
1.125
 50
216.8699
 51
323.1301
  0
ARC
  8
0
  6
CONTINUOUS
 62
     7
 10
-210.27118
 20
-93.186653
 40
1.125
 50
216.8699
 51
323.1301
  0
ARC
  8
0
  6
CONTINUOUS
 62
     7
 10
-210.27118
 20
-89.815117
 40
11.523461
 50
94.479452
 51
126.00833
  0
ARC
  8
0
  6
CONTINUOUS
 62
     7
 10
-210.27118
 20
-89.815117
 40
9.7234612
 50
95.310878
 51
126.00833
  0
ARC
  8
0
  6
CONTINUOUS
 62
     7
 10
-210.27118
 20
-79.908195
 40
11.523461
 50
274.47945
 51
306.00832
  0
ARC
  8
0
  6
CONTINUOUS
 62
     7
 10
-93.690956
 20
-65.961655
 40
3.5999999
 50
306.00832
 51
53.991676
  0
ARC
  8
0
  6
CONTINUOUS
 62
     7
 10
-93.690956
 20
-65.961655
 40
5.4000001
 50
306.00832
 51
53.991676
  0
ARC
  8
0
  6
CONTINUOUS
 62
     7
 10
-100.89095
 20
-65.961655
 40
3.5999999
 50
126.00833
 51
233.99168
  0
ARC
  8
0
  6
CONTINUOUS
 62
     7
 10
-100.89095
 20
-65.961655
 40
5.4000001
 50
126.00833
 51
233.99168
  0
ARC
  8
0
  6
CONTINUOUS
 62
     7
 10
-97.290955
 20
-70.915115
 40
11.523461
 50
53.991676
 51
85.520553
  0
ARC
  8
0
  6
CONTINUOUS
 62
     7
 10
-97.290955
 20
-70.915115
 40
9.7234612
 50
53.991676
 51
84.689121
  0
ARC
  8
0
  6
CONTINUOUS
 62
     7
 10
-97.290955
 20
-61.008194
 40
9.7234612
 50
233.99167
 51
306.00832
  0
ARC
  8
0
  6
CONTINUOUS
 62
     7
 10
-97.290955
 20
-61.008194
 40
11.523461
 50
233.99167
 51
265.52055
  0
ARC
  8
0
  6
CONTINUOUS
 62
     7
 10
-97.290955
 20
-57.636654
 40
1.125
 50
36.869897
 51
143.1301
  0
ARC
  8
0
  6
CONTINUOUS
 62
     7
 10
-97.290955
 20
-65.286652
 40
1.125
 50
216.8699
 51
323.1301
  0
ARC
  8
0
  6
CONTINUOUS
 62
     7
 10
-97.290955
 20
-74.286652
 40
1.125
 50
216.8699
 51
323.1301
  0
ARC
  8
0
  6
CONTINUOUS
 62
     7
 10
-97.290955
 20
-70.915115
 40
11.523461
 50
94.479452
 51
126.00833
  0
ARC
  8
0
  6
CONTINUOUS
 62
     7
 10
-97.290955
 20
-70.915115
 40
9.7234612
 50
95.310878
 51
126.00833
  0
ARC
  8
0
  6
CONTINUOUS
 62
     7
 10
-97.290955
 20
-61.008194
 40
11.523461
 50
274.47945
 51
306.00832
  0
ARC
  8
0
  6
CONTINUOUS
 62
     7
 10
40.054756
 20
-66.311661
 40
4.8000002
 50
306.00832
 51
53.991676
  0
ARC
  8
0
  6
CONTINUOUS
 62
     7
 10
40.054756
 20
-66.311661
 40
7.1999998
 50
306.00832
 51
53.991676
  0
ARC
  8
0
  6
CONTINUOUS
 62
     7
 10
30.454758
 20
-66.311661
 40
4.8000002
 50
126.00833
 51
233.99168
  0
ARC
  8
0
  6
CONTINUOUS
 62
     7
 10
30.454758
 20
-66.311661
 40
7.1999998
 50
126.00833
 51
233.99168
  0
ARC
  8
0
  6
CONTINUOUS
 62
     7
 10
35.254757
 20
-72.916275
 40
15.364615
 50
53.991676
 51
85.520553
  0
ARC
  8
0
  6
CONTINUOUS
 62
     7
 10
35.254757
 20
-72.916275
 40
12.964616
 50
53.991676
 51
84.689121
  0
ARC
  8
0
  6
CONTINUOUS
 62
     7
 10
35.254757
 20
-59.707047
 40
15.364615
 50
233.99167
 51
265.52055
  0
ARC
  8
0
  6
CONTINUOUS
 62
     7
 10
35.254757
 20
-55.211662
 40
1.5
 50
36.869897
 51
143.1301
  0
ARC
  8
0
  6
CONTINUOUS
 62
     7
 10
35.254757
 20
-65.411659
 40
1.5
 50
216.8699
 51
323.1301
  0
ARC
  8
0
  6
CONTINUOUS
 62
     7
 10
35.254757
 20
-77.411659
 40
1.5
 50
216.8699
 51
323.1301
  0
ARC
  8
0
  6
CONTINUOUS
 62
     7
 10
35.254757
 20
-59.707047
 40
12.964616
 50
233.99167
 51
306.00832
  0
ARC
  8
0
  6
CONTINUOUS
 62
     7
 10
35.254757
 20
-59.707047
 40
15.364615
 50
274.47945
 51
306.00832
  0
ARC
  8
0
  6
CONTINUOUS
 62
     7
 10
35.254757
 20
-72.916275
 40
12.964616
 50
95.310878
 51
126.00833
  0
ARC
  8
0
  6
CONTINUOUS
 62
     7
 10
35.254757
 20
-72.916275
 40
15.364615
 50
94.479452
 51
126.00833
  0
ARC
  8
0
  6
CONTINUOUS
 62
     7
 10
194.55591
 20
-65.261658
 40
4.8000002
 50
306.00832
 51
53.991676
  0
ARC
  8
0
  6
CONTINUOUS
 62
     7
 10
194.55591
 20
-65.261658
 40
7.1999998
 50
306.00832
 51
53.991676
  0
ARC
  8
0
  6
CONTINUOUS
 62
     7
 10
184.9559
 20
-65.261658
 40
4.8000002
 50
126.00833
 51
233.99168
  0
ARC
  8
0
  6
CONTINUOUS
 62
     7
 10
184.9559
 20
-65.261658
 40
7.1999998
 50
126.00833
 51
233.99168
  0
ARC
  8
0
  6
CONTINUOUS
 62
     7
 10
189.75591
 20
-71.866272
 40
15.364615
 50
53.991676
 51
85.520553
  0
ARC
  8
0
  6
CONTINUOUS
 62
     7
 10
189.75591
 20
-71.866272
 40
12.964616
 50
53.991676
 51
84.689121
  0
ARC
  8
0
  6
CONTINUOUS
 62
     7
 10
189.75591
 20
-58.657043
 40
15.364615
 50
233.99167
 51
265.52055
  0
ARC
  8
0
  6
CONTINUOUS
 62
     7
 10
189.75591
 20
-54.161659
 40
1.5
 50
36.869897
 51
143.1301
  0
ARC
  8
0
  6
CONTINUOUS
 62
     7
 10
189.75591
 20
-64.361656
 40
1.5
 50
216.8699
 51
323.1301
  0
ARC
  8
0
  6
CONTINUOUS
 62
     7
 10
189.75591
 20
-76.361656
 40
1.5
 50
216.8699
 51
323.1301
  0
ARC
  8
0
  6
CONTINUOUS
 62
     7
 10
189.75591
 20
-58.657043
 40
12.964616
 50
233.99167
 51
306.00832
  0
ARC
  8
0
  6
CONTINUOUS
 62
     7
 10
189.75591
 20
-58.657043
 40
15.364615
 50
274.47945
 51
306.00832
  0
ARC
  8
0
  6
CONTINUOUS
 62
     7
 10
189.75591
 20
-71.866272
 40
12.964616
 50
95.310878
 51
126.00833
  0
ARC
  8
0
  6
CONTINUOUS
 62
     7
 10
189.75591
 20
-71.866272
 40
15.364615
 50
94.479452
 51
126.00833
  0
TEXT
  8
0
  6
CONTINUOUS
 62
     7
 10
-215.09142
 20
160.63741
 40
3.2
 41
0.85534224
  1
１／８
  0
TEXT
  8
0
  6
CONTINUOUS
 62
     7
 10
-143.79003
 20
161.74457
 40
3.2
 41
0.85534224
  1
１／４
  0
TEXT
  8
0
  6
CONTINUOUS
 62
     7
 10
-53.998975
 20
165.9518
 40
3.2
 41
0.85534224
  1
３／８
  0
TEXT
  8
0
  6
CONTINUOUS
 62
     7
 10
39.999301
 20
166.39467
 40
3.2
 41
0.85534224
  1
１／２
  0
TEXT
  8
0
  6
CONTINUOUS
 62
     7
 10
135.76904
 20
171.48763
 40
3.2
 41
0.85534224
  1
３／４
  0
TEXT
  8
0
  6
CONTINUOUS
 62
     7
 10
-221.51297
 20
99.964789
 40
3.2
 41
0.90036055
  1
１
  0
TEXT
  8
0
  6
CONTINUOUS
 62
     7
 10
-123.86106
 20
105.05775
 40
3.2
 41
0.85124966
  1
１１／４
  0
TEXT
  8
0
  6
CONTINUOUS
 62
     7
 10
-23.994813
 20
108.15781
 40
3.2
 41
0.85124966
  1
１１／２
  0
TEXT
  8
0
  6
CONTINUOUS
 62
     7
 10
79.967944
 20
113.69363
 40
3.2
 41
0.90036055
  1
２
  0
TEXT
  8
0
  6
CONTINUOUS
 62
     7
 10
183.9307
 20
123.21525
 40
3.2
 41
0.85124966
  1
２１／２
  0
TEXT
  8
0
  6
CONTINUOUS
 62
     7
 10
-211.64879
 20
-22.514967
 40
3.2
 41
0.90036055
  1
３
  0
TEXT
  8
0
  6
CONTINUOUS
 62
     7
 10
-100.35661
 20
-10.356997
 40
3.2
 41
0.90036055
  1
４
  0
TEXT
  8
0
  6
CONTINUOUS
 62
     7
 10
32.913447
 20
1.8009728
 40
3.2
 41
0.90036055
  1
５
  0
TEXT
  8
0
  6
CONTINUOUS
 62
     7
 10
185.12188
 20
13.023714
 40
3.2
 41
0.90036055
  1
６
  0
TEXT
  8
0
  6
CONTINUOUS
 62
     7
 10
-35.222502
 20
181.83252
 40
10
 41
0.85124967
  1
ソケット
  0
ENDSEC
  0
EOF
