  0
SECTION
  2
HEADER
  9
$EXTMAX
 10
419.77344
 20
297.87869
  9
$EXTMIN
 10
-422.15918
 20
-295.73526
  0
ENDSEC
  0
SECTION
  2
TABLES
  0
TABLE
  2
LTYPE
 70
    22
  0
LTYPE
  2
CONTINUOUS
 70
    64
  3
Solid line
 72
    65
 73
     0
 40
0.000000
  0
LTYPE
  2
DASHED
 70
    64
  3
__ __ __ __ __ __ __ __ __ __ __ __ __ __ __
 72
    65
 73
     2
 40
3.500000
 49
2.000000
 49
-1.500000
  0
LTYPE
  2
CENTER
 70
    64
  3
____ _ ____ _ ____ _ ____ _ ____ _ ____ _ ____
 72
    65
 73
     4
 40
17.500000
 49
13.000000
 49
-1.500000
 49
1.500000
 49
-1.500000
  0
LTYPE
  2
PHANTOM
 70
    64
  3
_____ _ _ _____ _ _ _____ _ _ _____ _ _ ____  
 72
    65
 73
     6
 40
15.500000
 49
8.000000
 49
-1.500000
 49
1.500000
 49
-1.500000
 49
1.500000
 49
-1.500000
  0
LTYPE
  2
DOT
 70
    64
  3
. . . . . . . . . . . . . . . . . . . . . . . .
 72
    65
 73
     2
 40
0.25
 49
0.0
 49
-0.25
  0
ENDTAB
  0
TABLE
  2
LAYER
 70
     1
  0
LAYER
  2
0
 70
     0
 62
     7
  6
CONTINUOUS
  0
ENDTAB
  0
TABLE
  2
STYLE
 70
     1
  0
STYLE
  2
STANDARD
 70
     0
 40
0.000000
 41
1.000000
 50
0.000000
 71
     0
 42
0.200000
  3
txt
  4
BIGFONT
  0
ENDTAB
  0
TABLE
  2
VIEW
 70
     0
  0
ENDTAB
  0
ENDSEC
  0
SECTION
  2
BLOCKS
  0
ENDSEC
  0
SECTION
  2
ENTITIES
  0
POINT
  8
0
  6
CONTINUOUS
 62
     3
 10
-420.5
 20
-297
  0
POINT
  8
0
  6
CONTINUOUS
 62
     3
 10
420.5
 20
-297
  0
POINT
  8
0
  6
CONTINUOUS
 62
     3
 10
-420.5
 20
297
  0
POINT
  8
0
  6
CONTINUOUS
 62
     3
 10
420.5
 20
297
  0
POINT
  8
0
  6
CONTINUOUS
 62
     7
 10
-348.63519
 20
216.1622
  0
POINT
  8
0
  6
CONTINUOUS
 62
     7
 10
-279.51407
 20
216.1622
  0
POINT
  8
0
  6
CONTINUOUS
 62
     7
 10
-210.39296
 20
216.1622
  0
POINT
  8
0
  6
CONTINUOUS
 62
     7
 10
-141.27184
 20
216.1622
  0
POINT
  8
0
  6
CONTINUOUS
 62
     7
 10
-72.150711
 20
216.1622
  0
POINT
  8
0
  6
CONTINUOUS
 62
     7
 10
-3.0295928
 20
216.1622
  0
POINT
  8
0
  6
CONTINUOUS
 62
     7
 10
66.09153
 20
216.1622
  0
POINT
  8
0
  6
CONTINUOUS
 62
     7
 10
135.21265
 20
216.1622
  0
POINT
  8
0
  6
CONTINUOUS
 62
     7
 10
204.33377
 20
216.1622
  0
POINT
  8
0
  6
CONTINUOUS
 62
     7
 10
273.4549
 20
216.1622
  0
POINT
  8
0
  6
CONTINUOUS
 62
     7
 10
342.57602
 20
216.1622
  0
POINT
  8
0
  6
CONTINUOUS
 62
     7
 10
-348.63519
 20
108.45455
  0
POINT
  8
0
  6
CONTINUOUS
 62
     7
 10
-262.2338
 20
108.45455
  0
POINT
  8
0
  6
CONTINUOUS
 62
     7
 10
-175.8324
 20
108.45455
  0
POINT
  8
0
  6
CONTINUOUS
 62
     7
 10
-89.430992
 20
108.45455
  0
POINT
  8
0
  6
CONTINUOUS
 62
     7
 10
-3.0295928
 20
108.45455
  0
POINT
  8
0
  6
CONTINUOUS
 62
     7
 10
83.371811
 20
108.45455
  0
POINT
  8
0
  6
CONTINUOUS
 62
     7
 10
169.77321
 20
108.45455
  0
POINT
  8
0
  6
CONTINUOUS
 62
     7
 10
256.17462
 20
108.45455
  0
POINT
  8
0
  6
CONTINUOUS
 62
     7
 10
342.57602
 20
108.45455
  0
POINT
  8
0
  6
CONTINUOUS
 62
     7
 10
-348.63519
 20
-28.664444
  0
POINT
  8
0
  6
CONTINUOUS
 62
     7
 10
-249.89073
 20
-28.664444
  0
POINT
  8
0
  6
CONTINUOUS
 62
     7
 10
125.99593
 20
-196.93117
  0
POINT
  8
0
  6
CONTINUOUS
 62
     7
 10
342.57602
 20
-196.8914
  0
POINT
  8
0
  6
CONTINUOUS
 62
     7
 10
471.20041
 20
-297
  0
POINT
  8
0
  6
CONTINUOUS
 62
     7
 10
1312.2004
 20
-297
  0
POINT
  8
0
  6
CONTINUOUS
 62
     7
 10
471.20041
 20
297
  0
POINT
  8
0
  6
CONTINUOUS
 62
     7
 10
1312.2004
 20
297
  0
POINT
  8
0
  6
CONTINUOUS
 62
     7
 10
1227.611
 20
-183.73206
  0
POINT
  8
0
  6
CONTINUOUS
 62
     7
 10
1091.4312
 20
-183.73206
  0
POINT
  8
0
  6
CONTINUOUS
 62
     7
 10
952.84302
 20
-183.73206
  0
POINT
  8
0
  6
CONTINUOUS
 62
     7
 10
821.11371
 20
-183.73206
  0
POINT
  8
0
  6
CONTINUOUS
 62
     7
 10
684.56757
 20
-183.73206
  0
POINT
  8
0
  6
CONTINUOUS
 62
     7
 10
554.46252
 20
-183.73206
  0
POINT
  8
0
  6
CONTINUOUS
 62
     7
 10
1237.611
 20
14.411521
  0
POINT
  8
0
  6
CONTINUOUS
 62
     7
 10
1115.332
 20
14.411521
  0
POINT
  8
0
  6
CONTINUOUS
 62
     7
 10
997.84302
 20
14.411521
  0
POINT
  8
0
  6
CONTINUOUS
 62
     7
 10
1239.653
 20
189.57025
  0
POINT
  8
0
  6
CONTINUOUS
 62
     7
 10
1115.332
 20
189.57025
  0
POINT
  8
0
  6
CONTINUOUS
 62
     7
 10
997.84302
 20
189.57025
  0
POINT
  8
0
  6
CONTINUOUS
 62
     7
 10
876.11371
 20
189.57025
  0
POINT
  8
0
  6
CONTINUOUS
 62
     7
 10
759.56757
 20
189.57025
  0
POINT
  8
0
  6
CONTINUOUS
 62
     7
 10
644.46252
 20
189.57025
  0
POINT
  8
0
  6
CONTINUOUS
 62
     7
 10
537.6037
 20
189.57025
  0
POINT
  8
0
  6
CONTINUOUS
 62
     7
 10
-301.57846
 20
-196.8914
  0
POINT
  8
0
  6
CONTINUOUS
 62
     7
 10
-195.96222
 20
-196.8914
  0
POINT
  8
0
  6
CONTINUOUS
 62
     7
 10
-91.391693
 20
-196.8914
  0
POINT
  8
0
  6
CONTINUOUS
 62
     7
 10
11.087429
 20
-196.8914
  0
POINT
  8
0
  6
CONTINUOUS
 62
     7
 10
228.59413
 20
-196.8914
  0
POINT
  8
0
  6
CONTINUOUS
 62
     7
 10
-348.63519
 20
-28.664444
  0
POINT
  8
0
  6
CONTINUOUS
 62
     7
 10
-249.89073
 20
-28.664444
  0
POINT
  8
0
  6
CONTINUOUS
 62
     7
 10
-151.14629
 20
-28.664444
  0
POINT
  8
0
  6
CONTINUOUS
 62
     7
 10
-52.401821
 20
-28.664444
  0
POINT
  8
0
  6
CONTINUOUS
 62
     7
 10
46.342636
 20
-28.664444
  0
POINT
  8
0
  6
CONTINUOUS
 62
     7
 10
145.0871
 20
-28.664444
  0
POINT
  8
0
  6
CONTINUOUS
 62
     7
 10
243.83156
 20
-28.664444
  0
POINT
  8
0
  6
CONTINUOUS
 62
     7
 10
342.57602
 20
-28.664444
  0
POINT
  8
0
  6
CONTINUOUS
 62
     7
 10
-348.63519
 20
108.45455
  0
POINT
  8
0
  6
CONTINUOUS
 62
     7
 10
-262.2338
 20
108.45455
  0
POINT
  8
0
  6
CONTINUOUS
 62
     7
 10
-175.8324
 20
108.45455
  0
POINT
  8
0
  6
CONTINUOUS
 62
     7
 10
-89.430992
 20
108.45455
  0
POINT
  8
0
  6
CONTINUOUS
 62
     7
 10
-3.0295928
 20
108.45455
  0
POINT
  8
0
  6
CONTINUOUS
 62
     7
 10
83.371811
 20
108.45455
  0
POINT
  8
0
  6
CONTINUOUS
 62
     7
 10
169.77321
 20
108.45455
  0
POINT
  8
0
  6
CONTINUOUS
 62
     7
 10
256.17462
 20
108.45455
  0
POINT
  8
0
  6
CONTINUOUS
 62
     7
 10
342.57602
 20
108.45455
  0
POINT
  8
0
  6
CONTINUOUS
 62
     7
 10
-348.63519
 20
216.1622
  0
POINT
  8
0
  6
CONTINUOUS
 62
     7
 10
-279.51407
 20
216.1622
  0
POINT
  8
0
  6
CONTINUOUS
 62
     7
 10
-210.39296
 20
216.1622
  0
POINT
  8
0
  6
CONTINUOUS
 62
     7
 10
-141.27184
 20
216.1622
  0
POINT
  8
0
  6
CONTINUOUS
 62
     7
 10
-72.150711
 20
216.1622
  0
POINT
  8
0
  6
CONTINUOUS
 62
     7
 10
-3.0295928
 20
216.1622
  0
POINT
  8
0
  6
CONTINUOUS
 62
     7
 10
66.09153
 20
216.1622
  0
POINT
  8
0
  6
CONTINUOUS
 62
     7
 10
135.21265
 20
216.1622
  0
POINT
  8
0
  6
CONTINUOUS
 62
     7
 10
204.33377
 20
216.1622
  0
POINT
  8
0
  6
CONTINUOUS
 62
     7
 10
273.4549
 20
216.1622
  0
POINT
  8
0
  6
CONTINUOUS
 62
     7
 10
342.57602
 20
216.1622
  0
POINT
  8
0
  6
CONTINUOUS
 62
     7
 10
765.14594
 20
276.02448
  0
POINT
  8
0
  6
CONTINUOUS
 62
     7
 10
-151.14629
 20
-28.664444
  0
POINT
  8
0
  6
CONTINUOUS
 62
     7
 10
-171.64629
 20
-74.164444
  0
POINT
  8
0
  6
CONTINUOUS
 62
     7
 10
-52.401821
 20
-28.664444
  0
POINT
  8
0
  6
CONTINUOUS
 62
     7
 10
46.342636
 20
-28.664444
  0
POINT
  8
0
  6
CONTINUOUS
 62
     7
 10
145.0871
 20
-28.664444
  0
POINT
  8
0
  6
CONTINUOUS
 62
     7
 10
243.83156
 20
-28.664444
  0
POINT
  8
0
  6
CONTINUOUS
 62
     7
 10
342.57602
 20
-28.664444
  0
POINT
  8
0
  6
CONTINUOUS
 62
     7
 10
-301.57846
 20
-196.8914
  0
POINT
  8
0
  6
CONTINUOUS
 62
     7
 10
-195.96222
 20
-196.8914
  0
POINT
  8
0
  6
CONTINUOUS
 62
     7
 10
-91.391693
 20
-196.8914
  0
POINT
  8
0
  6
CONTINUOUS
 62
     7
 10
11.087429
 20
-196.8914
  0
POINT
  8
0
  6
CONTINUOUS
 62
     7
 10
125.99593
 20
-196.93117
  0
POINT
  8
0
  6
CONTINUOUS
 62
     7
 10
228.59413
 20
-196.8914
  0
POINT
  8
0
  6
CONTINUOUS
 62
     7
 10
342.57602
 20
-196.8914
  0
POINT
  8
0
  6
CONTINUOUS
 62
     7
 10
537.6037
 20
189.57025
  0
POINT
  8
0
  6
CONTINUOUS
 62
     7
 10
644.46252
 20
189.57025
  0
POINT
  8
0
  6
CONTINUOUS
 62
     7
 10
759.56757
 20
189.57025
  0
POINT
  8
0
  6
CONTINUOUS
 62
     7
 10
876.11371
 20
189.57025
  0
POINT
  8
0
  6
CONTINUOUS
 62
     7
 10
997.84302
 20
189.57025
  0
POINT
  8
0
  6
CONTINUOUS
 62
     7
 10
1115.332
 20
189.57025
  0
POINT
  8
0
  6
CONTINUOUS
 62
     7
 10
1239.653
 20
189.57025
  0
POINT
  8
0
  6
CONTINUOUS
 62
     7
 10
537.6037
 20
14.411521
  0
POINT
  8
0
  6
CONTINUOUS
 62
     7
 10
644.46252
 20
14.411521
  0
POINT
  8
0
  6
CONTINUOUS
 62
     7
 10
876.11371
 20
14.411521
  0
POINT
  8
0
  6
CONTINUOUS
 62
     7
 10
759.56757
 20
14.411521
  0
POINT
  8
0
  6
CONTINUOUS
 62
     7
 10
537.6037
 20
14.411521
  0
POINT
  8
0
  6
CONTINUOUS
 62
     7
 10
644.46252
 20
14.411521
  0
POINT
  8
0
  6
CONTINUOUS
 62
     7
 10
759.56757
 20
14.411521
  0
POINT
  8
0
  6
CONTINUOUS
 62
     7
 10
876.11371
 20
14.411521
  0
POINT
  8
0
  6
CONTINUOUS
 62
     7
 10
997.84302
 20
14.411521
  0
POINT
  8
0
  6
CONTINUOUS
 62
     7
 10
1115.332
 20
14.411521
  0
POINT
  8
0
  6
CONTINUOUS
 62
     7
 10
1237.611
 20
14.411521
  0
POINT
  8
0
  6
CONTINUOUS
 62
     7
 10
554.46252
 20
-183.73206
  0
POINT
  8
0
  6
CONTINUOUS
 62
     7
 10
684.56757
 20
-183.73206
  0
POINT
  8
0
  6
CONTINUOUS
 62
     7
 10
821.11371
 20
-183.73206
  0
POINT
  8
0
  6
CONTINUOUS
 62
     7
 10
952.84302
 20
-183.73206
  0
POINT
  8
0
  6
CONTINUOUS
 62
     7
 10
1091.4312
 20
-183.73206
  0
POINT
  8
0
  6
CONTINUOUS
 62
     7
 10
1227.611
 20
-183.73206
  0
LINE
  8
0
  6
CONTINUOUS
 62
     3
 10
410.5
 20
287
 11
410.5
 21
-287
  0
LINE
  8
0
  6
CONTINUOUS
 62
     3
 10
-410.5
 20
287
 11
410.5
 21
287
  0
LINE
  8
0
  6
CONTINUOUS
 62
     3
 10
-410.5
 20
287
 11
-410.5
 21
-287
  0
LINE
  8
0
  6
CONTINUOUS
 62
     3
 10
-410.5
 20
-287
 11
410.5
 21
-287
  0
LINE
  8
0
  6
CONTINUOUS
 62
     7
 10
-351.88809
 20
227.1622
 11
-360.96475
 21
227.1622
  0
LINE
  8
0
  6
CONTINUOUS
 62
     7
 10
-352.30573
 20
225.6622
 11
-360.96478
 21
225.6622
  0
LINE
  8
0
  6
CONTINUOUS
 62
     7
 10
-344.18167
 20
223.6622
 11
-336.3056
 21
223.6622
  0
LINE
  8
0
  6
CONTINUOUS
 62
     7
 10
-344.18167
 20
208.6622
 11
-336.3056
 21
208.6622
  0
LINE
  8
0
  6
CONTINUOUS
 62
     7
 10
-351.88809
 20
205.1622
 11
-360.96478
 21
205.1622
  0
LINE
  8
0
  6
CONTINUOUS
 62
     7
 10
-352.30573
 20
206.6622
 11
-360.96478
 21
206.6622
  0
LINE
  8
0
  6
CENTER
 62
     7
 10
-332.30573
 20
216.1622
 11
-354.03351
 21
216.1622
  0
LINE
  8
0
  6
CONTINUOUS
 62
     7
 10
-360.96478
 20
205.1622
 11
-360.96478
 21
227.1622
  0
LINE
  8
0
  6
CONTINUOUS
 62
     7
 10
-336.3056
 20
208.6622
 11
-336.3056
 21
223.6622
  0
LINE
  8
0
  6
CENTER
 62
     7
 10
-359.02722
 20
216.1622
 11
-365.30573
 21
216.1622
  0
LINE
  8
0
  6
CENTER
 62
     7
 10
-261.67197
 20
216.1622
 11
-297.67197
 21
216.1622
  0
LINE
  8
0
  6
CONTINUOUS
 62
     7
 10
-284.6615
 20
203.1622
 11
-293.3562
 21
203.1622
  0
LINE
  8
0
  6
CONTINUOUS
 62
     7
 10
-283.67197
 20
204.6622
 11
-293.3562
 21
204.6622
  0
LINE
  8
0
  6
CONTINUOUS
 62
     7
 10
-271.83981
 20
208.6622
 11
-265.67197
 21
208.6622
  0
LINE
  8
0
  6
CONTINUOUS
 62
     7
 10
-271.83981
 20
223.6622
 11
-265.67197
 21
223.6622
  0
LINE
  8
0
  6
CONTINUOUS
 62
     7
 10
-283.67197
 20
227.6622
 11
-293.3562
 21
227.6622
  0
LINE
  8
0
  6
CONTINUOUS
 62
     7
 10
-284.6615
 20
229.1622
 11
-293.3562
 21
229.1622
  0
LINE
  8
0
  6
CONTINUOUS
 62
     7
 10
-293.3562
 20
229.1622
 11
-293.3562
 21
203.1622
  0
LINE
  8
0
  6
CONTINUOUS
 62
     7
 10
-265.67197
 20
223.6622
 11
-265.67197
 21
208.6622
  0
LINE
  8
0
  6
CONTINUOUS
 62
     7
 10
-215.81798
 20
203.1622
 11
-224.23506
 21
203.1622
  0
LINE
  8
0
  6
CONTINUOUS
 62
     7
 10
-214.55084
 20
204.6622
 11
-224.23506
 21
204.6622
  0
LINE
  8
0
  6
CONTINUOUS
 62
     7
 10
-206.18425
 20
206.6622
 11
-196.55086
 21
206.6622
  0
LINE
  8
0
  6
CONTINUOUS
 62
     7
 10
-206.18425
 20
225.6622
 11
-196.55086
 21
225.6622
  0
LINE
  8
0
  6
CONTINUOUS
 62
     7
 10
-215.81798
 20
229.1622
 11
-224.23506
 21
229.1622
  0
LINE
  8
0
  6
CONTINUOUS
 62
     7
 10
-214.55084
 20
227.6622
 11
-224.23506
 21
227.6622
  0
LINE
  8
0
  6
CENTER
 62
     7
 10
-192.55086
 20
216.1622
 11
-228.55084
 21
216.1622
  0
LINE
  8
0
  6
CONTINUOUS
 62
     7
 10
-224.23506
 20
229.1622
 11
-224.23506
 21
203.1622
  0
LINE
  8
0
  6
CONTINUOUS
 62
     7
 10
-196.55086
 20
225.6622
 11
-196.55086
 21
206.6622
  0
LINE
  8
0
  6
CONTINUOUS
 62
     7
 10
-145.94659
 20
231.1622
 11
-158.09708
 21
231.1622
  0
LINE
  8
0
  6
CONTINUOUS
 62
     7
 10
-145.03326
 20
202.6622
 11
-158.09708
 21
202.6622
  0
LINE
  8
0
  6
CONTINUOUS
 62
     7
 10
-145.94659
 20
201.1622
 11
-158.09709
 21
201.1622
  0
LINE
  8
0
  6
CONTINUOUS
 62
     7
 10
-132.86774
 20
206.6622
 11
-124.44659
 21
206.6622
  0
LINE
  8
0
  6
CENTER
 62
     7
 10
-120.44659
 20
216.1622
 11
-162.64659
 21
216.1622
  0
LINE
  8
0
  6
CONTINUOUS
 62
     7
 10
-132.86774
 20
225.6622
 11
-124.44659
 21
225.6622
  0
LINE
  8
0
  6
CONTINUOUS
 62
     7
 10
-145.03326
 20
229.6622
 11
-158.09708
 21
229.6622
  0
LINE
  8
0
  6
CONTINUOUS
 62
     7
 10
-124.44659
 20
225.6622
 11
-124.44659
 21
206.6622
  0
LINE
  8
0
  6
CONTINUOUS
 62
     7
 10
-158.09708
 20
231.1622
 11
-158.09708
 21
201.1622
  0
LINE
  8
0
  6
CENTER
 62
     7
 10
-51.32547
 20
216.1622
 11
-93.525467
 21
216.1622
  0
LINE
  8
0
  6
CONTINUOUS
 62
     7
 10
-78.030159
 20
231.1622
 11
-88.975952
 21
231.1622
  0
LINE
  8
0
  6
CONTINUOUS
 62
     7
 10
-77.32547
 20
229.6622
 11
-88.975952
 21
229.6622
  0
LINE
  8
0
  6
CONTINUOUS
 62
     7
 10
-78.030159
 20
201.1622
 11
-88.97596
 21
201.1622
  0
LINE
  8
0
  6
CONTINUOUS
 62
     7
 10
-77.32547
 20
202.6622
 11
-88.975952
 21
202.6622
  0
LINE
  8
0
  6
CONTINUOUS
 62
     7
 10
-68.607674
 20
204.6622
 11
-55.32547
 21
204.6622
  0
LINE
  8
0
  6
CONTINUOUS
 62
     7
 10
-68.607674
 20
227.6622
 11
-55.32547
 21
227.6622
  0
LINE
  8
0
  6
CONTINUOUS
 62
     7
 10
-55.32547
 20
227.6622
 11
-55.32547
 21
204.6622
  0
LINE
  8
0
  6
CONTINUOUS
 62
     7
 10
-88.975952
 20
231.1622
 11
-88.975952
 21
201.1622
  0
LINE
  8
0
  6
CENTER
 62
     7
 10
19.806772
 20
216.1622
 11
-26.393225
 21
216.1622
  0
LINE
  8
0
  6
CONTINUOUS
 62
     7
 10
-7.5618877
 20
199.6622
 11
-21.865957
 21
199.6622
  0
LINE
  8
0
  6
CONTINUOUS
 62
     7
 10
-7.0633221
 20
198.1622
 11
-21.865957
 21
198.1622
  0
LINE
  8
0
  6
CONTINUOUS
 62
     7
 10
4.0570621
 20
204.6622
 11
15.806772
 21
204.6622
  0
LINE
  8
0
  6
CONTINUOUS
 62
     7
 10
4.0570621
 20
227.6622
 11
15.806772
 21
227.6622
  0
LINE
  8
0
  6
CONTINUOUS
 62
     7
 10
-7.0633221
 20
234.1622
 11
-21.865957
 21
234.1622
  0
LINE
  8
0
  6
CONTINUOUS
 62
     7
 10
-7.5618877
 20
232.6622
 11
-21.865957
 21
232.6622
  0
LINE
  8
0
  6
CONTINUOUS
 62
     7
 10
15.806772
 20
227.6622
 11
15.806772
 21
204.6622
  0
LINE
  8
0
  6
CONTINUOUS
 62
     7
 10
-21.865957
 20
234.1622
 11
-21.865957
 21
198.1622
  0
LINE
  8
0
  6
CENTER
 62
     7
 10
89.291527
 20
216.1622
 11
42.891529
 21
216.1622
  0
LINE
  8
0
  6
CONTINUOUS
 62
     7
 10
61.091526
 20
199.6622
 11
47.091526
 21
199.6622
  0
LINE
  8
0
  6
CONTINUOUS
 62
     7
 10
62.375538
 20
198.1622
 11
54.091526
 21
198.1622
  0
LINE
  8
0
  6
CONTINUOUS
 62
     7
 10
54.091526
 20
198.1622
 11
54.091526
 21
199.6622
  0
LINE
  8
0
  6
CONTINUOUS
 62
     7
 10
71.768608
 20
202.6622
 11
85.09153
 21
202.6622
  0
LINE
  8
0
  6
CONTINUOUS
 62
     7
 10
71.768608
 20
229.6622
 11
85.09153
 21
229.6622
  0
LINE
  8
0
  6
CONTINUOUS
 62
     7
 10
61.091526
 20
232.6622
 11
47.091526
 21
232.6622
  0
LINE
  8
0
  6
CONTINUOUS
 62
     7
 10
62.375538
 20
234.1622
 11
54.091526
 21
234.1622
  0
LINE
  8
0
  6
CONTINUOUS
 62
     7
 10
54.091526
 20
234.1622
 11
54.091526
 21
232.6622
  0
LINE
  8
0
  6
CONTINUOUS
 62
     7
 10
85.09153
 20
229.6622
 11
85.09153
 21
202.6622
  0
LINE
  8
0
  6
CONTINUOUS
 62
     7
 10
47.091526
 20
232.6622
 11
47.091526
 21
199.6622
  0
LINE
  8
0
  6
CONTINUOUS
 62
     7
 10
131.84389
 20
195.6622
 11
114.35111
 21
195.6622
  0
LINE
  8
0
  6
CONTINUOUS
 62
     7
 10
129.41261
 20
194.1622
 11
114.35111
 21
194.1622
  0
LINE
  8
0
  6
CONTINUOUS
 62
     7
 10
146.07419
 20
204.6622
 11
156.07419
 21
204.6622
  0
LINE
  8
0
  6
CONTINUOUS
 62
     7
 10
146.07419
 20
227.6622
 11
156.07419
 21
227.6622
  0
LINE
  8
0
  6
CONTINUOUS
 62
     7
 10
131.84389
 20
236.6622
 11
114.35111
 21
236.6622
  0
LINE
  8
0
  6
CONTINUOUS
 62
     7
 10
129.41261
 20
238.1622
 11
114.35111
 21
238.1622
  0
LINE
  8
0
  6
CENTER
 62
     7
 10
160.07419
 20
216.1622
 11
109.87419
 21
216.1622
  0
LINE
  8
0
  6
CONTINUOUS
 62
     7
 10
156.07419
 20
227.6622
 11
156.07419
 21
204.6622
  0
LINE
  8
0
  6
CONTINUOUS
 62
     7
 10
114.35111
 20
238.1622
 11
114.35111
 21
194.1622
  0
LINE
  8
0
  6
CONTINUOUS
 62
     7
 10
200.10501
 20
195.6622
 11
183.33377
 21
195.6622
  0
LINE
  8
0
  6
CONTINUOUS
 62
     7
 10
198.47803
 20
194.1622
 11
190.33377
 21
194.1622
  0
LINE
  8
0
  6
CONTINUOUS
 62
     7
 10
190.33377
 20
194.1622
 11
190.33377
 21
195.6622
  0
LINE
  8
0
  6
CONTINUOUS
 62
     7
 10
213.33377
 20
202.6622
 11
225.33377
 21
202.6622
  0
LINE
  8
0
  6
CONTINUOUS
 62
     7
 10
213.33377
 20
229.6622
 11
225.33377
 21
229.6622
  0
LINE
  8
0
  6
CONTINUOUS
 62
     7
 10
200.10501
 20
236.6622
 11
183.33377
 21
236.6622
  0
LINE
  8
0
  6
CONTINUOUS
 62
     7
 10
198.47803
 20
238.1622
 11
190.33377
 21
238.1622
  0
LINE
  8
0
  6
CONTINUOUS
 62
     7
 10
190.33377
 20
238.1622
 11
190.33377
 21
236.6622
  0
LINE
  8
0
  6
CENTER
 62
     7
 10
229.53377
 20
216.1622
 11
179.13377
 21
216.1622
  0
LINE
  8
0
  6
CONTINUOUS
 62
     7
 10
225.33377
 20
229.6622
 11
225.33377
 21
202.6622
  0
LINE
  8
0
  6
CONTINUOUS
 62
     7
 10
183.33377
 20
236.6622
 11
183.33377
 21
195.6622
  0
LINE
  8
0
  6
CENTER
 62
     7
 10
298.65488
 20
216.1622
 11
248.2549
 21
216.1622
  0
LINE
  8
0
  6
CONTINUOUS
 62
     7
 10
259.4549
 20
194.1622
 11
259.4549
 21
195.6622
  0
LINE
  8
0
  6
CONTINUOUS
 62
     7
 10
268.4549
 20
195.6622
 11
252.4549
 21
195.6622
  0
LINE
  8
0
  6
CONTINUOUS
 62
     7
 10
269.52957
 20
194.1622
 11
259.4549
 21
194.1622
  0
LINE
  8
0
  6
CONTINUOUS
 62
     7
 10
280.4549
 20
199.6622
 11
294.4549
 21
199.6622
  0
LINE
  8
0
  6
CONTINUOUS
 62
     7
 10
280.4549
 20
232.6622
 11
294.4549
 21
232.6622
  0
LINE
  8
0
  6
CONTINUOUS
 62
     7
 10
269.52957
 20
238.1622
 11
259.4549
 21
238.1622
  0
LINE
  8
0
  6
CONTINUOUS
 62
     7
 10
268.4549
 20
236.6622
 11
252.4549
 21
236.6622
  0
LINE
  8
0
  6
CONTINUOUS
 62
     7
 10
259.4549
 20
238.1622
 11
259.4549
 21
236.6622
  0
LINE
  8
0
  6
CONTINUOUS
 62
     7
 10
294.4549
 20
232.6622
 11
294.4549
 21
199.6622
  0
LINE
  8
0
  6
CONTINUOUS
 62
     7
 10
252.4549
 20
236.6622
 11
252.4549
 21
195.6622
  0
LINE
  8
0
  6
CENTER
 62
     7
 10
370.776
 20
216.1622
 11
314.17599
 21
216.1622
  0
LINE
  8
0
  6
CONTINUOUS
 62
     7
 10
336.45135
 20
191.1622
 11
318.57602
 21
191.1622
  0
LINE
  8
0
  6
CONTINUOUS
 62
     7
 10
326.57602
 20
189.6622
 11
326.57602
 21
191.1622
  0
LINE
  8
0
  6
CONTINUOUS
 62
     7
 10
335.70062
 20
189.6622
 11
326.57602
 21
189.6622
  0
LINE
  8
0
  6
CONTINUOUS
 62
     7
 10
359.57602
 20
202.6622
 11
366.57602
 21
202.6622
  0
LINE
  8
0
  6
CONTINUOUS
 62
     7
 10
359.57602
 20
229.6622
 11
366.57602
 21
229.6622
  0
LINE
  8
0
  6
CONTINUOUS
 62
     7
 10
336.45135
 20
241.1622
 11
318.57602
 21
241.1622
  0
LINE
  8
0
  6
CONTINUOUS
 62
     7
 10
335.70062
 20
242.6622
 11
326.57602
 21
242.6622
  0
LINE
  8
0
  6
CONTINUOUS
 62
     7
 10
326.57602
 20
242.6622
 11
326.57602
 21
241.1622
  0
LINE
  8
0
  6
CONTINUOUS
 62
     7
 10
366.57602
 20
229.6622
 11
366.57602
 21
202.6622
  0
LINE
  8
0
  6
CONTINUOUS
 62
     7
 10
318.57602
 20
241.1622
 11
318.57602
 21
191.1622
  0
LINE
  8
0
  6
CENTER
 62
     7
 10
-320.43521
 20
108.45455
 11
-377.03519
 21
108.45455
  0
LINE
  8
0
  6
CONTINUOUS
 62
     7
 10
-354.18918
 20
83.454552
 11
-372.63519
 21
83.454552
  0
LINE
  8
0
  6
CONTINUOUS
 62
     7
 10
-364.63519
 20
81.954552
 11
-364.63519
 21
83.454552
  0
LINE
  8
0
  6
CONTINUOUS
 62
     7
 10
-355.89532
 20
81.954552
 11
-364.63519
 21
81.954552
  0
LINE
  8
0
  6
CONTINUOUS
 62
     7
 10
-335.63519
 20
91.954552
 11
-324.63519
 21
91.954552
  0
LINE
  8
0
  6
CONTINUOUS
 62
     7
 10
-335.63519
 20
124.95455
 11
-324.63519
 21
124.95455
  0
LINE
  8
0
  6
CONTINUOUS
 62
     7
 10
-354.18918
 20
133.45454
 11
-372.63519
 21
133.45454
  0
LINE
  8
0
  6
CONTINUOUS
 62
     7
 10
-355.89532
 20
134.95454
 11
-364.63519
 21
134.95454
  0
LINE
  8
0
  6
CONTINUOUS
 62
     7
 10
-364.63519
 20
134.95454
 11
-364.63519
 21
133.45454
  0
LINE
  8
0
  6
CONTINUOUS
 62
     7
 10
-324.63519
 20
124.95455
 11
-324.63519
 21
91.954552
  0
LINE
  8
0
  6
CONTINUOUS
 62
     7
 10
-372.63519
 20
133.45454
 11
-372.63519
 21
83.454552
  0
LINE
  8
0
  6
CENTER
 62
     7
 10
-234.0338
 20
108.45455
 11
-290.63379
 21
108.45455
  0
LINE
  8
0
  6
CONTINUOUS
 62
     7
 10
-268.06311
 20
83.454552
 11
-286.2338
 21
83.454552
  0
LINE
  8
0
  6
CONTINUOUS
 62
     7
 10
-278.2338
 20
81.954552
 11
-278.2338
 21
83.454552
  0
LINE
  8
0
  6
CONTINUOUS
 62
     7
 10
-268.34637
 20
81.954552
 11
-278.2338
 21
81.954552
  0
LINE
  8
0
  6
CONTINUOUS
 62
     7
 10
-254.2338
 20
87.954552
 11
-238.2338
 21
87.954552
  0
LINE
  8
0
  6
CONTINUOUS
 62
     7
 10
-254.2338
 20
128.95454
 11
-238.2338
 21
128.95454
  0
LINE
  8
0
  6
CONTINUOUS
 62
     7
 10
-268.34637
 20
134.95454
 11
-278.2338
 21
134.95454
  0
LINE
  8
0
  6
CONTINUOUS
 62
     7
 10
-268.06311
 20
133.45454
 11
-286.2338
 21
133.45454
  0
LINE
  8
0
  6
CONTINUOUS
 62
     7
 10
-278.2338
 20
134.95454
 11
-278.2338
 21
133.45454
  0
LINE
  8
0
  6
CONTINUOUS
 62
     7
 10
-238.2338
 20
128.95454
 11
-238.2338
 21
87.954552
  0
LINE
  8
0
  6
CONTINUOUS
 62
     7
 10
-286.2338
 20
133.45454
 11
-286.2338
 21
83.454552
  0
LINE
  8
0
  6
CENTER
 62
     7
 10
-145.8324
 20
108.45455
 11
-206.4324
 21
108.45455
  0
LINE
  8
0
  6
CONTINUOUS
 62
     7
 10
-181.70039
 20
78.454552
 11
-201.63239
 21
78.454552
  0
LINE
  8
0
  6
CONTINUOUS
 62
     7
 10
-183.03239
 20
80.454552
 11
-201.63239
 21
80.454552
  0
LINE
  8
0
  6
CONTINUOUS
 62
     7
 10
-160.99266
 20
94.954552
 11
-150.03239
 21
94.954552
  0
LINE
  8
0
  6
CONTINUOUS
 62
     7
 10
-160.99266
 20
121.95455
 11
-150.03239
 21
121.95455
  0
LINE
  8
0
  6
CONTINUOUS
 62
     7
 10
-181.70039
 20
138.45454
 11
-201.63239
 21
138.45454
  0
LINE
  8
0
  6
CONTINUOUS
 62
     7
 10
-183.03239
 20
136.45454
 11
-201.63239
 21
136.45454
  0
LINE
  8
0
  6
CONTINUOUS
 62
     7
 10
-150.03239
 20
121.95455
 11
-150.03239
 21
94.954552
  0
LINE
  8
0
  6
CONTINUOUS
 62
     7
 10
-201.63239
 20
138.45454
 11
-201.63239
 21
78.454552
  0
LINE
  8
0
  6
CENTER
 62
     7
 10
-59.230995
 20
108.45455
 11
-119.83099
 21
108.45455
  0
LINE
  8
0
  6
CONTINUOUS
 62
     7
 10
-96.430992
 20
80.454552
 11
-115.43099
 21
80.454552
  0
LINE
  8
0
  6
CONTINUOUS
 62
     7
 10
-106.43099
 20
78.454552
 11
-106.43099
 21
80.454552
  0
LINE
  8
0
  6
CONTINUOUS
 62
     7
 10
-97.288002
 20
78.454552
 11
-106.43099
 21
78.454552
  0
LINE
  8
0
  6
CONTINUOUS
 62
     7
 10
-70.940804
 20
91.954552
 11
-63.430992
 21
91.954552
  0
LINE
  8
0
  6
CONTINUOUS
 62
     7
 10
-70.940804
 20
124.95455
 11
-63.430992
 21
124.95455
  0
LINE
  8
0
  6
CONTINUOUS
 62
     7
 10
-96.430992
 20
136.45454
 11
-115.43099
 21
136.45454
  0
LINE
  8
0
  6
CONTINUOUS
 62
     7
 10
-97.288002
 20
138.45454
 11
-106.43099
 21
138.45454
  0
LINE
  8
0
  6
CONTINUOUS
 62
     7
 10
-106.43099
 20
138.45454
 11
-106.43099
 21
136.45454
  0
LINE
  8
0
  6
CONTINUOUS
 62
     7
 10
-63.430992
 20
124.95455
 11
-63.430992
 21
91.954552
  0
LINE
  8
0
  6
CONTINUOUS
 62
     7
 10
-115.43099
 20
136.45454
 11
-115.43099
 21
80.454552
  0
LINE
  8
0
  6
CONTINUOUS
 62
     7
 10
-10.029593
 20
80.454552
 11
-29.029593
 21
80.454552
  0
LINE
  8
0
  6
CONTINUOUS
 62
     7
 10
-20.029593
 20
78.454552
 11
-20.029593
 21
80.454552
  0
LINE
  8
0
  6
CONTINUOUS
 62
     7
 10
-11.239874
 20
78.454552
 11
-20.029593
 21
78.454552
  0
LINE
  8
0
  6
CONTINUOUS
 62
     7
 10
9.8135471
 20
87.954552
 11
22.970407
 21
87.954552
  0
LINE
  8
0
  6
CONTINUOUS
 62
     7
 10
9.8135471
 20
128.95454
 11
22.970407
 21
128.95454
  0
LINE
  8
0
  6
CONTINUOUS
 62
     7
 10
-11.239874
 20
138.45454
 11
-20.029593
 21
138.45454
  0
LINE
  8
0
  6
CONTINUOUS
 62
     7
 10
-10.029593
 20
136.45454
 11
-29.029593
 21
136.45454
  0
LINE
  8
0
  6
CONTINUOUS
 62
     7
 10
-20.029593
 20
138.45454
 11
-20.029593
 21
136.45454
  0
LINE
  8
0
  6
CENTER
 62
     7
 10
27.170404
 20
108.45455
 11
-33.429596
 21
108.45455
  0
LINE
  8
0
  6
CONTINUOUS
 62
     7
 10
22.970407
 20
128.95454
 11
22.970407
 21
87.954552
  0
LINE
  8
0
  6
CONTINUOUS
 62
     7
 10
-29.029593
 20
136.45454
 11
-29.029593
 21
80.454552
  0
LINE
  8
0
  6
CENTER
 62
     7
 10
113.7718
 20
108.45455
 11
52.971806
 21
108.45455
  0
LINE
  8
0
  6
CONTINUOUS
 62
     7
 10
78.752861
 20
80.454552
 11
57.371807
 21
80.454552
  0
LINE
  8
0
  6
CONTINUOUS
 62
     7
 10
66.371811
 20
78.454552
 11
66.371811
 21
80.454552
  0
LINE
  8
0
  6
CONTINUOUS
 62
     7
 10
76.24511
 20
78.454552
 11
66.371811
 21
78.454552
  0
LINE
  8
0
  6
CONTINUOUS
 62
     7
 10
90.371811
 20
83.454552
 11
109.37181
 21
83.454552
  0
LINE
  8
0
  6
CONTINUOUS
 62
     7
 10
90.371811
 20
133.45454
 11
109.37181
 21
133.45454
  0
LINE
  8
0
  6
CONTINUOUS
 62
     7
 10
78.752861
 20
136.45454
 11
57.371807
 21
136.45454
  0
LINE
  8
0
  6
CONTINUOUS
 62
     7
 10
76.24511
 20
138.45454
 11
66.371811
 21
138.45454
  0
LINE
  8
0
  6
CONTINUOUS
 62
     7
 10
66.371811
 20
138.45454
 11
66.371811
 21
136.45454
  0
LINE
  8
0
  6
CONTINUOUS
 62
     7
 10
109.37181
 20
133.45454
 11
109.37181
 21
83.454552
  0
LINE
  8
0
  6
CONTINUOUS
 62
     7
 10
57.371807
 20
136.45454
 11
57.371807
 21
80.454552
  0
LINE
  8
0
  6
CENTER
 62
     7
 10
202.75987
 20
108.45455
 11
135.95987
 21
108.45455
  0
LINE
  8
0
  6
CONTINUOUS
 62
     7
 10
161.55988
 20
73.954552
 11
140.98654
 21
73.954552
  0
LINE
  8
0
  6
CONTINUOUS
 62
     7
 10
161.28656
 20
71.954552
 11
140.98654
 21
71.954552
  0
LINE
  8
0
  6
CONTINUOUS
 62
     7
 10
192.30072
 20
94.954552
 11
198.55988
 21
94.954552
  0
LINE
  8
0
  6
CONTINUOUS
 62
     7
 10
192.30072
 20
121.95455
 11
198.55988
 21
121.95455
  0
LINE
  8
0
  6
CONTINUOUS
 62
     7
 10
161.28656
 20
144.95454
 11
140.98654
 21
144.95454
  0
LINE
  8
0
  6
CONTINUOUS
 62
     7
 10
161.55988
 20
142.95454
 11
140.98654
 21
142.95454
  0
LINE
  8
0
  6
CONTINUOUS
 62
     7
 10
198.55988
 20
121.95455
 11
198.55988
 21
94.954552
  0
LINE
  8
0
  6
CONTINUOUS
 62
     7
 10
140.98654
 20
144.95454
 11
140.98654
 21
71.954552
  0
LINE
  8
0
  6
CENTER
 62
     7
 10
289.3746
 20
108.45455
 11
222.57462
 21
108.45455
  0
LINE
  8
0
  6
CONTINUOUS
 62
     7
 10
248.17461
 20
73.954552
 11
227.17461
 21
73.954552
  0
LINE
  8
0
  6
CONTINUOUS
 62
     7
 10
238.17461
 20
71.954552
 11
238.17461
 21
73.954552
  0
LINE
  8
0
  6
CONTINUOUS
 62
     7
 10
249.49001
 20
71.954552
 11
238.17461
 21
71.954552
  0
LINE
  8
0
  6
CONTINUOUS
 62
     7
 10
272.91324
 20
91.954552
 11
285.17462
 21
91.954552
  0
LINE
  8
0
  6
CONTINUOUS
 62
     7
 10
272.91324
 20
124.95455
 11
285.17462
 21
124.95455
  0
LINE
  8
0
  6
CONTINUOUS
 62
     7
 10
249.49001
 20
144.95454
 11
238.17461
 21
144.95454
  0
LINE
  8
0
  6
CONTINUOUS
 62
     7
 10
248.17461
 20
142.95454
 11
227.17461
 21
142.95454
  0
LINE
  8
0
  6
CONTINUOUS
 62
     7
 10
238.17461
 20
144.95454
 11
238.17461
 21
142.95454
  0
LINE
  8
0
  6
CONTINUOUS
 62
     7
 10
285.17462
 20
124.95455
 11
285.17462
 21
91.954552
  0
LINE
  8
0
  6
CONTINUOUS
 62
     7
 10
227.17461
 20
142.95454
 11
227.17461
 21
73.954552
  0
LINE
  8
0
  6
CENTER
 62
     7
 10
375.776
 20
108.45455
 11
308.97601
 21
108.45455
  0
LINE
  8
0
  6
CONTINUOUS
 62
     7
 10
334.57602
 20
73.954552
 11
313.57602
 21
73.954552
  0
LINE
  8
0
  6
CONTINUOUS
 62
     7
 10
324.57602
 20
71.954552
 11
324.57602
 21
73.954552
  0
LINE
  8
0
  6
CONTINUOUS
 62
     7
 10
335.89142
 20
71.954552
 11
324.57602
 21
71.954552
  0
LINE
  8
0
  6
CONTINUOUS
 62
     7
 10
357.94266
 20
87.954552
 11
371.57602
 21
87.954552
  0
LINE
  8
0
  6
CONTINUOUS
 62
     7
 10
357.94266
 20
128.95454
 11
371.57602
 21
128.95454
  0
LINE
  8
0
  6
CONTINUOUS
 62
     7
 10
335.89142
 20
144.95454
 11
324.57602
 21
144.95454
  0
LINE
  8
0
  6
CONTINUOUS
 62
     7
 10
324.57602
 20
144.95454
 11
324.57602
 21
142.95454
  0
LINE
  8
0
  6
CONTINUOUS
 62
     7
 10
334.57602
 20
142.95454
 11
313.57602
 21
142.95454
  0
LINE
  8
0
  6
CONTINUOUS
 62
     7
 10
371.57602
 20
128.95454
 11
371.57602
 21
87.954552
  0
LINE
  8
0
  6
CONTINUOUS
 62
     7
 10
313.57602
 20
142.95454
 11
313.57602
 21
73.954552
  0
LINE
  8
0
  6
CENTER
 62
     7
 10
-315.2352
 20
-28.664444
 11
-382.2352
 21
-28.664444
  0
LINE
  8
0
  6
CONTINUOUS
 62
     7
 10
-356.63519
 20
-63.164444
 11
-377.63519
 21
-63.164444
  0
LINE
  8
0
  6
CONTINUOUS
 62
     7
 10
-366.63519
 20
-65.164444
 11
-366.63519
 21
-63.164444
  0
LINE
  8
0
  6
CONTINUOUS
 62
     7
 10
-355.18259
 20
-65.164444
 11
-366.63519
 21
-65.164444
  0
LINE
  8
0
  6
CONTINUOUS
 62
     7
 10
-331.50055
 20
-53.664444
 11
-319.63519
 21
-53.664444
  0
LINE
  8
0
  6
CONTINUOUS
 62
     7
 10
-331.50055
 20
-3.6644444
 11
-319.63519
 21
-3.6644444
  0
LINE
  8
0
  6
CONTINUOUS
 62
     7
 10
-355.18259
 20
7.8355556
 11
-366.63519
 21
7.8355556
  0
LINE
  8
0
  6
CONTINUOUS
 62
     7
 10
-356.63519
 20
5.8355556
 11
-377.63519
 21
5.8355556
  0
LINE
  8
0
  6
CONTINUOUS
 62
     7
 10
-366.63519
 20
7.8355556
 11
-366.63519
 21
5.8355556
  0
LINE
  8
0
  6
CONTINUOUS
 62
     7
 10
-319.63519
 20
-3.6644444
 11
-319.63519
 21
-53.664444
  0
LINE
  8
0
  6
CONTINUOUS
 62
     7
 10
-377.63519
 20
5.8355556
 11
-377.63519
 21
-63.164444
  0
LINE
  8
0
  6
CENTER
 62
     7
 10
-216.49074
 20
-28.664444
 11
-283.49072
 21
-28.664444
  0
LINE
  8
0
  6
CONTINUOUS
 62
     7
 10
-257.89075
 20
-63.164444
 11
-278.89075
 21
-63.164444
  0
LINE
  8
0
  6
CONTINUOUS
 62
     7
 10
-267.89075
 20
-65.164444
 11
-267.89075
 21
-63.164444
  0
LINE
  8
0
  6
CONTINUOUS
 62
     7
 10
-240.69334
 20
-56.664444
 11
-220.89073
 21
-56.664444
  0
LINE
  8
0
  6
CONTINUOUS
 62
     7
 10
-240.69334
 20
-0.66444445
 11
-220.89073
 21
-0.66444445
  0
LINE
  8
0
  6
CONTINUOUS
 62
     7
 10
-257.38138
 20
7.8355556
 11
-267.89075
 21
7.8355556
  0
LINE
  8
0
  6
CONTINUOUS
 62
     7
 10
-267.89075
 20
7.8355556
 11
-267.89075
 21
5.8355556
  0
LINE
  8
0
  6
CONTINUOUS
 62
     7
 10
-257.89075
 20
5.8355556
 11
-278.89075
 21
5.8355556
  0
LINE
  8
0
  6
CONTINUOUS
 62
     7
 10
-220.89073
 20
-0.66444445
 11
-220.89073
 21
-56.664444
  0
LINE
  8
0
  6
CONTINUOUS
 62
     7
 10
-278.89075
 20
5.8355556
 11
-278.89075
 21
-63.164444
  0
LINE
  8
0
  6
CONTINUOUS
 62
     3
 10
1302.2004
 20
287
 11
1302.2004
 21
-287
  0
LINE
  8
0
  6
CONTINUOUS
 62
     3
 10
481.20041
 20
287
 11
1302.2004
 21
287
  0
LINE
  8
0
  6
CONTINUOUS
 62
     3
 10
481.20041
 20
287
 11
481.20041
 21
-287
  0
LINE
  8
0
  6
CONTINUOUS
 62
     3
 10
481.20041
 20
-287
 11
1302.2004
 21
-287
  0
LINE
  8
0
  6
CONTINUOUS
 62
     7
 10
-267.89075
 20
-65.164444
 11
-257.38138
 21
-65.164444
  0
LINE
  8
0
  6
CENTER
 62
     7
 10
-114.24629
 20
-28.664444
 11
-188.64629
 21
-28.664444
  0
LINE
  8
0
  6
CONTINUOUS
 62
     7
 10
-158.50009
 20
-74.164444
 11
-183.64629
 21
-74.164444
  0
LINE
  8
0
  6
CONTINUOUS
 62
     7
 10
-160.64629
 20
-71.664444
 11
-166.77289
 21
-71.664444
  0
LINE
  8
0
  6
CONTINUOUS
 62
     7
 10
-124.64629
 20
-43.664444
 11
-118.64629
 21
-43.664444
  0
LINE
  8
0
  6
CONTINUOUS
 62
     7
 10
-124.64629
 20
-13.664444
 11
-118.64629
 21
-13.664444
  0
LINE
  8
0
  6
CONTINUOUS
 62
     7
 10
-158.50009
 20
16.835556
 11
-183.64629
 21
16.835556
  0
LINE
  8
0
  6
CONTINUOUS
 62
     7
 10
-160.64629
 20
14.335556
 11
-166.77289
 21
14.335556
  0
LINE
  8
0
  6
CONTINUOUS
 62
     7
 10
-118.64629
 20
-13.664444
 11
-118.64629
 21
-43.664444
  0
LINE
  8
0
  6
CONTINUOUS
 62
     7
 10
-183.64629
 20
16.835556
 11
-183.64629
 21
-74.164444
  0
LINE
  8
0
  6
CONTINUOUS
 62
     7
 10
-124.64629
 20
-13.664444
 11
-124.64629
 21
-43.664444
  0
LINE
  8
0
  6
CONTINUOUS
 62
     7
 10
-171.64629
 20
16.835556
 11
-171.64629
 21
-74.164444
  0
LINE
  8
0
  6
CENTER
 62
     7
 10
-15.501827
 20
-28.664444
 11
-89.901825
 21
-28.664444
  0
LINE
  8
0
  6
CONTINUOUS
 62
     7
 10
-58.787983
 20
-74.164444
 11
-84.901825
 21
-74.164444
  0
LINE
  8
0
  6
CONTINUOUS
 62
     7
 10
-61.901821
 20
-71.664444
 11
-68.028427
 21
-71.664444
  0
LINE
  8
0
  6
CONTINUOUS
 62
     7
 10
-32.55476
 20
-45.164444
 11
-28.499889
 21
-45.164444
  0
LINE
  8
0
  6
CONTINUOUS
 62
     7
 10
-25.901821
 20
-46.664444
 11
-19.901821
 21
-46.664444
  0
LINE
  8
0
  6
CONTINUOUS
 62
     7
 10
-25.901821
 20
-10.664444
 11
-19.901821
 21
-10.664444
  0
LINE
  8
0
  6
CONTINUOUS
 62
     7
 10
-32.55476
 20
-12.164444
 11
-28.499889
 21
-12.164444
  0
LINE
  8
0
  6
CONTINUOUS
 62
     7
 10
-58.787983
 20
16.835556
 11
-84.901825
 21
16.835556
  0
LINE
  8
0
  6
CONTINUOUS
 62
     7
 10
-61.901821
 20
14.335556
 11
-68.028427
 21
14.335556
  0
LINE
  8
0
  6
CONTINUOUS
 62
     7
 10
-19.901821
 20
-10.664444
 11
-19.901821
 21
-46.664444
  0
LINE
  8
0
  6
CONTINUOUS
 62
     7
 10
-84.901825
 20
16.835556
 11
-84.901825
 21
-74.164444
  0
LINE
  8
0
  6
CONTINUOUS
 62
     7
 10
-72.901825
 20
16.835556
 11
-72.901825
 21
-74.164444
  0
LINE
  8
0
  6
CONTINUOUS
 62
     7
 10
-25.901814
 20
-10.664444
 11
-25.901814
 21
-46.664444
  0
LINE
  8
0
  6
CENTER
 62
     7
 10
83.24263
 20
-28.664444
 11
8.8426361
 21
-28.664444
  0
LINE
  8
0
  6
CONTINUOUS
 62
     7
 10
40.889206
 20
-74.164444
 11
13.842636
 21
-74.164444
  0
LINE
  8
0
  6
CONTINUOUS
 62
     7
 10
37.842636
 20
-71.664444
 11
30.716034
 21
-71.664444
  0
LINE
  8
0
  6
CONTINUOUS
 62
     7
 10
71.842636
 20
-50.664444
 11
78.842636
 21
-50.664444
  0
LINE
  8
0
  6
CONTINUOUS
 62
     7
 10
71.842636
 20
-6.664444
 11
78.842636
 21
-6.664444
  0
LINE
  8
0
  6
CONTINUOUS
 62
     7
 10
68.029556
 20
-8.164444
 11
69.244553
 21
-8.164444
  0
LINE
  8
0
  6
CONTINUOUS
 62
     7
 10
68.029556
 20
-49.164444
 11
69.244553
 21
-49.164444
  0
LINE
  8
0
  6
CONTINUOUS
 62
     7
 10
40.889206
 20
16.835556
 11
13.842636
 21
16.835556
  0
LINE
  8
0
  6
CONTINUOUS
 62
     7
 10
37.842636
 20
14.335556
 11
30.716034
 21
14.335556
  0
LINE
  8
0
  6
CONTINUOUS
 62
     7
 10
78.842636
 20
-6.664444
 11
78.842636
 21
-50.664444
  0
LINE
  8
0
  6
CONTINUOUS
 62
     7
 10
13.842636
 20
16.835556
 11
13.842636
 21
-74.164444
  0
LINE
  8
0
  6
CONTINUOUS
 62
     7
 10
71.842636
 20
-6.664444
 11
71.842636
 21
-50.664444
  0
LINE
  8
0
  6
CONTINUOUS
 62
     7
 10
25.842636
 20
16.835556
 11
25.842636
 21
-74.164444
  0
LINE
  8
0
  6
CENTER
 62
     7
 10
182.1871
 20
-28.664444
 11
107.5871
 21
-28.664444
  0
LINE
  8
0
  6
CONTINUOUS
 62
     7
 10
139.62625
 20
-74.164444
 11
112.5871
 21
-74.164444
  0
LINE
  8
0
  6
CONTINUOUS
 62
     7
 10
136.5871
 20
-71.664444
 11
129.46049
 21
-71.664444
  0
LINE
  8
0
  6
CONTINUOUS
 62
     7
 10
162.74049
 20
-53.664444
 11
166.98901
 21
-53.664444
  0
LINE
  8
0
  6
CONTINUOUS
 62
     7
 10
169.5871
 20
-55.164444
 11
177.5871
 21
-55.164444
  0
LINE
  8
0
  6
CONTINUOUS
 62
     7
 10
169.5871
 20
-2.164444
 11
177.5871
 21
-2.164444
  0
LINE
  8
0
  6
CONTINUOUS
 62
     7
 10
162.74049
 20
-3.664444
 11
166.98901
 21
-3.664444
  0
LINE
  8
0
  6
CONTINUOUS
 62
     7
 10
139.62625
 20
16.835556
 11
112.5871
 21
16.835556
  0
LINE
  8
0
  6
CONTINUOUS
 62
     7
 10
136.5871
 20
14.335556
 11
129.46049
 21
14.335556
  0
LINE
  8
0
  6
CONTINUOUS
 62
     7
 10
177.5871
 20
-2.164444
 11
177.5871
 21
-55.164444
  0
LINE
  8
0
  6
CONTINUOUS
 62
     7
 10
112.5871
 20
16.835556
 11
112.5871
 21
-74.164444
  0
LINE
  8
0
  6
CONTINUOUS
 62
     7
 10
169.5871
 20
-2.164444
 11
169.5871
 21
-55.164444
  0
LINE
  8
0
  6
CONTINUOUS
 62
     7
 10
124.5871
 20
16.835556
 11
124.5871
 21
-74.164444
  0
LINE
  8
0
  6
CENTER
 62
     7
 10
280.93158
 20
-28.664444
 11
206.33156
 21
-28.664444
  0
LINE
  8
0
  6
CONTINUOUS
 62
     7
 10
237.11264
 20
-74.164444
 11
211.33156
 21
-74.164444
  0
LINE
  8
0
  6
CONTINUOUS
 62
     7
 10
235.33156
 20
-71.664444
 11
228.20496
 21
-71.664444
  0
LINE
  8
0
  6
CONTINUOUS
 62
     7
 10
261.59943
 20
-56.664444
 11
263.86746
 21
-56.664444
  0
LINE
  8
0
  6
CONTINUOUS
 62
     7
 10
267.33154
 20
-58.664444
 11
276.33154
 21
-58.664444
  0
LINE
  8
0
  6
CONTINUOUS
 62
     7
 10
261.59943
 20
-0.66444397
 11
263.86746
 21
-0.66444397
  0
LINE
  8
0
  6
CONTINUOUS
 62
     7
 10
267.33154
 20
1.335556
 11
276.33154
 21
1.335556
  0
LINE
  8
0
  6
CONTINUOUS
 62
     7
 10
235.33156
 20
14.335556
 11
228.20496
 21
14.335556
  0
LINE
  8
0
  6
CONTINUOUS
 62
     7
 10
237.11264
 20
16.835556
 11
211.33156
 21
16.835556
  0
LINE
  8
0
  6
CONTINUOUS
 62
     7
 10
276.33154
 20
1.335556
 11
276.33154
 21
-58.664444
  0
LINE
  8
0
  6
CONTINUOUS
 62
     7
 10
211.33156
 20
16.835556
 11
211.33156
 21
-74.164444
  0
LINE
  8
0
  6
CONTINUOUS
 62
     7
 10
267.33154
 20
1.335556
 11
267.33154
 21
-58.664444
  0
LINE
  8
0
  6
CONTINUOUS
 62
     7
 10
223.33156
 20
16.835556
 11
223.33156
 21
-74.164444
  0
LINE
  8
0
  6
CENTER
 62
     7
 10
379.67603
 20
-28.664444
 11
305.07602
 21
-28.664444
  0
LINE
  8
0
  6
CONTINUOUS
 62
     7
 10
336.17242
 20
-74.164444
 11
310.07602
 21
-74.164444
  0
LINE
  8
0
  6
CONTINUOUS
 62
     7
 10
334.07602
 20
-71.664444
 11
326.9494
 21
-71.664444
  0
LINE
  8
0
  6
CONTINUOUS
 62
     7
 10
356.56491
 20
-63.164444
 11
360.61194
 21
-63.164444
  0
LINE
  8
0
  6
CONTINUOUS
 62
     7
 10
364.07602
 20
-65.164444
 11
375.07602
 21
-65.164444
  0
LINE
  8
0
  6
CONTINUOUS
 62
     7
 10
364.07602
 20
7.835556
 11
375.07602
 21
7.835556
  0
LINE
  8
0
  6
CONTINUOUS
 62
     7
 10
356.56491
 20
5.835556
 11
360.61194
 21
5.835556
  0
LINE
  8
0
  6
CONTINUOUS
 62
     7
 10
336.17242
 20
16.835556
 11
310.07602
 21
16.835556
  0
LINE
  8
0
  6
CONTINUOUS
 62
     7
 10
334.07602
 20
14.335556
 11
326.9494
 21
14.335556
  0
LINE
  8
0
  6
CONTINUOUS
 62
     7
 10
375.07602
 20
7.835556
 11
375.07602
 21
-65.164444
  0
LINE
  8
0
  6
CONTINUOUS
 62
     7
 10
310.07602
 20
16.835556
 11
310.07602
 21
-74.164444
  0
LINE
  8
0
  6
CONTINUOUS
 62
     7
 10
364.07602
 20
7.835556
 11
364.07602
 21
-65.164444
  0
LINE
  8
0
  6
CONTINUOUS
 62
     7
 10
322.07602
 20
16.835556
 11
322.07602
 21
-74.164444
  0
LINE
  8
0
  6
CENTER
 62
     7
 10
-261.17847
 20
-196.8914
 11
-342.97845
 21
-196.8914
  0
LINE
  8
0
  6
CONTINUOUS
 62
     7
 10
-309.33374
 20
-249.3914
 11
-337.57846
 21
-249.3914
  0
LINE
  8
0
  6
CONTINUOUS
 62
     7
 10
-312.57846
 20
-246.3914
 11
-317.43704
 21
-246.3914
  0
LINE
  8
0
  6
CONTINUOUS
 62
     7
 10
-290.42456
 20
-220.64354
 11
-294.23758
 21
-234.36711
  0
LINE
  8
0
  6
CONTINUOUS
 62
     7
 10
-276.93555
 20
-210.3914
 11
-274.17654
 21
-210.3914
  0
LINE
  8
0
  6
CONTINUOUS
 62
     7
 10
-271.57846
 20
-211.8914
 11
-265.57846
 21
-211.8914
  0
LINE
  8
0
  6
CONTINUOUS
 62
     7
 10
-271.57846
 20
-181.8914
 11
-265.57846
 21
-181.8914
  0
LINE
  8
0
  6
CONTINUOUS
 62
     7
 10
-276.93555
 20
-183.3914
 11
-274.17654
 21
-183.3914
  0
LINE
  8
0
  6
CONTINUOUS
 62
     7
 10
-290.42459
 20
-173.13927
 11
-292.75201
 21
-164.76254
  0
LINE
  8
0
  6
CONTINUOUS
 62
     7
 10
-312.57846
 20
-147.3914
 11
-317.43704
 21
-147.3914
  0
LINE
  8
0
  6
CONTINUOUS
 62
     7
 10
-309.33374
 20
-144.3914
 11
-337.57846
 21
-144.3914
  0
LINE
  8
0
  6
CONTINUOUS
 62
     7
 10
-265.57846
 20
-181.8914
 11
-265.57846
 21
-211.8914
  0
LINE
  8
0
  6
CONTINUOUS
 62
     7
 10
-337.57846
 20
-144.3914
 11
-337.57846
 21
-249.3914
  0
LINE
  8
0
  6
CONTINUOUS
 62
     7
 10
-271.57846
 20
-181.8914
 11
-271.57846
 21
-211.8914
  0
LINE
  8
0
  6
CONTINUOUS
 62
     7
 10
-324.57846
 20
-144.3914
 11
-324.57846
 21
-249.3914
  0
LINE
  8
0
  6
CENTER
 62
     7
 10
-155.56223
 20
-196.8914
 11
-237.36221
 21
-196.8914
  0
LINE
  8
0
  6
CONTINUOUS
 62
     7
 10
-201.35225
 20
-249.3914
 11
-231.96222
 21
-249.3914
  0
LINE
  8
0
  6
CONTINUOUS
 62
     7
 10
-203.96222
 20
-246.3914
 11
-211.8208
 21
-246.3914
  0
LINE
  8
0
  6
CONTINUOUS
 62
     7
 10
-165.96222
 20
-214.8914
 11
-159.96222
 21
-214.8914
  0
LINE
  8
0
  6
CONTINUOUS
 62
     7
 10
-165.96222
 20
-178.8914
 11
-159.96222
 21
-178.8914
  0
LINE
  8
0
  6
CONTINUOUS
 62
     7
 10
-203.96222
 20
-147.3914
 11
-211.8208
 21
-147.3914
  0
LINE
  8
0
  6
CONTINUOUS
 62
     7
 10
-201.35225
 20
-144.3914
 11
-231.96222
 21
-144.3914
  0
LINE
  8
0
  6
CONTINUOUS
 62
     7
 10
-159.96222
 20
-178.8914
 11
-159.96222
 21
-214.8914
  0
LINE
  8
0
  6
CONTINUOUS
 62
     7
 10
-231.96222
 20
-144.3914
 11
-231.96222
 21
-249.3914
  0
LINE
  8
0
  6
CONTINUOUS
 62
     7
 10
-165.96222
 20
-178.8914
 11
-165.96222
 21
-214.8914
  0
LINE
  8
0
  6
CONTINUOUS
 62
     7
 10
-218.96222
 20
-144.3914
 11
-218.96222
 21
-249.3914
  0
LINE
  8
0
  6
CENTER
 62
     7
 10
-50.991699
 20
-196.8914
 11
-132.79169
 21
-196.8914
  0
LINE
  8
0
  6
CONTINUOUS
 62
     7
 10
-98.770813
 20
-249.3914
 11
-127.39169
 21
-249.3914
  0
LINE
  8
0
  6
CONTINUOUS
 62
     7
 10
-101.34602
 20
-246.3914
 11
-107.25027
 21
-246.3914
  0
LINE
  8
0
  6
CONTINUOUS
 62
     7
 10
-66.033142
 20
-217.3914
 11
-64.989761
 21
-217.3914
  0
LINE
  8
0
  6
CONTINUOUS
 62
     7
 10
-62.391693
 20
-218.8914
 11
-55.391693
 21
-218.8914
  0
LINE
  8
0
  6
CONTINUOUS
 62
     7
 10
-62.391693
 20
-174.8914
 11
-55.391693
 21
-174.8914
  0
LINE
  8
0
  6
CONTINUOUS
 62
     7
 10
-66.033142
 20
-176.3914
 11
-64.989761
 21
-176.3914
  0
LINE
  8
0
  6
CONTINUOUS
 62
     7
 10
-98.770813
 20
-144.3914
 11
-127.39169
 21
-144.3914
  0
LINE
  8
0
  6
CONTINUOUS
 62
     7
 10
-101.34602
 20
-147.3914
 11
-107.25027
 21
-147.3914
  0
LINE
  8
0
  6
CONTINUOUS
 62
     7
 10
-55.391693
 20
-174.8914
 11
-55.391693
 21
-218.8914
  0
LINE
  8
0
  6
CONTINUOUS
 62
     7
 10
-127.39169
 20
-144.3914
 11
-127.39169
 21
-249.3914
  0
LINE
  8
0
  6
CONTINUOUS
 62
     7
 10
-62.391693
 20
-174.8914
 11
-62.391693
 21
-218.8914
  0
LINE
  8
0
  6
CONTINUOUS
 62
     7
 10
-114.39169
 20
-144.3914
 11
-114.39169
 21
-249.3914
  0
LINE
  8
0
  6
CENTER
 62
     7
 10
51.687435
 20
-196.8914
 11
-30.312572
 21
-196.8914
  0
LINE
  8
0
  6
CONTINUOUS
 62
     7
 10
3.5480385
 20
-249.3914
 11
-24.912571
 21
-249.3914
  0
LINE
  8
0
  6
CONTINUOUS
 62
     7
 10
1.087429
 20
-246.3914
 11
-4.7711449
 21
-246.3914
  0
LINE
  8
0
  6
CONTINUOUS
 62
     7
 10
32.196117
 20
-221.8914
 11
36.489361
 21
-221.8914
  0
LINE
  8
0
  6
CONTINUOUS
 62
     7
 10
39.087429
 20
-223.3914
 11
47.087429
 21
-223.3914
  0
LINE
  8
0
  6
CONTINUOUS
 62
     7
 10
39.087429
 20
-170.3914
 11
47.087429
 21
-170.3914
  0
LINE
  8
0
  6
CONTINUOUS
 62
     7
 10
32.196117
 20
-171.8914
 11
36.489361
 21
-171.8914
  0
LINE
  8
0
  6
CONTINUOUS
 62
     7
 10
3.5480385
 20
-144.3914
 11
-24.912571
 21
-144.3914
  0
LINE
  8
0
  6
CONTINUOUS
 62
     7
 10
1.087429
 20
-147.3914
 11
-4.7711449
 21
-147.3914
  0
LINE
  8
0
  6
CONTINUOUS
 62
     7
 10
47.087429
 20
-170.3914
 11
47.087429
 21
-223.3914
  0
LINE
  8
0
  6
CONTINUOUS
 62
     7
 10
-24.912571
 20
-144.3914
 11
-24.912571
 21
-249.3914
  0
LINE
  8
0
  6
CONTINUOUS
 62
     7
 10
39.087429
 20
-170.3914
 11
39.087429
 21
-223.3914
  0
LINE
  8
0
  6
CONTINUOUS
 62
     7
 10
-11.912573
 20
-144.3914
 11
-11.912573
 21
-249.3914
  0
LINE
  8
0
  6
CENTER
 62
     7
 10
165.59593
 20
-196.93117
 11
85.595924
 21
-196.93117
  0
LINE
  8
0
  6
CONTINUOUS
 62
     7
 10
119.24063
 20
-249.43117
 11
90.995926
 21
-249.43117
  0
LINE
  8
0
  6
CONTINUOUS
 62
     7
 10
115.99593
 20
-246.43117
 11
111.13735
 21
-246.43117
  0
LINE
  8
0
  6
CONTINUOUS
 62
     7
 10
146.22423
 20
-224.93117
 11
148.53183
 21
-224.93117
  0
LINE
  8
0
  6
CONTINUOUS
 62
     7
 10
151.99593
 20
-226.93117
 11
160.99593
 21
-226.93117
  0
LINE
  8
0
  6
CONTINUOUS
 62
     7
 10
151.99593
 20
-166.93117
 11
160.99593
 21
-166.93117
  0
LINE
  8
0
  6
CONTINUOUS
 62
     7
 10
146.22423
 20
-168.93117
 11
148.53183
 21
-168.93117
  0
LINE
  8
0
  6
CONTINUOUS
 62
     7
 10
119.24063
 20
-144.43117
 11
90.995926
 21
-144.43117
  0
LINE
  8
0
  6
CONTINUOUS
 62
     7
 10
115.99593
 20
-147.43117
 11
111.13735
 21
-147.43117
  0
LINE
  8
0
  6
CONTINUOUS
 62
     7
 10
160.99593
 20
-166.93117
 11
160.99593
 21
-226.93117
  0
LINE
  8
0
  6
CONTINUOUS
 62
     7
 10
90.995926
 20
-144.43117
 11
90.995926
 21
-249.43117
  0
LINE
  8
0
  6
CONTINUOUS
 62
     7
 10
151.99593
 20
-166.93117
 11
151.99593
 21
-226.93117
  0
LINE
  8
0
  6
CONTINUOUS
 62
     7
 10
103.99593
 20
-144.43117
 11
103.99593
 21
-249.43117
  0
LINE
  8
0
  6
CENTER
 62
     7
 10
269.19415
 20
-196.8914
 11
187.19412
 21
-196.8914
  0
LINE
  8
0
  6
CONTINUOUS
 62
     7
 10
217.92715
 20
-249.3914
 11
192.59413
 21
-249.3914
  0
LINE
  8
0
  6
CONTINUOUS
 62
     7
 10
218.6398
 20
-246.3914
 11
212.73557
 21
-246.3914
  0
LINE
  8
0
  6
CONTINUOUS
 62
     7
 10
247.36261
 20
-231.3914
 11
250.13004
 21
-231.3914
  0
LINE
  8
0
  6
CONTINUOUS
 62
     7
 10
253.59413
 20
-233.3914
 11
264.59412
 21
-233.3914
  0
LINE
  8
0
  6
CONTINUOUS
 62
     7
 10
253.59413
 20
-160.3914
 11
264.59412
 21
-160.3914
  0
LINE
  8
0
  6
CONTINUOUS
 62
     7
 10
247.36261
 20
-162.3914
 11
250.13004
 21
-162.3914
  0
LINE
  8
0
  6
CONTINUOUS
 62
     7
 10
217.92715
 20
-144.3914
 11
192.59413
 21
-144.3914
  0
LINE
  8
0
  6
CONTINUOUS
 62
     7
 10
218.6398
 20
-147.3914
 11
212.73557
 21
-147.3914
  0
LINE
  8
0
  6
CONTINUOUS
 62
     7
 10
264.59412
 20
-160.3914
 11
264.59412
 21
-233.3914
  0
LINE
  8
0
  6
CONTINUOUS
 62
     7
 10
192.59413
 20
-144.3914
 11
192.59413
 21
-249.3914
  0
LINE
  8
0
  6
CONTINUOUS
 62
     7
 10
253.59413
 20
-160.3914
 11
253.59413
 21
-233.3914
  0
LINE
  8
0
  6
CONTINUOUS
 62
     7
 10
205.59413
 20
-144.3914
 11
205.59413
 21
-249.3914
  0
LINE
  8
0
  6
CENTER
 62
     7
 10
383.57602
 20
-196.8914
 11
301.17603
 21
-196.8914
  0
LINE
  8
0
  6
CONTINUOUS
 62
     7
 10
332.96411
 20
-249.3914
 11
306.57602
 21
-249.3914
  0
LINE
  8
0
  6
CONTINUOUS
 62
     7
 10
332.57602
 20
-246.3914
 11
326.71744
 21
-246.3914
  0
LINE
  8
0
  6
CONTINUOUS
 62
     7
 10
359.25467
 20
-239.8914
 11
361.70264
 21
-239.8914
  0
LINE
  8
0
  6
CONTINUOUS
 62
     7
 10
366.57602
 20
-242.3914
 11
378.57602
 21
-242.3914
  0
LINE
  8
0
  6
CONTINUOUS
 62
     7
 10
366.57602
 20
-151.3914
 11
378.57602
 21
-151.3914
  0
LINE
  8
0
  6
CONTINUOUS
 62
     7
 10
359.25467
 20
-153.8914
 11
361.70264
 21
-153.8914
  0
LINE
  8
0
  6
CONTINUOUS
 62
     7
 10
332.96411
 20
-144.3914
 11
306.57602
 21
-144.3914
  0
LINE
  8
0
  6
CONTINUOUS
 62
     7
 10
332.57602
 20
-147.3914
 11
326.71744
 21
-147.3914
  0
LINE
  8
0
  6
CONTINUOUS
 62
     7
 10
378.57602
 20
-151.3914
 11
378.57602
 21
-242.3914
  0
LINE
  8
0
  6
CONTINUOUS
 62
     7
 10
306.57602
 20
-144.3914
 11
306.57602
 21
-249.3914
  0
LINE
  8
0
  6
CONTINUOUS
 62
     7
 10
366.57602
 20
-151.3914
 11
366.57602
 21
-242.3914
  0
LINE
  8
0
  6
CONTINUOUS
 62
     7
 10
319.57602
 20
-144.3914
 11
319.57602
 21
-249.3914
  0
LINE
  8
0
  6
CENTER
 62
     7
 10
584.50366
 20
189.57025
 11
488.90369
 21
189.57025
  0
LINE
  8
0
  6
CONTINUOUS
 62
     7
 10
529.33466
 20
123.07025
 11
495.1037
 21
123.07025
  0
LINE
  8
0
  6
CONTINUOUS
 62
     7
 10
524.55798
 20
126.07025
 11
518.24512
 21
126.07025
  0
LINE
  8
0
  6
CONTINUOUS
 62
     7
 10
555.26367
 20
162.80246
 11
550.58087
 21
145.87244
  0
LINE
  8
0
  6
CONTINUOUS
 62
     7
 10
568.75702
 20
173.07025
 11
571.50562
 21
173.07025
  0
LINE
  8
0
  6
CONTINUOUS
 62
     7
 10
574.1037
 20
171.57025
 11
580.1037
 21
171.57025
  0
LINE
  8
0
  6
CONTINUOUS
 62
     7
 10
574.1037
 20
207.57025
 11
580.1037
 21
207.57025
  0
LINE
  8
0
  6
CONTINUOUS
 62
     7
 10
568.75702
 20
206.07025
 11
571.50562
 21
206.07025
  0
LINE
  8
0
  6
CONTINUOUS
 62
     7
 10
555.26367
 20
216.33806
 11
550.58087
 21
233.26807
  0
LINE
  8
0
  6
CONTINUOUS
 62
     7
 10
529.33466
 20
256.07025
 11
495.1037
 21
256.07025
  0
LINE
  8
0
  6
CONTINUOUS
 62
     7
 10
524.55798
 20
253.07025
 11
518.24512
 21
253.07025
  0
LINE
  8
0
  6
CONTINUOUS
 62
     7
 10
580.1037
 20
207.57025
 11
580.1037
 21
171.57025
  0
LINE
  8
0
  6
CONTINUOUS
 62
     7
 10
495.1037
 20
256.07025
 11
495.1037
 21
123.07025
  0
LINE
  8
0
  6
CONTINUOUS
 62
     7
 10
535.1037
 20
185.57025
 11
514.1037
 21
185.57025
  0
LINE
  8
0
  6
CONTINUOUS
 62
     7
 10
535.1037
 20
193.57025
 11
514.1037
 21
193.57025
  0
LINE
  8
0
  6
CONTINUOUS
 62
     7
 10
574.1037
 20
207.57025
 11
574.1037
 21
171.57025
  0
LINE
  8
0
  6
CONTINUOUS
 62
     7
 10
511.1037
 20
256.07025
 11
511.1037
 21
196.57025
  0
LINE
  8
0
  6
CONTINUOUS
 62
     7
 10
511.1037
 20
182.57025
 11
511.1037
 21
123.07025
  0
LINE
  8
0
  6
CENTER
 62
     7
 10
691.36255
 20
189.57025
 11
595.76251
 21
189.57025
  0
LINE
  8
0
  6
CONTINUOUS
 62
     7
 10
634.44214
 20
123.07027
 11
601.96252
 21
123.07027
  0
LINE
  8
0
  6
CONTINUOUS
 62
     7
 10
632.46252
 20
126.07025
 11
625.10394
 21
126.07025
  0
LINE
  8
0
  6
CONTINUOUS
 62
     7
 10
662.13977
 20
161.47569
 11
651.56116
 21
138.33824
  0
LINE
  8
0
  6
CONTINUOUS
 62
     7
 10
673.96252
 20
169.07025
 11
677.36444
 21
169.07025
  0
LINE
  8
0
  6
CONTINUOUS
 62
     7
 10
679.96252
 20
167.57025
 11
686.96252
 21
167.57025
  0
LINE
  8
0
  6
CONTINUOUS
 62
     7
 10
679.96252
 20
211.57025
 11
686.96252
 21
211.57025
  0
LINE
  8
0
  6
CONTINUOUS
 62
     7
 10
673.96252
 20
210.07025
 11
677.36444
 21
210.07025
  0
LINE
  8
0
  6
CONTINUOUS
 62
     7
 10
662.13971
 20
217.66479
 11
651.56104
 21
240.80226
  0
LINE
  8
0
  6
CONTINUOUS
 62
     7
 10
634.44214
 20
256.07025
 11
601.96252
 21
256.07025
  0
LINE
  8
0
  6
CONTINUOUS
 62
     7
 10
632.46252
 20
253.07025
 11
625.10394
 21
253.07025
  0
LINE
  8
0
  6
CONTINUOUS
 62
     7
 10
686.96252
 20
211.57025
 11
686.96252
 21
167.57025
  0
LINE
  8
0
  6
CONTINUOUS
 62
     7
 10
601.96252
 20
256.07025
 11
601.96252
 21
123.07027
  0
LINE
  8
0
  6
CONTINUOUS
 62
     7
 10
679.96252
 20
211.57025
 11
679.96252
 21
167.57025
  0
LINE
  8
0
  6
CONTINUOUS
 62
     7
 10
617.96252
 20
256.07025
 11
617.96252
 21
196.57025
  0
LINE
  8
0
  6
CONTINUOUS
 62
     7
 10
639.96252
 20
193.57025
 11
620.96252
 21
193.57025
  0
LINE
  8
0
  6
CONTINUOUS
 62
     7
 10
639.96252
 20
185.57025
 11
620.96252
 21
185.57025
  0
LINE
  8
0
  6
CONTINUOUS
 62
     7
 10
617.96252
 20
182.57025
 11
617.96252
 21
123.07027
  0
LINE
  8
0
  6
CENTER
 62
     7
 10
806.6676
 20
189.57025
 11
710.86755
 21
189.57025
  0
LINE
  8
0
  6
CONTINUOUS
 62
     7
 10
751.27222
 20
123.07025
 11
717.06757
 21
123.07025
  0
LINE
  8
0
  6
CONTINUOUS
 62
     7
 10
746.56757
 20
126.07025
 11
740.20898
 21
126.07025
  0
LINE
  8
0
  6
CONTINUOUS
 62
     7
 10
789.33142
 20
164.57025
 11
791.46948
 21
164.57025
  0
LINE
  8
0
  6
CONTINUOUS
 62
     7
 10
794.06757
 20
163.07025
 11
802.06757
 21
163.07025
  0
LINE
  8
0
  6
CONTINUOUS
 62
     7
 10
794.06757
 20
216.07025
 11
802.06757
 21
216.07025
  0
LINE
  8
0
  6
CONTINUOUS
 62
     7
 10
789.33142
 20
214.57025
 11
791.46948
 21
214.57025
  0
LINE
  8
0
  6
CONTINUOUS
 62
     7
 10
751.27222
 20
256.07025
 11
717.06757
 21
256.07025
  0
LINE
  8
0
  6
CONTINUOUS
 62
     7
 10
746.56757
 20
253.07025
 11
740.20898
 21
253.07025
  0
LINE
  8
0
  6
CONTINUOUS
 62
     7
 10
802.06757
 20
216.07025
 11
802.06757
 21
163.07025
  0
LINE
  8
0
  6
CONTINUOUS
 62
     7
 10
717.06757
 20
256.07025
 11
717.06757
 21
123.07025
  0
LINE
  8
0
  6
CONTINUOUS
 62
     7
 10
794.06757
 20
216.07025
 11
794.06757
 21
163.07025
  0
LINE
  8
0
  6
CONTINUOUS
 62
     7
 10
733.06757
 20
256.07025
 11
733.06757
 21
196.57025
  0
LINE
  8
0
  6
CONTINUOUS
 62
     7
 10
757.06757
 20
193.57025
 11
736.06757
 21
193.57025
  0
LINE
  8
0
  6
CONTINUOUS
 62
     7
 10
757.06757
 20
185.57025
 11
736.06757
 21
185.57025
  0
LINE
  8
0
  6
CONTINUOUS
 62
     7
 10
733.06757
 20
182.57025
 11
733.06757
 21
123.07025
  0
LINE
  8
0
  6
CENTER
 62
     7
 10
923.21375
 20
189.57025
 11
827.4137
 21
189.57025
  0
LINE
  8
0
  6
CONTINUOUS
 62
     7
 10
862.25635
 20
123.07025
 11
833.61371
 21
123.07025
  0
LINE
  8
0
  6
CONTINUOUS
 62
     7
 10
862.73077
 20
126.07025
 11
856.75513
 21
126.07025
  0
LINE
  8
0
  6
CONTINUOUS
 62
     7
 10
901.11371
 20
161.57025
 11
906.1496
 21
161.57025
  0
LINE
  8
0
  6
CONTINUOUS
 62
     7
 10
909.61371
 20
159.57025
 11
918.61371
 21
159.57025
  0
LINE
  8
0
  6
CONTINUOUS
 62
     7
 10
909.61371
 20
219.57025
 11
918.61371
 21
219.57025
  0
LINE
  8
0
  6
CONTINUOUS
 62
     7
 10
901.11371
 20
217.57025
 11
906.1496
 21
217.57025
  0
LINE
  8
0
  6
CONTINUOUS
 62
     7
 10
862.73077
 20
253.07025
 11
856.75513
 21
253.07025
  0
LINE
  8
0
  6
CONTINUOUS
 62
     7
 10
862.25635
 20
256.07025
 11
833.61371
 21
256.07025
  0
LINE
  8
0
  6
CONTINUOUS
 62
     7
 10
918.61371
 20
219.57025
 11
918.61371
 21
159.57025
  0
LINE
  8
0
  6
CONTINUOUS
 62
     7
 10
833.61371
 20
256.07025
 11
833.61371
 21
123.07025
  0
LINE
  8
0
  6
CONTINUOUS
 62
     7
 10
909.61371
 20
219.57025
 11
909.61371
 21
159.57025
  0
LINE
  8
0
  6
CONTINUOUS
 62
     7
 10
849.61371
 20
256.07025
 11
849.61371
 21
196.57025
  0
LINE
  8
0
  6
CONTINUOUS
 62
     7
 10
871.61371
 20
193.57025
 11
852.61371
 21
193.57025
  0
LINE
  8
0
  6
CONTINUOUS
 62
     7
 10
871.61371
 20
185.57025
 11
852.61371
 21
185.57025
  0
LINE
  8
0
  6
CONTINUOUS
 62
     7
 10
849.61371
 20
182.57025
 11
849.61371
 21
123.07025
  0
LINE
  8
0
  6
CENTER
 62
     7
 10
1044.943
 20
189.57025
 11
949.14301
 21
189.57025
  0
LINE
  8
0
  6
CONTINUOUS
 62
     7
 10
982.83002
 20
123.07025
 11
955.34302
 21
123.07025
  0
LINE
  8
0
  6
CONTINUOUS
 62
     7
 10
986.36115
 20
126.07025
 11
978.48444
 21
126.07025
  0
LINE
  8
0
  6
CONTINUOUS
 62
     7
 10
1020.843
 20
155.07025
 11
1025.8789
 21
155.07025
  0
LINE
  8
0
  6
CONTINUOUS
 62
     7
 10
1029.343
 20
153.07025
 11
1040.343
 21
153.07025
  0
LINE
  8
0
  6
CONTINUOUS
 62
     7
 10
1029.343
 20
226.07025
 11
1040.343
 21
226.07025
  0
LINE
  8
0
  6
CONTINUOUS
 62
     7
 10
1020.843
 20
224.07025
 11
1025.8789
 21
224.07025
  0
LINE
  8
0
  6
CONTINUOUS
 62
     7
 10
986.36115
 20
253.07025
 11
978.48444
 21
253.07025
  0
LINE
  8
0
  6
CONTINUOUS
 62
     7
 10
982.83002
 20
256.07025
 11
955.34302
 21
256.07025
  0
LINE
  8
0
  6
CONTINUOUS
 62
     7
 10
1040.343
 20
226.07025
 11
1040.343
 21
153.07025
  0
LINE
  8
0
  6
CONTINUOUS
 62
     7
 10
955.34302
 20
256.07025
 11
955.34302
 21
123.07025
  0
LINE
  8
0
  6
CONTINUOUS
 62
     7
 10
1029.343
 20
226.07025
 11
1029.343
 21
153.07025
  0
LINE
  8
0
  6
CONTINUOUS
 62
     7
 10
971.34302
 20
256.07025
 11
971.34302
 21
196.57025
  0
LINE
  8
0
  6
CONTINUOUS
 62
     7
 10
971.34302
 20
182.57025
 11
971.34302
 21
123.07025
  0
LINE
  8
0
  6
CONTINUOUS
 62
     7
 10
987.34302
 20
185.57025
 11
974.34302
 21
185.57025
  0
LINE
  8
0
  6
CONTINUOUS
 62
     7
 10
987.34302
 20
193.57025
 11
974.34302
 21
193.57025
  0
LINE
  8
0
  6
CENTER
 62
     7
 10
1162.832
 20
189.57025
 11
1066.6321
 21
189.57025
  0
LINE
  8
0
  6
CONTINUOUS
 62
     7
 10
1106.0336
 20
123.07025
 11
1072.832
 21
123.07025
  0
LINE
  8
0
  6
CONTINUOUS
 62
     7
 10
1101.832
 20
126.07025
 11
1095.9735
 21
126.07025
  0
LINE
  8
0
  6
CONTINUOUS
 62
     7
 10
1139.5779
 20
146.57025
 11
1140.9586
 21
146.57025
  0
LINE
  8
0
  6
CONTINUOUS
 62
     7
 10
1145.832
 20
144.07025
 11
1157.832
 21
144.07025
  0
LINE
  8
0
  6
CONTINUOUS
 62
     7
 10
1145.832
 20
235.07025
 11
1157.832
 21
235.07025
  0
LINE
  8
0
  6
CONTINUOUS
 62
     7
 10
1139.5779
 20
232.57025
 11
1140.9586
 21
232.57025
  0
LINE
  8
0
  6
CONTINUOUS
 62
     7
 10
1106.0336
 20
256.07025
 11
1072.832
 21
256.07025
  0
LINE
  8
0
  6
CONTINUOUS
 62
     7
 10
1101.832
 20
253.07025
 11
1095.9735
 21
253.07025
  0
LINE
  8
0
  6
CONTINUOUS
 62
     7
 10
1157.832
 20
235.07025
 11
1157.832
 21
144.07025
  0
LINE
  8
0
  6
CONTINUOUS
 62
     7
 10
1072.832
 20
256.07025
 11
1072.832
 21
123.07025
  0
LINE
  8
0
  6
CONTINUOUS
 62
     7
 10
1145.832
 20
235.07025
 11
1145.832
 21
144.07025
  0
LINE
  8
0
  6
CONTINUOUS
 62
     7
 10
1088.832
 20
256.07025
 11
1088.832
 21
196.57025
  0
LINE
  8
0
  6
CONTINUOUS
 62
     7
 10
1110.832
 20
193.57025
 11
1091.832
 21
193.57025
  0
LINE
  8
0
  6
CONTINUOUS
 62
     7
 10
1110.832
 20
185.57025
 11
1091.832
 21
185.57025
  0
LINE
  8
0
  6
CONTINUOUS
 62
     7
 10
1088.832
 20
182.57025
 11
1088.832
 21
123.07025
  0
LINE
  8
0
  6
CENTER
 62
     7
 10
1289.553
 20
189.57025
 11
1188.953
 21
189.57025
  0
LINE
  8
0
  6
CONTINUOUS
 62
     7
 10
1227.0338
 20
123.07025
 11
1197.153
 21
123.07025
  0
LINE
  8
0
  6
CONTINUOUS
 62
     7
 10
1226.153
 20
126.07025
 11
1220.2944
 21
126.07025
  0
LINE
  8
0
  6
CONTINUOUS
 62
     7
 10
1257.902
 20
140.07025
 11
1262.0115
 21
140.07025
  0
LINE
  8
0
  6
CONTINUOUS
 62
     7
 10
1269.153
 20
137.07025
 11
1282.153
 21
137.07025
  0
LINE
  8
0
  6
CONTINUOUS
 62
     7
 10
1269.153
 20
242.07025
 11
1282.153
 21
242.07025
  0
LINE
  8
0
  6
CONTINUOUS
 62
     7
 10
1257.902
 20
239.07025
 11
1262.0115
 21
239.07025
  0
LINE
  8
0
  6
CONTINUOUS
 62
     7
 10
1226.153
 20
253.07025
 11
1220.2944
 21
253.07025
  0
LINE
  8
0
  6
CONTINUOUS
 62
     7
 10
1227.0338
 20
256.07025
 11
1197.153
 21
256.07025
  0
LINE
  8
0
  6
CONTINUOUS
 62
     7
 10
1282.153
 20
242.07025
 11
1282.153
 21
137.07025
  0
LINE
  8
0
  6
CONTINUOUS
 62
     7
 10
1197.153
 20
256.07025
 11
1197.153
 21
123.07025
  0
LINE
  8
0
  6
CONTINUOUS
 62
     7
 10
1269.153
 20
242.07025
 11
1269.153
 21
137.07025
  0
LINE
  8
0
  6
CONTINUOUS
 62
     7
 10
1213.153
 20
256.07025
 11
1213.153
 21
196.57025
  0
LINE
  8
0
  6
CONTINUOUS
 62
     7
 10
1234.153
 20
193.57025
 11
1216.153
 21
193.57025
  0
LINE
  8
0
  6
CONTINUOUS
 62
     7
 10
1234.153
 20
185.57025
 11
1216.153
 21
185.57025
  0
LINE
  8
0
  6
CONTINUOUS
 62
     7
 10
1213.153
 20
182.57025
 11
1213.153
 21
123.07025
  0
LINE
  8
0
  6
CENTER
 62
     7
 10
590.77869
 20
14.411521
 11
482.27869
 21
14.411521
  0
LINE
  8
0
  6
CONTINUOUS
 62
     7
 10
522.20538
 20
94.911522
 11
490.1037
 21
94.911522
  0
LINE
  8
0
  6
CONTINUOUS
 62
     7
 10
522.20538
 20
-66.088478
 11
490.1037
 21
-66.088478
  0
LINE
  8
0
  6
CONTINUOUS
 62
     7
 10
520.1037
 20
91.411522
 11
515.70306
 21
91.411522
  0
LINE
  8
0
  6
CONTINUOUS
 62
     7
 10
520.1037
 20
-62.588478
 11
515.70306
 21
-62.588478
  0
LINE
  8
0
  6
CONTINUOUS
 62
     7
 10
585.1037
 20
-7.588479
 11
578.1037
 21
-7.588479
  0
LINE
  8
0
  6
CONTINUOUS
 62
     7
 10
585.1037
 20
36.411522
 11
578.1037
 21
36.411522
  0
LINE
  8
0
  6
CONTINUOUS
 62
     7
 10
575.50562
 20
-6.088479
 11
570.1037
 21
-6.088479
  0
LINE
  8
0
  6
CONTINUOUS
 62
     7
 10
575.50562
 20
34.911522
 11
570.1037
 21
34.911522
  0
LINE
  8
0
  6
CONTINUOUS
 62
     7
 10
546.0097
 20
-45.212833
 11
559.0011
 21
-13.535179
  0
LINE
  8
0
  6
CONTINUOUS
 62
     7
 10
559.00116
 20
42.358234
 11
546.00977
 21
74.035904
  0
LINE
  8
0
  6
CONTINUOUS
 62
     7
 10
585.1037
 20
36.411522
 11
585.1037
 21
-7.588479
  0
LINE
  8
0
  6
CONTINUOUS
 62
     7
 10
490.1037
 20
94.911522
 11
490.1037
 21
-66.088478
  0
LINE
  8
0
  6
CONTINUOUS
 62
     7
 10
578.1037
 20
36.411522
 11
578.1037
 21
-7.588479
  0
LINE
  8
0
  6
CONTINUOUS
 62
     7
 10
508.1037
 20
94.911522
 11
508.1037
 21
21.411522
  0
LINE
  8
0
  6
CONTINUOUS
 62
     7
 10
530.1037
 20
10.411521
 11
511.1037
 21
10.411521
  0
LINE
  8
0
  6
CONTINUOUS
 62
     7
 10
530.1037
 20
18.411522
 11
511.1037
 21
18.411522
  0
LINE
  8
0
  6
CONTINUOUS
 62
     7
 10
508.1037
 20
7.411521
 11
508.1037
 21
-66.088478
  0
LINE
  8
0
  6
CENTER
 62
     7
 10
698.5625
 20
14.411521
 11
588.76251
 21
14.411521
  0
LINE
  8
0
  6
CONTINUOUS
 62
     7
 10
629.06421
 20
-66.088493
 11
596.96252
 21
-66.088493
  0
LINE
  8
0
  6
CONTINUOUS
 62
     7
 10
626.96252
 20
-62.588478
 11
622.56189
 21
-62.588478
  0
LINE
  8
0
  6
CONTINUOUS
 62
     7
 10
660.12299
 20
-21.612154
 11
653.76947
 21
-42.674751
  0
LINE
  8
0
  6
CONTINUOUS
 62
     7
 10
674.96252
 20
-10.588479
 11
681.36444
 21
-10.588479
  0
LINE
  8
0
  6
CONTINUOUS
 62
     7
 10
683.96252
 20
-12.088479
 11
691.96252
 21
-12.088479
  0
LINE
  8
0
  6
CONTINUOUS
 62
     7
 10
674.96252
 20
39.411522
 11
681.36444
 21
39.411522
  0
LINE
  8
0
  6
CONTINUOUS
 62
     7
 10
683.96252
 20
40.911522
 11
691.96252
 21
40.911522
  0
LINE
  8
0
  6
CONTINUOUS
 62
     7
 10
660.12299
 20
50.435207
 11
653.76947
 21
71.49781
  0
LINE
  8
0
  6
CONTINUOUS
 62
     7
 10
626.96252
 20
91.411522
 11
622.56189
 21
91.411522
  0
LINE
  8
0
  6
CONTINUOUS
 62
     7
 10
629.06421
 20
94.911522
 11
596.96252
 21
94.911522
  0
LINE
  8
0
  6
CONTINUOUS
 62
     7
 10
691.96252
 20
40.911522
 11
691.96252
 21
-12.088479
  0
LINE
  8
0
  6
CONTINUOUS
 62
     7
 10
596.96252
 20
94.911522
 11
596.96252
 21
-66.088493
  0
LINE
  8
0
  6
CONTINUOUS
 62
     7
 10
683.96252
 20
40.911522
 11
683.96252
 21
-12.088479
  0
LINE
  8
0
  6
CONTINUOUS
 62
     7
 10
614.96252
 20
94.911522
 11
614.96252
 21
21.411522
  0
LINE
  8
0
  6
CONTINUOUS
 62
     7
 10
635.96252
 20
18.411522
 11
617.96252
 21
18.411522
  0
LINE
  8
0
  6
CONTINUOUS
 62
     7
 10
635.96252
 20
10.411521
 11
617.96252
 21
10.411521
  0
LINE
  8
0
  6
CONTINUOUS
 62
     7
 10
614.96252
 20
7.411521
 11
614.96252
 21
-66.088493
  0
LINE
  8
0
  6
CENTER
 62
     7
 10
813.66766
 20
14.411521
 11
703.86755
 21
14.411521
  0
LINE
  8
0
  6
CONTINUOUS
 62
     7
 10
745.13281
 20
-66.088478
 11
712.0675
 21
-66.088478
  0
LINE
  8
0
  6
CONTINUOUS
 62
     7
 10
743.65308
 20
-62.588478
 11
737.66687
 21
-62.588478
  0
LINE
  8
0
  6
CONTINUOUS
 62
     7
 10
774.82831
 20
-27.913313
 11
770.50189
 21
-42.533546
  0
LINE
  8
0
  6
CONTINUOUS
 62
     7
 10
798.06763
 20
-15.588479
 11
807.06763
 21
-15.588479
  0
LINE
  8
0
  6
CONTINUOUS
 62
     7
 10
794.00659
 20
-13.588479
 11
794.60352
 21
-13.588479
  0
LINE
  8
0
  6
CONTINUOUS
 62
     7
 10
798.06763
 20
44.411522
 11
807.06763
 21
44.411522
  0
LINE
  8
0
  6
CONTINUOUS
 62
     7
 10
774.82843
 20
56.736382
 11
770.50201
 21
71.356628
  0
LINE
  8
0
  6
CONTINUOUS
 62
     7
 10
745.13281
 20
94.91153
 11
712.0675
 21
94.91153
  0
LINE
  8
0
  6
CONTINUOUS
 62
     7
 10
743.65308
 20
91.41153
 11
737.66687
 21
91.41153
  0
LINE
  8
0
  6
CONTINUOUS
 62
     7
 10
807.06763
 20
44.411522
 11
807.06763
 21
-15.588479
  0
LINE
  8
0
  6
CONTINUOUS
 62
     7
 10
712.0675
 20
94.91153
 11
712.0675
 21
-66.088478
  0
LINE
  8
0
  6
CONTINUOUS
 62
     7
 10
798.06763
 20
44.411522
 11
798.06763
 21
-15.588479
  0
LINE
  8
0
  6
CONTINUOUS
 62
     7
 10
730.0675
 20
94.91153
 11
730.0675
 21
21.411522
  0
LINE
  8
0
  6
CONTINUOUS
 62
     7
 10
751.06757
 20
10.411521
 11
733.0675
 21
10.411521
  0
LINE
  8
0
  6
CONTINUOUS
 62
     7
 10
751.06757
 20
18.411522
 11
733.0675
 21
18.411522
  0
LINE
  8
0
  6
CONTINUOUS
 62
     7
 10
730.0675
 20
7.411521
 11
730.0675
 21
-66.088478
  0
LINE
  8
0
  6
CENTER
 62
     7
 10
930.21375
 20
14.411521
 11
820.4137
 21
14.411521
  0
LINE
  8
0
  6
CONTINUOUS
 62
     7
 10
860.80084
 20
-66.088478
 11
828.61371
 21
-66.088478
  0
LINE
  8
0
  6
CONTINUOUS
 62
     7
 10
856.51947
 20
-62.588478
 11
854.21307
 21
-62.588478
  0
LINE
  8
0
  6
CONTINUOUS
 62
     7
 10
893.44403
 20
-26.348021
 11
876.51758
 21
-51.857792
  0
LINE
  8
0
  6
CONTINUOUS
 62
     7
 10
905.10956
 20
-20.088478
 11
909.1496
 21
-20.088478
  0
LINE
  8
0
  6
CONTINUOUS
 62
     7
 10
912.61371
 20
-22.088478
 11
923.61371
 21
-22.088478
  0
LINE
  8
0
  6
CONTINUOUS
 62
     7
 10
912.61371
 20
50.911522
 11
923.61371
 21
50.911522
  0
LINE
  8
0
  6
CONTINUOUS
 62
     7
 10
905.10956
 20
48.911522
 11
909.1496
 21
48.911522
  0
LINE
  8
0
  6
CONTINUOUS
 62
     7
 10
893.44403
 20
55.171066
 11
876.51758
 21
80.680817
  0
LINE
  8
0
  6
CONTINUOUS
 62
     7
 10
860.80084
 20
94.91153
 11
828.61371
 21
94.91153
  0
LINE
  8
0
  6
CONTINUOUS
 62
     7
 10
856.51947
 20
91.411522
 11
854.21307
 21
91.411522
  0
LINE
  8
0
  6
CONTINUOUS
 62
     7
 10
923.61371
 20
50.911522
 11
923.61371
 21
-22.088478
  0
LINE
  8
0
  6
CONTINUOUS
 62
     7
 10
828.61371
 20
94.91153
 11
828.61371
 21
-66.088478
  0
LINE
  8
0
  6
CONTINUOUS
 62
     7
 10
912.61371
 20
50.911522
 11
912.61371
 21
-22.088478
  0
LINE
  8
0
  6
CONTINUOUS
 62
     7
 10
846.61371
 20
94.91153
 11
846.61371
 21
21.411522
  0
LINE
  8
0
  6
CONTINUOUS
 62
     7
 10
867.61371
 20
18.411522
 11
849.61371
 21
18.411522
  0
LINE
  8
0
  6
CONTINUOUS
 62
     7
 10
867.61371
 20
10.411521
 11
849.61371
 21
10.411521
  0
LINE
  8
0
  6
CONTINUOUS
 62
     7
 10
846.61371
 20
7.411521
 11
846.61371
 21
-66.088478
  0
LINE
  8
0
  6
CENTER
 62
     7
 10
1052.343
 20
14.411521
 11
942.14301
 21
14.411521
  0
LINE
  8
0
  6
CONTINUOUS
 62
     7
 10
983.39105
 20
-66.088478
 11
950.34302
 21
-66.088478
  0
LINE
  8
0
  6
CONTINUOUS
 62
     7
 10
981.84302
 20
-62.588478
 11
975.94238
 21
-62.588478
  0
LINE
  8
0
  6
CONTINUOUS
 62
     7
 10
1021.818
 20
-28.588478
 11
1028.4696
 21
-28.588478
  0
LINE
  8
0
  6
CONTINUOUS
 62
     7
 10
1033.343
 20
-31.088478
 11
1045.343
 21
-31.088478
  0
LINE
  8
0
  6
CONTINUOUS
 62
     7
 10
1033.343
 20
59.911522
 11
1045.343
 21
59.911522
  0
LINE
  8
0
  6
CONTINUOUS
 62
     7
 10
1021.818
 20
57.411522
 11
1028.4696
 21
57.411522
  0
LINE
  8
0
  6
CONTINUOUS
 62
     7
 10
983.39105
 20
94.911522
 11
950.34302
 21
94.911522
  0
LINE
  8
0
  6
CONTINUOUS
 62
     7
 10
981.84302
 20
91.411522
 11
975.94238
 21
91.411522
  0
LINE
  8
0
  6
CONTINUOUS
 62
     7
 10
1045.343
 20
59.911522
 11
1045.343
 21
-31.088478
  0
LINE
  8
0
  6
CONTINUOUS
 62
     7
 10
950.34302
 20
94.911522
 11
950.34302
 21
-66.088478
  0
LINE
  8
0
  6
CONTINUOUS
 62
     7
 10
1033.343
 20
59.911522
 11
1033.343
 21
-31.088478
  0
LINE
  8
0
  6
CONTINUOUS
 62
     7
 10
968.34302
 20
94.911522
 11
968.34302
 21
21.411522
  0
LINE
  8
0
  6
CONTINUOUS
 62
     7
 10
989.34302
 20
18.411522
 11
971.34302
 21
18.411522
  0
LINE
  8
0
  6
CONTINUOUS
 62
     7
 10
989.34302
 20
10.411521
 11
971.34302
 21
10.411521
  0
LINE
  8
0
  6
CONTINUOUS
 62
     7
 10
968.34302
 20
7.411521
 11
968.34302
 21
-66.088478
  0
LINE
  8
0
  6
CENTER
 62
     7
 10
1170.2321
 20
14.411521
 11
1059.6321
 21
14.411521
  0
LINE
  8
0
  6
CONTINUOUS
 62
     7
 10
1100.9182
 20
-66.088478
 11
1067.832
 21
-66.088478
  0
LINE
  8
0
  6
CONTINUOUS
 62
     7
 10
1099.332
 20
-62.588478
 11
1093.4314
 21
-62.588478
  0
LINE
  8
0
  6
CONTINUOUS
 62
     7
 10
1138.7496
 20
-35.088478
 11
1142.6907
 21
-35.088478
  0
LINE
  8
0
  6
CONTINUOUS
 62
     7
 10
1149.832
 20
-38.088478
 11
1162.832
 21
-38.088478
  0
LINE
  8
0
  6
CONTINUOUS
 62
     7
 10
1149.832
 20
66.911522
 11
1162.832
 21
66.911522
  0
LINE
  8
0
  6
CONTINUOUS
 62
     7
 10
1138.7496
 20
63.911522
 11
1142.6907
 21
63.911522
  0
LINE
  8
0
  6
CONTINUOUS
 62
     7
 10
1099.332
 20
91.41153
 11
1093.4314
 21
91.41153
  0
LINE
  8
0
  6
CONTINUOUS
 62
     7
 10
1100.9182
 20
94.91153
 11
1067.832
 21
94.91153
  0
LINE
  8
0
  6
CONTINUOUS
 62
     7
 10
1162.832
 20
66.911522
 11
1162.832
 21
-38.088478
  0
LINE
  8
0
  6
CONTINUOUS
 62
     7
 10
1067.832
 20
94.91153
 11
1067.832
 21
-66.088478
  0
LINE
  8
0
  6
CONTINUOUS
 62
     7
 10
1149.832
 20
66.911522
 11
1149.832
 21
-38.088478
  0
LINE
  8
0
  6
CONTINUOUS
 62
     7
 10
1085.832
 20
94.91153
 11
1085.832
 21
21.411522
  0
LINE
  8
0
  6
CONTINUOUS
 62
     7
 10
1106.832
 20
10.411521
 11
1088.832
 21
10.411521
  0
LINE
  8
0
  6
CONTINUOUS
 62
     7
 10
1106.832
 20
18.411522
 11
1088.832
 21
18.411522
  0
LINE
  8
0
  6
CONTINUOUS
 62
     7
 10
1085.832
 20
7.411521
 11
1085.832
 21
-66.088478
  0
LINE
  8
0
  6
CENTER
 62
     7
 10
1293.311
 20
14.411521
 11
1181.911
 21
14.411521
  0
LINE
  8
0
  6
CONTINUOUS
 62
     7
 10
1223.2153
 20
-66.088478
 11
1190.111
 21
-66.088478
  0
LINE
  8
0
  6
CONTINUOUS
 62
     7
 10
1221.611
 20
-62.588478
 11
1215.7103
 21
-62.588478
  0
LINE
  8
0
  6
CONTINUOUS
 62
     7
 10
1258.9907
 20
-49.088478
 11
1261.9695
 21
-49.088478
  0
LINE
  8
0
  6
CONTINUOUS
 62
     7
 10
1269.111
 20
-52.088478
 11
1285.111
 21
-52.088478
  0
LINE
  8
0
  6
CONTINUOUS
 62
     7
 10
1269.111
 20
80.911522
 11
1285.111
 21
80.911522
  0
LINE
  8
0
  6
CONTINUOUS
 62
     7
 10
1258.9907
 20
77.911522
 11
1261.9695
 21
77.911522
  0
LINE
  8
0
  6
CONTINUOUS
 62
     7
 10
1223.2153
 20
94.91153
 11
1190.111
 21
94.91153
  0
LINE
  8
0
  6
CONTINUOUS
 62
     7
 10
1221.611
 20
91.41153
 11
1215.7103
 21
91.41153
  0
LINE
  8
0
  6
CONTINUOUS
 62
     7
 10
1285.111
 20
80.911522
 11
1285.111
 21
-52.088478
  0
LINE
  8
0
  6
CONTINUOUS
 62
     7
 10
1190.111
 20
94.91153
 11
1190.111
 21
-66.088478
  0
LINE
  8
0
  6
CONTINUOUS
 62
     7
 10
1269.111
 20
80.911522
 11
1269.111
 21
-52.088478
  0
LINE
  8
0
  6
CONTINUOUS
 62
     7
 10
1208.111
 20
94.91153
 11
1208.111
 21
21.411522
  0
LINE
  8
0
  6
CONTINUOUS
 62
     7
 10
1229.111
 20
10.411521
 11
1211.111
 21
10.411521
  0
LINE
  8
0
  6
CONTINUOUS
 62
     7
 10
1229.111
 20
18.411522
 11
1211.111
 21
18.411522
  0
LINE
  8
0
  6
CONTINUOUS
 62
     7
 10
1208.111
 20
7.411521
 11
1208.111
 21
-66.088478
  0
LINE
  8
0
  6
CENTER
 62
     7
 10
613.5625
 20
-183.73206
 11
493.76251
 21
-183.73206
  0
LINE
  8
0
  6
CONTINUOUS
 62
     7
 10
537.44995
 20
-278.23206
 11
501.96252
 21
-278.23206
  0
LINE
  8
0
  6
CONTINUOUS
 62
     7
 10
534.96252
 20
-274.73206
 11
529.56189
 21
-274.73206
  0
LINE
  8
0
  6
CONTINUOUS
 62
     7
 10
572.95404
 20
-224.23491
 11
566.49451
 21
-250.10524
  0
LINE
  8
0
  6
CONTINUOUS
 62
     7
 10
588.96252
 20
-211.73206
 11
594.49841
 21
-211.73206
  0
LINE
  8
0
  6
CONTINUOUS
 62
     7
 10
597.96252
 20
-213.73206
 11
606.96252
 21
-213.73206
  0
LINE
  8
0
  6
CONTINUOUS
 62
     7
 10
597.96252
 20
-153.73206
 11
606.96252
 21
-153.73206
  0
LINE
  8
0
  6
CONTINUOUS
 62
     7
 10
588.96252
 20
-155.73206
 11
594.49841
 21
-155.73206
  0
LINE
  8
0
  6
CONTINUOUS
 62
     7
 10
572.95398
 20
-143.22922
 11
566.49445
 21
-117.35888
  0
LINE
  8
0
  6
CONTINUOUS
 62
     7
 10
534.96252
 20
-92.732056
 11
529.56189
 21
-92.732056
  0
LINE
  8
0
  6
CONTINUOUS
 62
     7
 10
537.44995
 20
-89.232056
 11
501.96252
 21
-89.232056
  0
LINE
  8
0
  6
CONTINUOUS
 62
     7
 10
606.96252
 20
-153.73206
 11
606.96252
 21
-213.73206
  0
LINE
  8
0
  6
CONTINUOUS
 62
     7
 10
501.96252
 20
-89.232056
 11
501.96252
 21
-278.23206
  0
LINE
  8
0
  6
CONTINUOUS
 62
     7
 10
597.96252
 20
-153.73206
 11
597.96252
 21
-213.73206
  0
LINE
  8
0
  6
CONTINUOUS
 62
     7
 10
521.96252
 20
-89.232056
 11
521.96252
 21
-175.73206
  0
LINE
  8
0
  6
CONTINUOUS
 62
     7
 10
544.96252
 20
-179.73206
 11
525.96252
 21
-179.73206
  0
LINE
  8
0
  6
CONTINUOUS
 62
     7
 10
544.96252
 20
-187.73206
 11
525.96252
 21
-187.73206
  0
LINE
  8
0
  6
CONTINUOUS
 62
     7
 10
521.96252
 20
-191.73206
 11
521.96252
 21
-278.23206
  0
LINE
  8
0
  6
CENTER
 62
     7
 10
743.6676
 20
-183.73206
 11
623.86755
 21
-183.73206
  0
LINE
  8
0
  6
CONTINUOUS
 62
     7
 10
667.55505
 20
-278.23206
 11
632.06757
 21
-278.23206
  0
LINE
  8
0
  6
CONTINUOUS
 62
     7
 10
665.06757
 20
-274.73206
 11
659.66693
 21
-274.73206
  0
LINE
  8
0
  6
CONTINUOUS
 62
     7
 10
706.84821
 20
-225.16217
 11
695.26123
 21
-254.25673
  0
LINE
  8
0
  6
CONTINUOUS
 62
     7
 10
717.06757
 20
-218.23206
 11
722.60345
 21
-218.23206
  0
LINE
  8
0
  6
CONTINUOUS
 62
     7
 10
726.06757
 20
-220.23206
 11
737.06757
 21
-220.23206
  0
LINE
  8
0
  6
CONTINUOUS
 62
     7
 10
726.06757
 20
-147.23206
 11
737.06757
 21
-147.23206
  0
LINE
  8
0
  6
CONTINUOUS
 62
     7
 10
717.06757
 20
-149.23206
 11
722.60345
 21
-149.23206
  0
LINE
  8
0
  6
CONTINUOUS
 62
     7
 10
706.84814
 20
-142.30196
 11
695.26123
 21
-113.20738
  0
LINE
  8
0
  6
CONTINUOUS
 62
     7
 10
665.06757
 20
-92.732056
 11
659.66693
 21
-92.732056
  0
LINE
  8
0
  6
CONTINUOUS
 62
     7
 10
667.55505
 20
-89.232056
 11
632.06757
 21
-89.232056
  0
LINE
  8
0
  6
CONTINUOUS
 62
     7
 10
737.06757
 20
-147.23206
 11
737.06757
 21
-220.23206
  0
LINE
  8
0
  6
CONTINUOUS
 62
     7
 10
632.06757
 20
-89.232056
 11
632.06757
 21
-278.23206
  0
LINE
  8
0
  6
CONTINUOUS
 62
     7
 10
726.06757
 20
-147.23206
 11
726.06757
 21
-220.23206
  0
LINE
  8
0
  6
CONTINUOUS
 62
     7
 10
652.06757
 20
-89.232056
 11
652.06757
 21
-175.73206
  0
LINE
  8
0
  6
CONTINUOUS
 62
     7
 10
675.06757
 20
-179.73206
 11
656.06757
 21
-179.73206
  0
LINE
  8
0
  6
CONTINUOUS
 62
     7
 10
675.06757
 20
-187.73206
 11
656.06757
 21
-187.73206
  0
LINE
  8
0
  6
CONTINUOUS
 62
     7
 10
652.06757
 20
-191.73206
 11
652.06757
 21
-278.23206
  0
LINE
  8
0
  6
CENTER
 62
     7
 10
880.61371
 20
-183.73206
 11
760.4137
 21
-183.73206
  0
LINE
  8
0
  6
CONTINUOUS
 62
     7
 10
803.52588
 20
-278.23206
 11
768.61371
 21
-278.23206
  0
LINE
  8
0
  6
CONTINUOUS
 62
     7
 10
801.61371
 20
-274.73206
 11
796.21301
 21
-274.73206
  0
LINE
  8
0
  6
CONTINUOUS
 62
     7
 10
841.48267
 20
-232.65494
 11
831.28986
 21
-255.48268
  0
LINE
  8
0
  6
CONTINUOUS
 62
     7
 10
850.61371
 20
-226.73206
 11
856.7403
 21
-226.73206
  0
LINE
  8
0
  6
CONTINUOUS
 62
     7
 10
861.61371
 20
-229.23206
 11
873.61371
 21
-229.23206
  0
LINE
  8
0
  6
CONTINUOUS
 62
     7
 10
861.61371
 20
-138.23206
 11
873.61371
 21
-138.23206
  0
LINE
  8
0
  6
CONTINUOUS
 62
     7
 10
850.61371
 20
-140.73206
 11
856.7403
 21
-140.73206
  0
LINE
  8
0
  6
CONTINUOUS
 62
     7
 10
841.4826
 20
-134.80916
 11
831.28979
 21
-111.98143
  0
LINE
  8
0
  6
CONTINUOUS
 62
     7
 10
803.52588
 20
-89.232056
 11
768.61371
 21
-89.232056
  0
LINE
  8
0
  6
CONTINUOUS
 62
     7
 10
801.61371
 20
-92.732056
 11
796.21301
 21
-92.732056
  0
LINE
  8
0
  6
CONTINUOUS
 62
     7
 10
873.61371
 20
-138.23206
 11
873.61371
 21
-229.23206
  0
LINE
  8
0
  6
CONTINUOUS
 62
     7
 10
768.61371
 20
-89.232056
 11
768.61371
 21
-278.23206
  0
LINE
  8
0
  6
CONTINUOUS
 62
     7
 10
861.61377
 20
-138.23206
 11
861.61371
 21
-229.23206
  0
LINE
  8
0
  6
CONTINUOUS
 62
     7
 10
788.61371
 20
-89.232056
 11
788.61371
 21
-175.73206
  0
LINE
  8
0
  6
CONTINUOUS
 62
     7
 10
811.61371
 20
-179.73206
 11
792.61371
 21
-179.73206
  0
LINE
  8
0
  6
CONTINUOUS
 62
     7
 10
811.61371
 20
-187.73206
 11
792.61371
 21
-187.73206
  0
LINE
  8
0
  6
CONTINUOUS
 62
     7
 10
788.61371
 20
-191.73206
 11
788.61371
 21
-278.23206
  0
LINE
  8
0
  6
CENTER
 62
     7
 10
1012.743
 20
-183.73206
 11
892.14301
 21
-183.73206
  0
LINE
  8
0
  6
CONTINUOUS
 62
     7
 10
935.10614
 20
-278.23206
 11
900.34302
 21
-278.23206
  0
LINE
  8
0
  6
CONTINUOUS
 62
     7
 10
933.34302
 20
-274.73206
 11
927.94238
 21
-274.73206
  0
LINE
  8
0
  6
CONTINUOUS
 62
     7
 10
971.67334
 20
-238.24847
 11
959.35211
 21
-259.68292
  0
LINE
  8
0
  6
CONTINUOUS
 62
     7
 10
980.34302
 20
-233.23206
 11
985.2016
 21
-233.23206
  0
LINE
  8
0
  6
CONTINUOUS
 62
     7
 10
992.34302
 20
-236.23206
 11
1005.343
 21
-236.23206
  0
LINE
  8
0
  6
CONTINUOUS
 62
     7
 10
992.34302
 20
-131.23206
 11
1005.343
 21
-131.23206
  0
LINE
  8
0
  6
CONTINUOUS
 62
     7
 10
980.34302
 20
-134.23206
 11
985.2016
 21
-134.23206
  0
LINE
  8
0
  6
CONTINUOUS
 62
     7
 10
971.67334
 20
-129.21567
 11
959.35217
 21
-107.78123
  0
LINE
  8
0
  6
CONTINUOUS
 62
     7
 10
933.34302
 20
-92.732056
 11
927.94238
 21
-92.732056
  0
LINE
  8
0
  6
CONTINUOUS
 62
     7
 10
935.10614
 20
-89.232056
 11
900.34302
 21
-89.232056
  0
LINE
  8
0
  6
CONTINUOUS
 62
     7
 10
1005.343
 20
-131.23206
 11
1005.343
 21
-236.23206
  0
LINE
  8
0
  6
CONTINUOUS
 62
     7
 10
900.34302
 20
-89.232056
 11
900.34302
 21
-278.23206
  0
LINE
  8
0
  6
CONTINUOUS
 62
     7
 10
992.34302
 20
-131.23206
 11
992.34302
 21
-236.23206
  0
LINE
  8
0
  6
CONTINUOUS
 62
     7
 10
920.34302
 20
-89.232056
 11
920.34302
 21
-175.73206
  0
LINE
  8
0
  6
CONTINUOUS
 62
     7
 10
943.34302
 20
-179.73206
 11
924.34302
 21
-179.73206
  0
LINE
  8
0
  6
CONTINUOUS
 62
     7
 10
943.34302
 20
-187.73206
 11
924.34302
 21
-187.73206
  0
LINE
  8
0
  6
CONTINUOUS
 62
     7
 10
920.34302
 20
-191.73206
 11
920.34302
 21
-278.23206
  0
LINE
  8
0
  6
CENTER
 62
     7
 10
1152.1311
 20
-183.73206
 11
1030.7312
 21
-183.73206
  0
LINE
  8
0
  6
CONTINUOUS
 62
     7
 10
1075.6348
 20
-278.23206
 11
1038.9312
 21
-278.23206
  0
LINE
  8
0
  6
CONTINUOUS
 62
     7
 10
1071.9312
 20
-274.73206
 11
1066.5305
 21
-274.73206
  0
LINE
  8
0
  6
CONTINUOUS
 62
     7
 10
1103.0701
 20
-254.73967
 11
1091.5782
 21
-266.47369
  0
LINE
  8
0
  6
CONTINUOUS
 62
     7
 10
1127.9312
 20
-250.23206
 11
1143.9312
 21
-250.23206
  0
LINE
  8
0
  6
CONTINUOUS
 62
     7
 10
1127.9312
 20
-117.23206
 11
1143.9312
 21
-117.23206
  0
LINE
  8
0
  6
CONTINUOUS
 62
     7
 10
1103.0702
 20
-112.72443
 11
1091.5784
 21
-100.99045
  0
LINE
  8
0
  6
CONTINUOUS
 62
     7
 10
1071.9312
 20
-92.732056
 11
1066.5305
 21
-92.732056
  0
LINE
  8
0
  6
CONTINUOUS
 62
     7
 10
1075.6348
 20
-89.232056
 11
1038.9312
 21
-89.232056
  0
LINE
  8
0
  6
CONTINUOUS
 62
     7
 10
1143.9312
 20
-117.23206
 11
1143.9312
 21
-250.23206
  0
LINE
  8
0
  6
CONTINUOUS
 62
     7
 10
1038.9312
 20
-89.232056
 11
1038.9312
 21
-278.23206
  0
LINE
  8
0
  6
CONTINUOUS
 62
     7
 10
1127.9312
 20
-117.23206
 11
1127.9312
 21
-250.23206
  0
LINE
  8
0
  6
CONTINUOUS
 62
     7
 10
1058.9312
 20
-89.232056
 11
1058.9312
 21
-175.73206
  0
LINE
  8
0
  6
CONTINUOUS
 62
     7
 10
1083.9312
 20
-179.73206
 11
1062.9312
 21
-179.73206
  0
LINE
  8
0
  6
CONTINUOUS
 62
     7
 10
1083.9312
 20
-187.73206
 11
1062.9312
 21
-187.73206
  0
LINE
  8
0
  6
CONTINUOUS
 62
     7
 10
1058.9312
 20
-191.73206
 11
1058.9312
 21
-278.23206
  0
LINE
  8
0
  6
CENTER
 62
     7
 10
1288.311
 20
-183.73206
 11
1166.911
 21
-183.73206
  0
LINE
  8
0
  6
CONTINUOUS
 62
     7
 10
1213.5325
 20
-278.23206
 11
1175.111
 21
-278.23206
  0
LINE
  8
0
  6
CONTINUOUS
 62
     7
 10
1209.611
 20
-274.73206
 11
1202.7103
 21
-274.73206
  0
LINE
  8
0
  6
CONTINUOUS
 62
     7
 10
1247.2141
 20
-260.73206
 11
1254.5116
 21
-260.73206
  0
LINE
  8
0
  6
CONTINUOUS
 62
     7
 10
1262.111
 20
-264.23206
 11
1280.111
 21
-264.23206
  0
LINE
  8
0
  6
CONTINUOUS
 62
     7
 10
1262.111
 20
-103.23206
 11
1280.111
 21
-103.23206
  0
LINE
  8
0
  6
CONTINUOUS
 62
     7
 10
1247.2141
 20
-106.73206
 11
1254.5116
 21
-106.73206
  0
LINE
  8
0
  6
CONTINUOUS
 62
     7
 10
1213.5325
 20
-89.232056
 11
1175.111
 21
-89.232056
  0
LINE
  8
0
  6
CONTINUOUS
 62
     7
 10
1209.611
 20
-92.732056
 11
1202.7103
 21
-92.732056
  0
LINE
  8
0
  6
CONTINUOUS
 62
     7
 10
1280.111
 20
-103.23206
 11
1280.111
 21
-264.23206
  0
LINE
  8
0
  6
CONTINUOUS
 62
     7
 10
1175.111
 20
-89.232056
 11
1175.111
 21
-278.23206
  0
LINE
  8
0
  6
CONTINUOUS
 62
     7
 10
1262.111
 20
-103.23206
 11
1262.111
 21
-264.23206
  0
LINE
  8
0
  6
CONTINUOUS
 62
     7
 10
1195.111
 20
-89.232056
 11
1195.111
 21
-175.73206
  0
LINE
  8
0
  6
CONTINUOUS
 62
     7
 10
1221.111
 20
-179.73206
 11
1199.111
 21
-179.73206
  0
LINE
  8
0
  6
CONTINUOUS
 62
     7
 10
1221.111
 20
-187.73206
 11
1199.111
 21
-187.73206
  0
LINE
  8
0
  6
CONTINUOUS
 62
     7
 10
1195.111
 20
-191.73206
 11
1195.111
 21
-278.23206
  0
LINE
  8
0
  6
CONTINUOUS
 62
     7
 10
-356.28036
 20
218.75916
 11
-356.28036
 21
218.07437
  0
LINE
  8
0
  6
CONTINUOUS
 62
     7
 10
-356.78036
 20
218.75916
 11
-356.78036
 21
218.07437
  0
LINE
  8
0
  6
CONTINUOUS
 62
     7
 10
-356.78036
 20
214.44394
 11
-356.78036
 21
213.75916
  0
LINE
  8
0
  6
CONTINUOUS
 62
     7
 10
-356.28036
 20
214.44394
 11
-356.28036
 21
213.75916
  0
LINE
  8
0
  6
CONTINUOUS
 62
     7
 10
-356.78036
 20
217.57256
 11
-356.78036
 21
216.25916
  0
LINE
  8
0
  6
CONTINUOUS
 62
     7
 10
-356.28036
 20
217.57256
 11
-356.28036
 21
216.25916
  0
LINE
  8
0
  6
CONTINUOUS
 62
     7
 10
-288.72522
 20
218.65822
 11
-288.72522
 21
217.97343
  0
LINE
  8
0
  6
CONTINUOUS
 62
     7
 10
-289.22522
 20
218.65822
 11
-289.22522
 21
217.97343
  0
LINE
  8
0
  6
CONTINUOUS
 62
     7
 10
-289.22522
 20
214.343
 11
-289.22522
 21
213.65822
  0
LINE
  8
0
  6
CONTINUOUS
 62
     7
 10
-288.72522
 20
214.343
 11
-288.72522
 21
213.65822
  0
LINE
  8
0
  6
CONTINUOUS
 62
     7
 10
-289.22522
 20
217.47162
 11
-289.22522
 21
216.15822
  0
LINE
  8
0
  6
CONTINUOUS
 62
     7
 10
-288.72522
 20
217.47162
 11
-288.72522
 21
216.15822
  0
LINE
  8
0
  6
CONTINUOUS
 62
     7
 10
-219.52455
 20
218.71788
 11
-219.52455
 21
218.0331
  0
LINE
  8
0
  6
CONTINUOUS
 62
     7
 10
-220.02455
 20
218.71788
 11
-220.02455
 21
218.0331
  0
LINE
  8
0
  6
CONTINUOUS
 62
     7
 10
-220.02455
 20
214.40266
 11
-220.02455
 21
213.71788
  0
LINE
  8
0
  6
CONTINUOUS
 62
     7
 10
-219.52455
 20
214.40266
 11
-219.52455
 21
213.71788
  0
LINE
  8
0
  6
CONTINUOUS
 62
     7
 10
-220.02455
 20
217.53128
 11
-220.02455
 21
216.21788
  0
LINE
  8
0
  6
CONTINUOUS
 62
     7
 10
-219.52455
 20
217.53128
 11
-219.52455
 21
216.21788
  0
LINE
  8
0
  6
CONTINUOUS
 62
     7
 10
-151.85303
 20
219.18832
 11
-151.85303
 21
218.36659
  0
LINE
  8
0
  6
CONTINUOUS
 62
     7
 10
-152.45303
 20
219.18832
 11
-152.45303
 21
218.36659
  0
LINE
  8
0
  6
CONTINUOUS
 62
     7
 10
-152.45303
 20
214.01006
 11
-152.45303
 21
213.18832
  0
LINE
  8
0
  6
CONTINUOUS
 62
     7
 10
-151.85303
 20
214.01006
 11
-151.85303
 21
213.18832
  0
LINE
  8
0
  6
CONTINUOUS
 62
     7
 10
-152.45303
 20
217.7644
 11
-152.45303
 21
216.18832
  0
LINE
  8
0
  6
CONTINUOUS
 62
     7
 10
-151.85303
 20
217.7644
 11
-151.85303
 21
216.18832
  0
LINE
  8
0
  6
CONTINUOUS
 62
     7
 10
-82.791573
 20
219.17924
 11
-82.791573
 21
218.35751
  0
LINE
  8
0
  6
CONTINUOUS
 62
     7
 10
-83.391579
 20
219.17924
 11
-83.391579
 21
218.35751
  0
LINE
  8
0
  6
CONTINUOUS
 62
     7
 10
-83.391579
 20
214.00098
 11
-83.391579
 21
213.17924
  0
LINE
  8
0
  6
CONTINUOUS
 62
     7
 10
-82.791573
 20
214.00098
 11
-82.791573
 21
213.17924
  0
LINE
  8
0
  6
CONTINUOUS
 62
     7
 10
-83.391579
 20
217.75533
 11
-83.391579
 21
216.17924
  0
LINE
  8
0
  6
CONTINUOUS
 62
     7
 10
-82.791573
 20
217.75533
 11
-82.791573
 21
216.17924
  0
LINE
  8
0
  6
CONTINUOUS
 62
     7
 10
-15.69181
 20
219.26958
 11
-15.69181
 21
218.44785
  0
LINE
  8
0
  6
CONTINUOUS
 62
     7
 10
-16.291809
 20
219.26958
 11
-16.291809
 21
218.44785
  0
LINE
  8
0
  6
CONTINUOUS
 62
     7
 10
-16.291809
 20
214.09131
 11
-16.291809
 21
213.26958
  0
LINE
  8
0
  6
CONTINUOUS
 62
     7
 10
-15.69181
 20
214.09131
 11
-15.69181
 21
213.26958
  0
LINE
  8
0
  6
CONTINUOUS
 62
     7
 10
-16.291809
 20
217.84566
 11
-16.291809
 21
216.26958
  0
LINE
  8
0
  6
CONTINUOUS
 62
     7
 10
-15.69181
 20
217.84566
 11
-15.69181
 21
216.26958
  0
LINE
  8
0
  6
CONTINUOUS
 62
     7
 10
53.528458
 20
219.10083
 11
53.528458
 21
218.2791
  0
LINE
  8
0
  6
CONTINUOUS
 62
     7
 10
52.928459
 20
219.10083
 11
52.928459
 21
218.2791
  0
LINE
  8
0
  6
CONTINUOUS
 62
     7
 10
52.928459
 20
213.92256
 11
52.928459
 21
213.10083
  0
LINE
  8
0
  6
CONTINUOUS
 62
     7
 10
53.528458
 20
213.92256
 11
53.528458
 21
213.10083
  0
LINE
  8
0
  6
CONTINUOUS
 62
     7
 10
52.928459
 20
217.67691
 11
52.928459
 21
216.10083
  0
LINE
  8
0
  6
CONTINUOUS
 62
     7
 10
53.528458
 20
217.67691
 11
53.528458
 21
216.10083
  0
LINE
  8
0
  6
CONTINUOUS
 62
     7
 10
122.20224
 20
220.73265
 11
122.20224
 21
219.50005
  0
LINE
  8
0
  6
CONTINUOUS
 62
     7
 10
121.30225
 20
220.73265
 11
121.30225
 21
219.50005
  0
LINE
  8
0
  6
CONTINUOUS
 62
     7
 10
121.30225
 20
212.96526
 11
121.30225
 21
211.73265
  0
LINE
  8
0
  6
CONTINUOUS
 62
     7
 10
122.20224
 20
212.96526
 11
122.20224
 21
211.73265
  0
LINE
  8
0
  6
CONTINUOUS
 62
     7
 10
121.30225
 20
218.59679
 11
121.30225
 21
216.23265
  0
LINE
  8
0
  6
CONTINUOUS
 62
     7
 10
122.20224
 20
218.59679
 11
122.20224
 21
216.23265
  0
LINE
  8
0
  6
CONTINUOUS
 62
     7
 10
191.20934
 20
220.78947
 11
191.20934
 21
219.55687
  0
LINE
  8
0
  6
CONTINUOUS
 62
     7
 10
190.30934
 20
220.78947
 11
190.30934
 21
219.55687
  0
LINE
  8
0
  6
CONTINUOUS
 62
     7
 10
190.30934
 20
213.02208
 11
190.30934
 21
211.78947
  0
LINE
  8
0
  6
CONTINUOUS
 62
     7
 10
191.20934
 20
213.02208
 11
191.20934
 21
211.78947
  0
LINE
  8
0
  6
CONTINUOUS
 62
     7
 10
190.30934
 20
218.65361
 11
190.30934
 21
216.28947
  0
LINE
  8
0
  6
CONTINUOUS
 62
     7
 10
191.20934
 20
218.65361
 11
191.20934
 21
216.28947
  0
LINE
  8
0
  6
CONTINUOUS
 62
     7
 10
260.48956
 20
220.73378
 11
260.48956
 21
219.50117
  0
LINE
  8
0
  6
CONTINUOUS
 62
     7
 10
259.58954
 20
220.73378
 11
259.58954
 21
219.50117
  0
LINE
  8
0
  6
CONTINUOUS
 62
     7
 10
259.58954
 20
212.96638
 11
259.58954
 21
211.73378
  0
LINE
  8
0
  6
CONTINUOUS
 62
     7
 10
260.48956
 20
212.96638
 11
260.48956
 21
211.73378
  0
LINE
  8
0
  6
CONTINUOUS
 62
     7
 10
259.58954
 20
218.59792
 11
259.58954
 21
216.23378
  0
LINE
  8
0
  6
CONTINUOUS
 62
     7
 10
260.48956
 20
218.59792
 11
260.48956
 21
216.23378
  0
LINE
  8
0
  6
CONTINUOUS
 62
     7
 10
327.6351
 20
220.71219
 11
327.6351
 21
219.47958
  0
LINE
  8
0
  6
CONTINUOUS
 62
     7
 10
326.73508
 20
220.71219
 11
326.73508
 21
219.47958
  0
LINE
  8
0
  6
CONTINUOUS
 62
     7
 10
326.73508
 20
212.94479
 11
326.73508
 21
211.71219
  0
LINE
  8
0
  6
CONTINUOUS
 62
     7
 10
327.6351
 20
212.94479
 11
327.6351
 21
211.71219
  0
LINE
  8
0
  6
CONTINUOUS
 62
     7
 10
326.73508
 20
218.57632
 11
326.73508
 21
216.21219
  0
LINE
  8
0
  6
CONTINUOUS
 62
     7
 10
327.6351
 20
218.57632
 11
327.6351
 21
216.21219
  0
LINE
  8
0
  6
CONTINUOUS
 62
     7
 10
-363.80252
 20
113.00341
 11
-363.80252
 21
111.77081
  0
LINE
  8
0
  6
CONTINUOUS
 62
     7
 10
-364.70255
 20
113.00341
 11
-364.70255
 21
111.77081
  0
LINE
  8
0
  6
CONTINUOUS
 62
     7
 10
-364.70255
 20
105.23601
 11
-364.70255
 21
104.00341
  0
LINE
  8
0
  6
CONTINUOUS
 62
     7
 10
-363.80252
 20
105.23601
 11
-363.80252
 21
104.00341
  0
LINE
  8
0
  6
CONTINUOUS
 62
     7
 10
-364.70255
 20
110.86754
 11
-364.70255
 21
108.50341
  0
LINE
  8
0
  6
CONTINUOUS
 62
     7
 10
-363.80252
 20
110.86754
 11
-363.80252
 21
108.50341
  0
LINE
  8
0
  6
CONTINUOUS
 62
     7
 10
-277.58661
 20
113.1216
 11
-277.58661
 21
111.889
  0
LINE
  8
0
  6
CONTINUOUS
 62
     7
 10
-278.48663
 20
113.1216
 11
-278.48663
 21
111.889
  0
LINE
  8
0
  6
CONTINUOUS
 62
     7
 10
-278.48663
 20
105.35419
 11
-278.48663
 21
104.1216
  0
LINE
  8
0
  6
CONTINUOUS
 62
     7
 10
-277.58661
 20
105.35419
 11
-277.58661
 21
104.1216
  0
LINE
  8
0
  6
CONTINUOUS
 62
     7
 10
-278.48663
 20
110.98573
 11
-278.48663
 21
108.6216
  0
LINE
  8
0
  6
CONTINUOUS
 62
     7
 10
-277.58661
 20
110.98573
 11
-277.58661
 21
108.6216
  0
LINE
  8
0
  6
CONTINUOUS
 62
     7
 10
-192.72672
 20
113.05682
 11
-192.72672
 21
111.82423
  0
LINE
  8
0
  6
CONTINUOUS
 62
     7
 10
-193.62671
 20
113.05682
 11
-193.62671
 21
111.82423
  0
LINE
  8
0
  6
CONTINUOUS
 62
     7
 10
-193.62671
 20
105.28942
 11
-193.62671
 21
104.05682
  0
LINE
  8
0
  6
CONTINUOUS
 62
     7
 10
-192.72672
 20
105.28942
 11
-192.72672
 21
104.05682
  0
LINE
  8
0
  6
CONTINUOUS
 62
     7
 10
-193.62671
 20
110.92095
 11
-193.62671
 21
108.55682
  0
LINE
  8
0
  6
CONTINUOUS
 62
     7
 10
-192.72672
 20
110.92095
 11
-192.72672
 21
108.55682
  0
LINE
  8
0
  6
CONTINUOUS
 62
     7
 10
-106.49889
 20
112.96819
 11
-106.49889
 21
111.73559
  0
LINE
  8
0
  6
CONTINUOUS
 62
     7
 10
-107.39889
 20
112.96819
 11
-107.39889
 21
111.73559
  0
LINE
  8
0
  6
CONTINUOUS
 62
     7
 10
-107.39889
 20
105.20078
 11
-107.39889
 21
103.96819
  0
LINE
  8
0
  6
CONTINUOUS
 62
     7
 10
-106.49889
 20
105.20078
 11
-106.49889
 21
103.96819
  0
LINE
  8
0
  6
CONTINUOUS
 62
     7
 10
-107.39889
 20
110.83231
 11
-107.39889
 21
108.46819
  0
LINE
  8
0
  6
CONTINUOUS
 62
     7
 10
-106.49889
 20
110.83231
 11
-106.49889
 21
108.46819
  0
LINE
  8
0
  6
CONTINUOUS
 62
     7
 10
-20.113968
 20
113.1733
 11
-20.113968
 21
111.9407
  0
LINE
  8
0
  6
CONTINUOUS
 62
     7
 10
-21.013969
 20
113.1733
 11
-21.013969
 21
111.9407
  0
LINE
  8
0
  6
CONTINUOUS
 62
     7
 10
-21.013969
 20
105.4059
 11
-21.013969
 21
104.1733
  0
LINE
  8
0
  6
CONTINUOUS
 62
     7
 10
-20.113968
 20
105.4059
 11
-20.113968
 21
104.1733
  0
LINE
  8
0
  6
CONTINUOUS
 62
     7
 10
-21.013969
 20
111.03743
 11
-21.013969
 21
108.6733
  0
LINE
  8
0
  6
CONTINUOUS
 62
     7
 10
-20.113968
 20
111.03743
 11
-20.113968
 21
108.6733
  0
LINE
  8
0
  6
CONTINUOUS
 62
     7
 10
66.226067
 20
113.20398
 11
66.226067
 21
111.97138
  0
LINE
  8
0
  6
CONTINUOUS
 62
     7
 10
65.326073
 20
113.20398
 11
65.326073
 21
111.97138
  0
LINE
  8
0
  6
CONTINUOUS
 62
     7
 10
65.326073
 20
105.43658
 11
65.326073
 21
104.20398
  0
LINE
  8
0
  6
CONTINUOUS
 62
     7
 10
66.226067
 20
105.43658
 11
66.226067
 21
104.20398
  0
LINE
  8
0
  6
CONTINUOUS
 62
     7
 10
65.326073
 20
111.06811
 11
65.326073
 21
108.70398
  0
LINE
  8
0
  6
CONTINUOUS
 62
     7
 10
66.226067
 20
111.06811
 11
66.226067
 21
108.70398
  0
LINE
  8
0
  6
CONTINUOUS
 62
     7
 10
152.59308
 20
114.49034
 11
152.59308
 21
112.84688
  0
LINE
  8
0
  6
CONTINUOUS
 62
     7
 10
151.39307
 20
114.49034
 11
151.39307
 21
112.84688
  0
LINE
  8
0
  6
CONTINUOUS
 62
     7
 10
151.39307
 20
104.1338
 11
151.39307
 21
102.49034
  0
LINE
  8
0
  6
CONTINUOUS
 62
     7
 10
152.59308
 20
104.1338
 11
152.59308
 21
102.49034
  0
LINE
  8
0
  6
CONTINUOUS
 62
     7
 10
151.39307
 20
111.64252
 11
151.39307
 21
108.49034
  0
LINE
  8
0
  6
CONTINUOUS
 62
     7
 10
152.59308
 20
111.64252
 11
152.59308
 21
108.49034
  0
LINE
  8
0
  6
CONTINUOUS
 62
     7
 10
238.53029
 20
114.6841
 11
238.53029
 21
113.04064
  0
LINE
  8
0
  6
CONTINUOUS
 62
     7
 10
237.33028
 20
114.6841
 11
237.33028
 21
113.04064
  0
LINE
  8
0
  6
CONTINUOUS
 62
     7
 10
237.33028
 20
104.32757
 11
237.33028
 21
102.6841
  0
LINE
  8
0
  6
CONTINUOUS
 62
     7
 10
238.53029
 20
104.32757
 11
238.53029
 21
102.6841
  0
LINE
  8
0
  6
CONTINUOUS
 62
     7
 10
237.33028
 20
111.83628
 11
237.33028
 21
108.6841
  0
LINE
  8
0
  6
CONTINUOUS
 62
     7
 10
238.53029
 20
111.83628
 11
238.53029
 21
108.6841
  0
LINE
  8
0
  6
CONTINUOUS
 62
     7
 10
325.00443
 20
114.64773
 11
325.00443
 21
113.00426
  0
LINE
  8
0
  6
CONTINUOUS
 62
     7
 10
323.80441
 20
114.64773
 11
323.80441
 21
113.00426
  0
LINE
  8
0
  6
CONTINUOUS
 62
     7
 10
323.80441
 20
104.29119
 11
323.80441
 21
102.64773
  0
LINE
  8
0
  6
CONTINUOUS
 62
     7
 10
325.00443
 20
104.29119
 11
325.00443
 21
102.64773
  0
LINE
  8
0
  6
CONTINUOUS
 62
     7
 10
323.80441
 20
111.7999
 11
323.80441
 21
108.64773
  0
LINE
  8
0
  6
CONTINUOUS
 62
     7
 10
325.00443
 20
111.7999
 11
325.00443
 21
108.64773
  0
LINE
  8
0
  6
CONTINUOUS
 62
     7
 10
-366.08463
 20
-22.792854
 11
-366.08463
 21
-24.436321
  0
LINE
  8
0
  6
CONTINUOUS
 62
     7
 10
-367.28464
 20
-22.792854
 11
-367.28464
 21
-24.436321
  0
LINE
  8
0
  6
CONTINUOUS
 62
     7
 10
-367.28464
 20
-33.149387
 11
-367.28464
 21
-34.792854
  0
LINE
  8
0
  6
CONTINUOUS
 62
     7
 10
-366.08463
 20
-33.149387
 11
-366.08463
 21
-34.792854
  0
LINE
  8
0
  6
CONTINUOUS
 62
     7
 10
-367.28464
 20
-25.640682
 11
-367.28464
 21
-28.792854
  0
LINE
  8
0
  6
CONTINUOUS
 62
     7
 10
-366.08463
 20
-25.640682
 11
-366.08463
 21
-28.792854
  0
LINE
  8
0
  6
CONTINUOUS
 62
     7
 10
-267.40836
 20
-22.646263
 11
-267.40836
 21
-24.28973
  0
LINE
  8
0
  6
CONTINUOUS
 62
     7
 10
-268.60837
 20
-22.646263
 11
-268.60837
 21
-24.28973
  0
LINE
  8
0
  6
CONTINUOUS
 62
     7
 10
-268.60837
 20
-33.002796
 11
-268.60837
 21
-34.646263
  0
LINE
  8
0
  6
CONTINUOUS
 62
     7
 10
-267.40836
 20
-33.002796
 11
-267.40836
 21
-34.646263
  0
LINE
  8
0
  6
CONTINUOUS
 62
     7
 10
-268.60837
 20
-25.494091
 11
-268.60837
 21
-28.646263
  0
LINE
  8
0
  6
CONTINUOUS
 62
     7
 10
-267.40836
 20
-25.494091
 11
-267.40836
 21
-28.646263
  0
LINE
  8
0
  6
CONTINUOUS
 62
     7
 10
-158.45197
 20
-21.09399
 11
-158.45197
 21
-23.148323
  0
LINE
  8
0
  6
CONTINUOUS
 62
     7
 10
-159.95197
 20
-21.09399
 11
-159.95197
 21
-23.148323
  0
LINE
  8
0
  6
CONTINUOUS
 62
     7
 10
-159.95197
 20
-34.039658
 11
-159.95197
 21
-36.09399
  0
LINE
  8
0
  6
CONTINUOUS
 62
     7
 10
-158.45197
 20
-34.039658
 11
-158.45197
 21
-36.09399
  0
LINE
  8
0
  6
CONTINUOUS
 62
     7
 10
-159.95197
 20
-24.653774
 11
-159.95197
 21
-28.59399
  0
LINE
  8
0
  6
CONTINUOUS
 62
     7
 10
-158.45197
 20
-24.653774
 11
-158.45197
 21
-28.59399
  0
LINE
  8
0
  6
CONTINUOUS
 62
     7
 10
-59.484207
 20
-21.082626
 11
-59.484207
 21
-23.136959
  0
LINE
  8
0
  6
CONTINUOUS
 62
     7
 10
-60.984207
 20
-21.082626
 11
-60.984207
 21
-23.136959
  0
LINE
  8
0
  6
CONTINUOUS
 62
     7
 10
-60.984207
 20
-34.028294
 11
-60.984207
 21
-36.082626
  0
LINE
  8
0
  6
CONTINUOUS
 62
     7
 10
-59.484207
 20
-34.028294
 11
-59.484207
 21
-36.082626
  0
LINE
  8
0
  6
CONTINUOUS
 62
     7
 10
-60.984207
 20
-24.64241
 11
-60.984207
 21
-28.582626
  0
LINE
  8
0
  6
CONTINUOUS
 62
     7
 10
-59.484207
 20
-24.64241
 11
-59.484207
 21
-28.582626
  0
LINE
  8
0
  6
CONTINUOUS
 62
     7
 10
236.16763
 20
-20.782057
 11
236.16763
 21
-22.83639
  0
LINE
  8
0
  6
CONTINUOUS
 62
     7
 10
234.66763
 20
-20.782057
 11
234.66763
 21
-22.83639
  0
LINE
  8
0
  6
CONTINUOUS
 62
     7
 10
234.66763
 20
-33.727722
 11
234.66763
 21
-35.782059
  0
LINE
  8
0
  6
CONTINUOUS
 62
     7
 10
236.16763
 20
-33.727722
 11
236.16763
 21
-35.782059
  0
LINE
  8
0
  6
CONTINUOUS
 62
     7
 10
234.66763
 20
-24.341841
 11
234.66763
 21
-28.282057
  0
LINE
  8
0
  6
CONTINUOUS
 62
     7
 10
236.16763
 20
-24.341841
 11
236.16763
 21
-28.282057
  0
LINE
  8
0
  6
CONTINUOUS
 62
     7
 10
-308.56766
 20
-187.92776
 11
-308.56766
 21
-190.39296
  0
LINE
  8
0
  6
CONTINUOUS
 62
     7
 10
-310.36765
 20
-187.92776
 11
-310.36765
 21
-190.39296
  0
LINE
  8
0
  6
CONTINUOUS
 62
     7
 10
-310.36765
 20
-203.46257
 11
-310.36765
 21
-205.92776
  0
LINE
  8
0
  6
CONTINUOUS
 62
     7
 10
-308.56766
 20
-203.46257
 11
-308.56766
 21
-205.92776
  0
LINE
  8
0
  6
CONTINUOUS
 62
     7
 10
-310.36765
 20
-192.19951
 11
-310.36765
 21
-196.92776
  0
LINE
  8
0
  6
CONTINUOUS
 62
     7
 10
-308.56766
 20
-192.19951
 11
-308.56766
 21
-196.92776
  0
LINE
  8
0
  6
CONTINUOUS
 62
     7
 10
137.39363
 20
-20.798534
 11
137.39363
 21
-22.852867
  0
LINE
  8
0
  6
CONTINUOUS
 62
     7
 10
135.89363
 20
-20.798534
 11
135.89363
 21
-22.852867
  0
LINE
  8
0
  6
CONTINUOUS
 62
     7
 10
135.89363
 20
-33.744202
 11
135.89363
 21
-35.798534
  0
LINE
  8
0
  6
CONTINUOUS
 62
     7
 10
137.39363
 20
-33.744202
 11
137.39363
 21
-35.798534
  0
LINE
  8
0
  6
CONTINUOUS
 62
     7
 10
135.89363
 20
-24.358318
 11
135.89363
 21
-28.298534
  0
LINE
  8
0
  6
CONTINUOUS
 62
     7
 10
137.39363
 20
-24.358318
 11
137.39363
 21
-28.298534
  0
LINE
  8
0
  6
CONTINUOUS
 62
     7
 10
335.3371
 20
-21.088877
 11
335.3371
 21
-23.143209
  0
LINE
  8
0
  6
CONTINUOUS
 62
     7
 10
333.8371
 20
-21.088877
 11
333.8371
 21
-23.143209
  0
LINE
  8
0
  6
CONTINUOUS
 62
     7
 10
333.8371
 20
-34.034546
 11
333.8371
 21
-36.088875
  0
LINE
  8
0
  6
CONTINUOUS
 62
     7
 10
335.3371
 20
-34.034546
 11
335.3371
 21
-36.088875
  0
LINE
  8
0
  6
CONTINUOUS
 62
     7
 10
333.8371
 20
-24.648661
 11
333.8371
 21
-28.588877
  0
LINE
  8
0
  6
CONTINUOUS
 62
     7
 10
335.3371
 20
-24.648661
 11
335.3371
 21
-28.588877
  0
LINE
  8
0
  6
CONTINUOUS
 62
     7
 10
38.617069
 20
-20.981489
 11
38.617069
 21
-23.035822
  0
LINE
  8
0
  6
CONTINUOUS
 62
     7
 10
37.117069
 20
-20.981489
 11
37.117069
 21
-23.035822
  0
LINE
  8
0
  6
CONTINUOUS
 62
     7
 10
37.117069
 20
-33.927155
 11
37.117069
 21
-35.981491
  0
LINE
  8
0
  6
CONTINUOUS
 62
     7
 10
38.617069
 20
-33.927155
 11
38.617069
 21
-35.981491
  0
LINE
  8
0
  6
CONTINUOUS
 62
     7
 10
37.117069
 20
-24.541273
 11
37.117069
 21
-28.481489
  0
LINE
  8
0
  6
CONTINUOUS
 62
     7
 10
38.617069
 20
-24.541273
 11
38.617069
 21
-28.481489
  0
LINE
  8
0
  6
CONTINUOUS
 62
     7
 10
-203.35626
 20
-187.65106
 11
-203.35626
 21
-190.11626
  0
LINE
  8
0
  6
CONTINUOUS
 62
     7
 10
-205.15625
 20
-187.65106
 11
-205.15625
 21
-190.11626
  0
LINE
  8
0
  6
CONTINUOUS
 62
     7
 10
-205.15625
 20
-203.18587
 11
-205.15625
 21
-205.65106
  0
LINE
  8
0
  6
CONTINUOUS
 62
     7
 10
-203.35626
 20
-203.18587
 11
-203.35626
 21
-205.65106
  0
LINE
  8
0
  6
CONTINUOUS
 62
     7
 10
-205.15625
 20
-191.92281
 11
-205.15625
 21
-196.65106
  0
LINE
  8
0
  6
CONTINUOUS
 62
     7
 10
-203.35626
 20
-191.92281
 11
-203.35626
 21
-196.65106
  0
LINE
  8
0
  6
CONTINUOUS
 62
     7
 10
-98.50618
 20
-187.6181
 11
-98.50618
 21
-190.0833
  0
LINE
  8
0
  6
CONTINUOUS
 62
     7
 10
-100.30618
 20
-187.6181
 11
-100.30618
 21
-190.0833
  0
LINE
  8
0
  6
CONTINUOUS
 62
     7
 10
-100.30618
 20
-203.15291
 11
-100.30618
 21
-205.6181
  0
LINE
  8
0
  6
CONTINUOUS
 62
     7
 10
-98.50618
 20
-203.15291
 11
-98.50618
 21
-205.6181
  0
LINE
  8
0
  6
CONTINUOUS
 62
     7
 10
-100.30618
 20
-191.88985
 11
-100.30618
 21
-196.6181
  0
LINE
  8
0
  6
CONTINUOUS
 62
     7
 10
-98.50618
 20
-191.88985
 11
-98.50618
 21
-196.6181
  0
LINE
  8
0
  6
CONTINUOUS
 62
     7
 10
3.7246451
 20
-187.85504
 11
3.7246451
 21
-190.32024
  0
LINE
  8
0
  6
CONTINUOUS
 62
     7
 10
1.9246451
 20
-187.85504
 11
1.9246451
 21
-190.32024
  0
LINE
  8
0
  6
CONTINUOUS
 62
     7
 10
1.9246451
 20
-203.38985
 11
1.9246451
 21
-205.85504
  0
LINE
  8
0
  6
CONTINUOUS
 62
     7
 10
3.7246451
 20
-203.38985
 11
3.7246451
 21
-205.85504
  0
LINE
  8
0
  6
CONTINUOUS
 62
     7
 10
1.9246451
 20
-192.12679
 11
1.9246451
 21
-196.85504
  0
LINE
  8
0
  6
CONTINUOUS
 62
     7
 10
3.7246451
 20
-192.12679
 11
3.7246451
 21
-196.85504
  0
LINE
  8
0
  6
CONTINUOUS
 62
     7
 10
119.69508
 20
-187.89139
 11
119.69508
 21
-190.35658
  0
LINE
  8
0
  6
CONTINUOUS
 62
     7
 10
117.89507
 20
-187.89139
 11
117.89507
 21
-190.35658
  0
LINE
  8
0
  6
CONTINUOUS
 62
     7
 10
117.89507
 20
-203.42619
 11
117.89507
 21
-205.89139
  0
LINE
  8
0
  6
CONTINUOUS
 62
     7
 10
119.69508
 20
-203.42619
 11
119.69508
 21
-205.89139
  0
LINE
  8
0
  6
CONTINUOUS
 62
     7
 10
117.89507
 20
-192.16313
 11
117.89507
 21
-196.89139
  0
LINE
  8
0
  6
CONTINUOUS
 62
     7
 10
119.69508
 20
-192.16313
 11
119.69508
 21
-196.89139
  0
LINE
  8
0
  6
CONTINUOUS
 62
     7
 10
221.28021
 20
-187.73402
 11
221.28021
 21
-190.19922
  0
LINE
  8
0
  6
CONTINUOUS
 62
     7
 10
219.48022
 20
-187.73402
 11
219.48022
 21
-190.19922
  0
LINE
  8
0
  6
CONTINUOUS
 62
     7
 10
219.48022
 20
-203.26883
 11
219.48022
 21
-205.73402
  0
LINE
  8
0
  6
CONTINUOUS
 62
     7
 10
221.28021
 20
-203.26883
 11
221.28021
 21
-205.73402
  0
LINE
  8
0
  6
CONTINUOUS
 62
     7
 10
219.48022
 20
-192.00577
 11
219.48022
 21
-196.73402
  0
LINE
  8
0
  6
CONTINUOUS
 62
     7
 10
221.28021
 20
-192.00577
 11
221.28021
 21
-196.73402
  0
LINE
  8
0
  6
CONTINUOUS
 62
     7
 10
334.95444
 20
-187.80276
 11
334.95444
 21
-190.26796
  0
LINE
  8
0
  6
CONTINUOUS
 62
     7
 10
333.15445
 20
-187.80276
 11
333.15445
 21
-190.26796
  0
LINE
  8
0
  6
CONTINUOUS
 62
     7
 10
333.15445
 20
-203.33757
 11
333.15445
 21
-205.80276
  0
LINE
  8
0
  6
CONTINUOUS
 62
     7
 10
334.95444
 20
-203.33757
 11
334.95444
 21
-205.80276
  0
LINE
  8
0
  6
CONTINUOUS
 62
     7
 10
333.15445
 20
-192.07451
 11
333.15445
 21
-196.80276
  0
LINE
  8
0
  6
CONTINUOUS
 62
     7
 10
334.95444
 20
-192.07451
 11
334.95444
 21
-196.80276
  0
LINE
  8
0
  6
CONTINUOUS
 62
     7
 10
526.9588
 20
183.11673
 11
526.9588
 21
180.65154
  0
LINE
  8
0
  6
CONTINUOUS
 62
     7
 10
525.15875
 20
183.11673
 11
525.15875
 21
180.65154
  0
LINE
  8
0
  6
CONTINUOUS
 62
     7
 10
525.15875
 20
167.58192
 11
525.15875
 21
165.11673
  0
LINE
  8
0
  6
CONTINUOUS
 62
     7
 10
526.9588
 20
167.58192
 11
526.9588
 21
165.11673
  0
LINE
  8
0
  6
CONTINUOUS
 62
     7
 10
525.15875
 20
178.84499
 11
525.15875
 21
174.11673
  0
LINE
  8
0
  6
CONTINUOUS
 62
     7
 10
526.9588
 20
178.84499
 11
526.9588
 21
174.11673
  0
LINE
  8
0
  6
CONTINUOUS
 62
     7
 10
633.85193
 20
184.72327
 11
633.85193
 21
182.25807
  0
LINE
  8
0
  6
CONTINUOUS
 62
     7
 10
632.05188
 20
184.72327
 11
632.05188
 21
182.25807
  0
LINE
  8
0
  6
CONTINUOUS
 62
     7
 10
632.05188
 20
169.18846
 11
632.05188
 21
166.72327
  0
LINE
  8
0
  6
CONTINUOUS
 62
     7
 10
633.85193
 20
169.18846
 11
633.85193
 21
166.72327
  0
LINE
  8
0
  6
CONTINUOUS
 62
     7
 10
632.05188
 20
180.45152
 11
632.05188
 21
175.72327
  0
LINE
  8
0
  6
CONTINUOUS
 62
     7
 10
633.85193
 20
180.45152
 11
633.85193
 21
175.72327
  0
LINE
  8
0
  6
CONTINUOUS
 62
     7
 10
748.36249
 20
182.11684
 11
748.36249
 21
179.65164
  0
LINE
  8
0
  6
CONTINUOUS
 62
     7
 10
746.56244
 20
182.11684
 11
746.56244
 21
179.65164
  0
LINE
  8
0
  6
CONTINUOUS
 62
     7
 10
746.56244
 20
166.58203
 11
746.56244
 21
164.11684
  0
LINE
  8
0
  6
CONTINUOUS
 62
     7
 10
748.36249
 20
166.58203
 11
748.36249
 21
164.11684
  0
LINE
  8
0
  6
CONTINUOUS
 62
     7
 10
746.56244
 20
177.84509
 11
746.56244
 21
173.11684
  0
LINE
  8
0
  6
CONTINUOUS
 62
     7
 10
748.36249
 20
177.84509
 11
748.36249
 21
173.11684
  0
LINE
  8
0
  6
CONTINUOUS
 62
     7
 10
864.84808
 20
183.414
 11
864.84808
 21
180.94881
  0
LINE
  8
0
  6
CONTINUOUS
 62
     7
 10
863.04803
 20
183.414
 11
863.04803
 21
180.94881
  0
LINE
  8
0
  6
CONTINUOUS
 62
     7
 10
863.04803
 20
167.8792
 11
863.04803
 21
165.414
  0
LINE
  8
0
  6
CONTINUOUS
 62
     7
 10
864.84808
 20
167.8792
 11
864.84808
 21
165.414
  0
LINE
  8
0
  6
CONTINUOUS
 62
     7
 10
863.04803
 20
179.14226
 11
863.04803
 21
174.414
  0
LINE
  8
0
  6
CONTINUOUS
 62
     7
 10
864.84808
 20
179.14226
 11
864.84808
 21
174.414
  0
LINE
  8
0
  6
CONTINUOUS
 62
     7
 10
988.43823
 20
183.07707
 11
988.43823
 21
180.61188
  0
LINE
  8
0
  6
CONTINUOUS
 62
     7
 10
986.63818
 20
183.07707
 11
986.63818
 21
180.61188
  0
LINE
  8
0
  6
CONTINUOUS
 62
     7
 10
986.63818
 20
167.54227
 11
986.63818
 21
165.07707
  0
LINE
  8
0
  6
CONTINUOUS
 62
     7
 10
988.43823
 20
167.54227
 11
988.43823
 21
165.07707
  0
LINE
  8
0
  6
CONTINUOUS
 62
     7
 10
986.63818
 20
178.80533
 11
986.63818
 21
174.07707
  0
LINE
  8
0
  6
CONTINUOUS
 62
     7
 10
988.43823
 20
178.80533
 11
988.43823
 21
174.07707
  0
LINE
  8
0
  6
CONTINUOUS
 62
     7
 10
1104.4705
 20
184.00946
 11
1104.4705
 21
181.54427
  0
LINE
  8
0
  6
CONTINUOUS
 62
     7
 10
1102.6704
 20
184.00946
 11
1102.6704
 21
181.54427
  0
LINE
  8
0
  6
CONTINUOUS
 62
     7
 10
1102.6704
 20
168.47466
 11
1102.6704
 21
166.00946
  0
LINE
  8
0
  6
CONTINUOUS
 62
     7
 10
1104.4705
 20
168.47466
 11
1104.4705
 21
166.00946
  0
LINE
  8
0
  6
CONTINUOUS
 62
     7
 10
1102.6704
 20
179.73772
 11
1102.6704
 21
175.00946
  0
LINE
  8
0
  6
CONTINUOUS
 62
     7
 10
1104.4705
 20
179.73772
 11
1104.4705
 21
175.00946
  0
LINE
  8
0
  6
CONTINUOUS
 62
     7
 10
1228.5186
 20
182.95491
 11
1228.5186
 21
180.48972
  0
LINE
  8
0
  6
CONTINUOUS
 62
     7
 10
1226.7185
 20
182.95491
 11
1226.7185
 21
180.48972
  0
LINE
  8
0
  6
CONTINUOUS
 62
     7
 10
1226.7185
 20
167.4201
 11
1226.7185
 21
164.95491
  0
LINE
  8
0
  6
CONTINUOUS
 62
     7
 10
1228.5186
 20
167.4201
 11
1228.5186
 21
164.95491
  0
LINE
  8
0
  6
CONTINUOUS
 62
     7
 10
1226.7185
 20
178.68317
 11
1226.7185
 21
173.95491
  0
LINE
  8
0
  6
CONTINUOUS
 62
     7
 10
1228.5186
 20
178.68317
 11
1228.5186
 21
173.95491
  0
LINE
  8
0
  6
CONTINUOUS
 62
     7
 10
748.96753
 20
7.6865211
 11
748.96753
 21
4.3995891
  0
LINE
  8
0
  6
CONTINUOUS
 62
     7
 10
746.5675
 20
7.6865211
 11
746.5675
 21
4.3995891
  0
LINE
  8
0
  6
CONTINUOUS
 62
     7
 10
746.5675
 20
-13.026546
 11
746.5675
 21
-16.313478
  0
LINE
  8
0
  6
CONTINUOUS
 62
     7
 10
748.96753
 20
-13.026546
 11
748.96753
 21
-16.313478
  0
LINE
  8
0
  6
CONTINUOUS
 62
     7
 10
746.5675
 20
1.9908667
 11
746.5675
 21
-4.3134789
  0
LINE
  8
0
  6
CONTINUOUS
 62
     7
 10
748.96753
 20
1.9908667
 11
748.96753
 21
-4.3134789
  0
LINE
  8
0
  6
CONTINUOUS
 62
     7
 10
633.86255
 20
6.6365209
 11
633.86255
 21
3.3495889
  0
LINE
  8
0
  6
CONTINUOUS
 62
     7
 10
631.46252
 20
6.6365209
 11
631.46252
 21
3.3495889
  0
LINE
  8
0
  6
CONTINUOUS
 62
     7
 10
631.46252
 20
-14.076548
 11
631.46252
 21
-17.36348
  0
LINE
  8
0
  6
CONTINUOUS
 62
     7
 10
633.86255
 20
-14.076548
 11
633.86255
 21
-17.36348
  0
LINE
  8
0
  6
CONTINUOUS
 62
     7
 10
631.46252
 20
0.94086647
 11
631.46252
 21
-5.3634791
  0
LINE
  8
0
  6
CONTINUOUS
 62
     7
 10
633.86255
 20
0.94086647
 11
633.86255
 21
-5.3634791
  0
LINE
  8
0
  6
CONTINUOUS
 62
     7
 10
527.55426
 20
6.9956117
 11
527.55426
 21
3.7086797
  0
LINE
  8
0
  6
CONTINUOUS
 62
     7
 10
525.15424
 20
6.9956117
 11
525.15424
 21
3.7086797
  0
LINE
  8
0
  6
CONTINUOUS
 62
     7
 10
525.15424
 20
-13.717457
 11
525.15424
 21
-17.004389
  0
LINE
  8
0
  6
CONTINUOUS
 62
     7
 10
527.55426
 20
-13.717457
 11
527.55426
 21
-17.004389
  0
LINE
  8
0
  6
CONTINUOUS
 62
     7
 10
525.15424
 20
1.2999573
 11
525.15424
 21
-5.0043883
  0
LINE
  8
0
  6
CONTINUOUS
 62
     7
 10
527.55426
 20
1.2999573
 11
527.55426
 21
-5.0043883
  0
LINE
  8
0
  6
CONTINUOUS
 62
     7
 10
865.86371
 20
6.286521
 11
865.86371
 21
2.999589
  0
LINE
  8
0
  6
CONTINUOUS
 62
     7
 10
863.46368
 20
6.286521
 11
863.46368
 21
2.999589
  0
LINE
  8
0
  6
CONTINUOUS
 62
     7
 10
863.46368
 20
-14.426547
 11
863.46368
 21
-17.713478
  0
LINE
  8
0
  6
CONTINUOUS
 62
     7
 10
865.86371
 20
-14.426547
 11
865.86371
 21
-17.713478
  0
LINE
  8
0
  6
CONTINUOUS
 62
     7
 10
863.46368
 20
0.59086657
 11
863.46368
 21
-5.713479
  0
LINE
  8
0
  6
CONTINUOUS
 62
     7
 10
865.86371
 20
0.59086657
 11
865.86371
 21
-5.713479
  0
LINE
  8
0
  6
CONTINUOUS
 62
     7
 10
986.89301
 20
7.3365211
 11
986.89301
 21
4.0495892
  0
LINE
  8
0
  6
CONTINUOUS
 62
     7
 10
984.49298
 20
7.3365211
 11
984.49298
 21
4.0495892
  0
LINE
  8
0
  6
CONTINUOUS
 62
     7
 10
984.49298
 20
-13.376547
 11
984.49298
 21
-16.663479
  0
LINE
  8
0
  6
CONTINUOUS
 62
     7
 10
986.89301
 20
-13.376547
 11
986.89301
 21
-16.663479
  0
LINE
  8
0
  6
CONTINUOUS
 62
     7
 10
984.49298
 20
1.6408668
 11
984.49298
 21
-4.6634789
  0
LINE
  8
0
  6
CONTINUOUS
 62
     7
 10
986.89301
 20
1.6408668
 11
986.89301
 21
-4.6634789
  0
LINE
  8
0
  6
CONTINUOUS
 62
     7
 10
1104.7319
 20
5.5865211
 11
1104.7319
 21
2.2995892
  0
LINE
  8
0
  6
CONTINUOUS
 62
     7
 10
1102.332
 20
5.5865211
 11
1102.332
 21
2.2995892
  0
LINE
  8
0
  6
CONTINUOUS
 62
     7
 10
1102.332
 20
-15.126547
 11
1102.332
 21
-18.413479
  0
LINE
  8
0
  6
CONTINUOUS
 62
     7
 10
1104.7319
 20
-15.126547
 11
1104.7319
 21
-18.413479
  0
LINE
  8
0
  6
CONTINUOUS
 62
     7
 10
1102.332
 20
-0.10913324
 11
1102.332
 21
-6.4134789
  0
LINE
  8
0
  6
CONTINUOUS
 62
     7
 10
1104.7319
 20
-0.10913324
 11
1104.7319
 21
-6.4134789
  0
LINE
  8
0
  6
CONTINUOUS
 62
     7
 10
1227.0109
 20
5.2365208
 11
1227.0109
 21
1.9495888
  0
LINE
  8
0
  6
CONTINUOUS
 62
     7
 10
1224.611
 20
5.2365208
 11
1224.611
 21
1.9495888
  0
LINE
  8
0
  6
CONTINUOUS
 62
     7
 10
1224.611
 20
-15.476547
 11
1224.611
 21
-18.763479
  0
LINE
  8
0
  6
CONTINUOUS
 62
     7
 10
1227.0109
 20
-15.476547
 11
1227.0109
 21
-18.763479
  0
LINE
  8
0
  6
CONTINUOUS
 62
     7
 10
1224.611
 20
-0.45913363
 11
1224.611
 21
-6.7634792
  0
LINE
  8
0
  6
CONTINUOUS
 62
     7
 10
1227.0109
 20
-0.45913363
 11
1227.0109
 21
-6.7634792
  0
LINE
  8
0
  6
CONTINUOUS
 62
     7
 10
541.66254
 20
-191.50705
 11
541.66254
 21
-194.79398
  0
LINE
  8
0
  6
CONTINUOUS
 62
     7
 10
539.26251
 20
-191.50705
 11
539.26251
 21
-194.79398
  0
LINE
  8
0
  6
CONTINUOUS
 62
     7
 10
539.26251
 20
-212.22012
 11
539.26251
 21
-215.50705
  0
LINE
  8
0
  6
CONTINUOUS
 62
     7
 10
541.66254
 20
-212.22012
 11
541.66254
 21
-215.50705
  0
LINE
  8
0
  6
CONTINUOUS
 62
     7
 10
539.26251
 20
-197.2027
 11
539.26251
 21
-203.50705
  0
LINE
  8
0
  6
CONTINUOUS
 62
     7
 10
541.66254
 20
-197.2027
 11
541.66254
 21
-203.50705
  0
LINE
  8
0
  6
CONTINUOUS
 62
     7
 10
671.76758
 20
-191.15706
 11
671.76758
 21
-194.44398
  0
LINE
  8
0
  6
CONTINUOUS
 62
     7
 10
669.36755
 20
-191.15706
 11
669.36755
 21
-194.44398
  0
LINE
  8
0
  6
CONTINUOUS
 62
     7
 10
669.36755
 20
-211.87013
 11
669.36755
 21
-215.15706
  0
LINE
  8
0
  6
CONTINUOUS
 62
     7
 10
671.76758
 20
-211.87013
 11
671.76758
 21
-215.15706
  0
LINE
  8
0
  6
CONTINUOUS
 62
     7
 10
669.36755
 20
-196.85271
 11
669.36755
 21
-203.15706
  0
LINE
  8
0
  6
CONTINUOUS
 62
     7
 10
671.76758
 20
-196.85271
 11
671.76758
 21
-203.15706
  0
LINE
  8
0
  6
CONTINUOUS
 62
     7
 10
808.6637
 20
-192.55705
 11
808.6637
 21
-195.84398
  0
LINE
  8
0
  6
CONTINUOUS
 62
     7
 10
806.26367
 20
-192.55705
 11
806.26367
 21
-195.84398
  0
LINE
  8
0
  6
CONTINUOUS
 62
     7
 10
806.26367
 20
-213.27013
 11
806.26367
 21
-216.55705
  0
LINE
  8
0
  6
CONTINUOUS
 62
     7
 10
808.6637
 20
-213.27013
 11
808.6637
 21
-216.55705
  0
LINE
  8
0
  6
CONTINUOUS
 62
     7
 10
806.26367
 20
-198.2527
 11
806.26367
 21
-204.55705
  0
LINE
  8
0
  6
CONTINUOUS
 62
     7
 10
808.6637
 20
-198.2527
 11
808.6637
 21
-204.55705
  0
LINE
  8
0
  6
CONTINUOUS
 62
     7
 10
940.39301
 20
-192.20706
 11
940.39301
 21
-195.49399
  0
LINE
  8
0
  6
CONTINUOUS
 62
     7
 10
937.99298
 20
-192.20706
 11
937.99298
 21
-195.49399
  0
LINE
  8
0
  6
CONTINUOUS
 62
     7
 10
937.99298
 20
-212.92014
 11
937.99298
 21
-216.20706
  0
LINE
  8
0
  6
CONTINUOUS
 62
     7
 10
940.39301
 20
-212.92014
 11
940.39301
 21
-216.20706
  0
LINE
  8
0
  6
CONTINUOUS
 62
     7
 10
937.99298
 20
-197.90271
 11
937.99298
 21
-204.20706
  0
LINE
  8
0
  6
CONTINUOUS
 62
     7
 10
940.39301
 20
-197.90271
 11
940.39301
 21
-204.20706
  0
LINE
  8
0
  6
CONTINUOUS
 62
     7
 10
1078.6311
 20
-192.90706
 11
1078.6311
 21
-196.19398
  0
LINE
  8
0
  6
CONTINUOUS
 62
     7
 10
1076.2312
 20
-192.90706
 11
1076.2312
 21
-196.19398
  0
LINE
  8
0
  6
CONTINUOUS
 62
     7
 10
1076.2312
 20
-213.62013
 11
1076.2312
 21
-216.90706
  0
LINE
  8
0
  6
CONTINUOUS
 62
     7
 10
1078.6311
 20
-213.62013
 11
1078.6311
 21
-216.90706
  0
LINE
  8
0
  6
CONTINUOUS
 62
     7
 10
1076.2312
 20
-198.60271
 11
1076.2312
 21
-204.90706
  0
LINE
  8
0
  6
CONTINUOUS
 62
     7
 10
1078.6311
 20
-198.60271
 11
1078.6311
 21
-204.90706
  0
LINE
  8
0
  6
CONTINUOUS
 62
     7
 10
1215.1609
 20
-192.20706
 11
1215.1609
 21
-195.49399
  0
LINE
  8
0
  6
CONTINUOUS
 62
     7
 10
1212.761
 20
-192.20706
 11
1212.761
 21
-195.49399
  0
LINE
  8
0
  6
CONTINUOUS
 62
     7
 10
1212.761
 20
-212.92014
 11
1212.761
 21
-216.20706
  0
LINE
  8
0
  6
CONTINUOUS
 62
     7
 10
1215.1609
 20
-212.92014
 11
1215.1609
 21
-216.20706
  0
LINE
  8
0
  6
CONTINUOUS
 62
     7
 10
1212.761
 20
-197.90271
 11
1212.761
 21
-204.20706
  0
LINE
  8
0
  6
CONTINUOUS
 62
     7
 10
1215.1609
 20
-197.90271
 11
1215.1609
 21
-204.20706
  0
ARC
  8
0
  6
CONTINUOUS
 62
     7
 10
-352.30573
 20
218.1622
 40
7.5
 50
62.339485
 51
89.999962
  0
ARC
  8
0
  6
CONTINUOUS
 62
     7
 10
-351.88809
 20
222.1622
 40
5
 50
23.58442
 51
89.999962
  0
ARC
  8
0
  6
CONTINUOUS
 62
     7
 10
-344.18167
 20
233.6622
 40
10
 50
242.33946
 51
269.99994
  0
ARC
  8
0
  6
CONTINUOUS
 62
     7
 10
-351.88809
 20
210.1622
 40
5
 50
269.99998
 51
336.41553
  0
ARC
  8
0
  6
CONTINUOUS
 62
     7
 10
-344.18167
 20
198.6622
 40
10
 50
90.000016
 51
117.6605
  0
ARC
  8
0
  6
CONTINUOUS
 62
     7
 10
-352.30573
 20
214.1622
 40
7.5
 50
269.99998
 51
297.66046
  0
ARC
  8
0
  6
CONTINUOUS
 62
     7
 10
-284.6615
 20
208.1622
 40
4.9999995
 50
269.99998
 51
322.93116
  0
ARC
  8
0
  6
CONTINUOUS
 62
     7
 10
-283.67197
 20
214.1622
 40
9.5
 50
269.99998
 51
307.35688
  0
ARC
  8
0
  6
CONTINUOUS
 62
     7
 10
-271.83981
 20
198.6622
 40
10
 50
90.000016
 51
127.35685
  0
ARC
  8
0
  6
CONTINUOUS
 62
     7
 10
-271.83981
 20
233.6622
 40
10
 50
232.6431
 51
269.99994
  0
ARC
  8
0
  6
CONTINUOUS
 62
     7
 10
-283.67197
 20
218.1622
 40
9.5
 50
52.643065
 51
89.999962
  0
ARC
  8
0
  6
CONTINUOUS
 62
     7
 10
-284.6615
 20
224.1622
 40
4.9999995
 50
37.068786
 51
89.999962
  0
ARC
  8
0
  6
CONTINUOUS
 62
     7
 10
-215.81798
 20
207.1622
 40
4
 50
269.99998
 51
324.76427
  0
ARC
  8
0
  6
CONTINUOUS
 62
     7
 10
-214.55084
 20
215.1622
 40
10.5
 50
269.99998
 51
296.88806
  0
ARC
  8
0
  6
CONTINUOUS
 62
     7
 10
-206.18425
 20
198.6622
 40
8
 50
90.000016
 51
116.88806
  0
ARC
  8
0
  6
CONTINUOUS
 62
     7
 10
-206.18425
 20
233.6622
 40
8
 50
243.11187
 51
269.99992
  0
ARC
  8
0
  6
CONTINUOUS
 62
     7
 10
-214.55084
 20
217.1622
 40
10.5
 50
63.111884
 51
89.999962
  0
ARC
  8
0
  6
CONTINUOUS
 62
     7
 10
-215.81798
 20
225.1622
 40
4
 50
35.235672
 51
89.999962
  0
ARC
  8
0
  6
CONTINUOUS
 62
     7
 10
-145.94659
 20
202.6622
 40
1.5
 50
269.99998
 51
359.99996
  0
ARC
  8
0
  6
CONTINUOUS
 62
     7
 10
-145.03326
 20
214.1622
 40
11.5
 50
269.99993
 51
306.40146
  0
ARC
  8
0
  6
CONTINUOUS
 62
     7
 10
-132.86774
 20
197.6622
 40
9
 50
89.999962
 51
126.4015
  0
ARC
  8
0
  6
CONTINUOUS
 62
     7
 10
-132.86774
 20
234.6622
 40
9
 50
233.59844
 51
269.99998
  0
ARC
  8
0
  6
CONTINUOUS
 62
     7
 10
-145.03326
 20
218.1622
 40
11.5
 50
53.598485
 51
90.000016
  0
ARC
  8
0
  6
CONTINUOUS
 62
     7
 10
-145.94659
 20
229.6622
 40
1.5
 50
359.99998
 51
89.999962
  0
ARC
  8
0
  6
CONTINUOUS
 62
     7
 10
-78.030159
 20
228.1622
 40
3
 50
25.635962
 51
89.999962
  0
ARC
  8
0
  6
CONTINUOUS
 62
     7
 10
-77.32547
 20
219.6622
 40
10
 50
64.157982
 51
89.999962
  0
ARC
  8
0
  6
CONTINUOUS
 62
     7
 10
-78.030159
 20
204.1622
 40
3
 50
269.99998
 51
334.36398
  0
ARC
  8
0
  6
CONTINUOUS
 62
     7
 10
-77.32547
 20
212.6622
 40
10
 50
269.99998
 51
295.84196
  0
ARC
  8
0
  6
CONTINUOUS
 62
     7
 10
-68.607674
 20
194.6622
 40
10
 50
90.000016
 51
115.84191
  0
ARC
  8
0
  6
CONTINUOUS
 62
     7
 10
-68.607674
 20
237.6622
 40
10
 50
244.15804
 51
269.99994
  0
ARC
  8
0
  6
CONTINUOUS
 62
     7
 10
-7.0633221
 20
201.1622
 40
3
 50
269.99998
 51
348.51646
  0
ARC
  8
0
  6
CONTINUOUS
 62
     7
 10
-7.5618877
 20
206.6622
 40
7
 50
269.99998
 51
316.56747
  0
ARC
  8
0
  6
CONTINUOUS
 62
     7
 10
4.0570621
 20
195.6622
 40
9
 50
90.000016
 51
136.56746
  0
ARC
  8
0
  6
CONTINUOUS
 62
     7
 10
4.0570621
 20
236.6622
 40
9
 50
223.43248
 51
269.99994
  0
ARC
  8
0
  6
CONTINUOUS
 62
     7
 10
-7.5618877
 20
225.6622
 40
7
 50
43.432473
 51
89.999962
  0
ARC
  8
0
  6
CONTINUOUS
 62
     7
 10
-7.0633221
 20
231.1622
 40
3
 50
11.483483
 51
89.999962
  0
ARC
  8
0
  6
CONTINUOUS
 62
     7
 10
61.091526
 20
210.1622
 40
10.5
 50
269.99998
 51
301.3882
  0
ARC
  8
0
  6
CONTINUOUS
 62
     7
 10
71.768608
 20
192.6622
 40
10
 50
90.000016
 51
121.38812
  0
ARC
  8
0
  6
CONTINUOUS
 62
     7
 10
62.375538
 20
203.1622
 40
5
 50
269.99998
 51
340.59567
  0
ARC
  8
0
  6
CONTINUOUS
 62
     7
 10
71.768608
 20
239.6622
 40
10
 50
238.61182
 51
269.99992
  0
ARC
  8
0
  6
CONTINUOUS
 62
     7
 10
62.375538
 20
229.1622
 40
5
 50
19.404275
 51
89.999962
  0
ARC
  8
0
  6
CONTINUOUS
 62
     7
 10
61.091526
 20
222.1622
 40
10.5
 50
58.611745
 51
89.999962
  0
ARC
  8
0
  6
CONTINUOUS
 62
     7
 10
129.41261
 20
199.1622
 40
5
 50
269.99998
 51
317.08083
  0
ARC
  8
0
  6
CONTINUOUS
 62
     7
 10
131.84389
 20
203.6622
 40
8
 50
269.99998
 51
326.1895
  0
ARC
  8
0
  6
CONTINUOUS
 62
     7
 10
146.07419
 20
196.6622
 40
8
 50
90.000016
 51
161.42462
  0
ARC
  8
0
  6
CONTINUOUS
 62
     7
 10
146.07419
 20
235.6622
 40
8
 50
198.57532
 51
269.99993
  0
ARC
  8
0
  6
CONTINUOUS
 62
     7
 10
131.84389
 20
228.6622
 40
8
 50
33.810444
 51
89.999962
  0
ARC
  8
0
  6
CONTINUOUS
 62
     7
 10
129.41261
 20
233.1622
 40
5
 50
42.919116
 51
89.999962
  0
ARC
  8
0
  6
CONTINUOUS
 62
     7
 10
198.47803
 20
199.1622
 40
5
 50
269.99998
 51
320.45718
  0
ARC
  8
0
  6
CONTINUOUS
 62
     7
 10
200.10501
 20
203.6622
 40
8
 50
269.99993
 51
325.77115
  0
ARC
  8
0
  6
CONTINUOUS
 62
     7
 10
213.33377
 20
194.6622
 40
8
 50
90.000016
 51
145.77114
  0
ARC
  8
0
  6
CONTINUOUS
 62
     7
 10
213.33377
 20
237.6622
 40
8
 50
214.22886
 51
269.99998
  0
ARC
  8
0
  6
CONTINUOUS
 62
     7
 10
200.10501
 20
228.6622
 40
8
 50
34.228848
 51
90.000016
  0
ARC
  8
0
  6
CONTINUOUS
 62
     7
 10
198.47803
 20
233.1622
 40
5
 50
39.542762
 51
89.999962
  0
ARC
  8
0
  6
CONTINUOUS
 62
     7
 10
269.52957
 20
197.1622
 40
3
 50
269.99998
 51
347.1902
  0
ARC
  8
0
  6
CONTINUOUS
 62
     7
 10
268.4549
 20
205.6622
 40
10
 50
269.99993
 51
306.86986
  0
ARC
  8
0
  6
CONTINUOUS
 62
     7
 10
280.4549
 20
189.6622
 40
10
 50
89.999962
 51
126.86985
  0
ARC
  8
0
  6
CONTINUOUS
 62
     7
 10
280.4549
 20
242.6622
 40
10
 50
233.1301
 51
269.99998
  0
ARC
  8
0
  6
CONTINUOUS
 62
     7
 10
268.4549
 20
226.6622
 40
10
 50
53.130085
 51
90.000016
  0
ARC
  8
0
  6
CONTINUOUS
 62
     7
 10
269.52957
 20
235.1622
 40
3
 50
12.809741
 51
89.999962
  0
ARC
  8
0
  6
CONTINUOUS
 62
     7
 10
335.70062
 20
194.6622
 40
5
 50
269.99998
 51
320.81208
  0
ARC
  8
0
  6
CONTINUOUS
 62
     7
 10
336.45135
 20
205.6622
 40
14.5
 50
269.99998
 51
322.88276
  0
ARC
  8
0
  6
CONTINUOUS
 62
     7
 10
359.57602
 20
188.1622
 40
14.5
 50
90.000016
 51
142.88274
  0
ARC
  8
0
  6
CONTINUOUS
 62
     7
 10
359.57602
 20
244.1622
 40
14.5
 50
217.11721
 51
269.99994
  0
ARC
  8
0
  6
CONTINUOUS
 62
     7
 10
336.45135
 20
226.6622
 40
14.5
 50
37.117184
 51
89.999962
  0
ARC
  8
0
  6
CONTINUOUS
 62
     7
 10
335.70062
 20
237.6622
 40
5
 50
39.187865
 51
89.999962
  0
ARC
  8
0
  6
CONTINUOUS
 62
     7
 10
-355.89532
 20
87.954552
 40
5.9999986
 50
269.99998
 51
315.23684
  0
ARC
  8
0
  6
CONTINUOUS
 62
     7
 10
-354.18918
 20
95.454552
 40
12
 50
269.99998
 51
319.22723
  0
ARC
  8
0
  6
CONTINUOUS
 62
     7
 10
-335.63519
 20
79.454552
 40
12.5
 50
90.000016
 51
139.22716
  0
ARC
  8
0
  6
CONTINUOUS
 62
     7
 10
-335.63519
 20
137.45454
 40
12.5
 50
220.77278
 51
269.99994
  0
ARC
  8
0
  6
CONTINUOUS
 62
     7
 10
-354.18918
 20
121.45455
 40
12
 50
40.772715
 51
89.999962
  0
ARC
  8
0
  6
CONTINUOUS
 62
     7
 10
-355.89532
 20
128.95454
 40
5.9999986
 50
44.763103
 51
89.999962
  0
ARC
  8
0
  6
CONTINUOUS
 62
     7
 10
-268.34637
 20
86.954552
 40
5
 50
269.99998
 51
325.33733
  0
ARC
  8
0
  6
CONTINUOUS
 62
     7
 10
-268.06311
 20
94.954552
 40
11.5
 50
269.99998
 51
306.04936
  0
ARC
  8
0
  6
CONTINUOUS
 62
     7
 10
-254.2338
 20
75.954552
 40
12
 50
90.000016
 51
126.0493
  0
ARC
  8
0
  6
CONTINUOUS
 62
     7
 10
-254.2338
 20
140.95454
 40
12
 50
233.95065
 51
269.99994
  0
ARC
  8
0
  6
CONTINUOUS
 62
     7
 10
-268.06311
 20
121.95455
 40
11.5
 50
53.950582
 51
89.999962
  0
ARC
  8
0
  6
CONTINUOUS
 62
     7
 10
-268.34637
 20
129.95454
 40
5
 50
34.662619
 51
89.999962
  0
ARC
  8
0
  6
CONTINUOUS
 62
     7
 10
-183.03239
 20
95.954552
 40
15.5
 50
269.99998
 51
336.68204
  0
ARC
  8
0
  6
CONTINUOUS
 62
     7
 10
-181.70039
 20
83.454552
 40
5
 50
269.99998
 51
339.00284
  0
ARC
  8
0
  6
CONTINUOUS
 62
     7
 10
-160.99266
 20
86.454552
 40
8.5
 50
90.000016
 51
156.68208
  0
ARC
  8
0
  6
CONTINUOUS
 62
     7
 10
-160.99266
 20
130.45454
 40
8.5
 50
203.31788
 51
269.99994
  0
ARC
  8
0
  6
CONTINUOUS
 62
     7
 10
-183.03239
 20
120.95455
 40
15.5
 50
23.317906
 51
89.999962
  0
ARC
  8
0
  6
CONTINUOUS
 62
     7
 10
-181.70039
 20
133.45454
 40
5
 50
20.997103
 51
89.999962
  0
ARC
  8
0
  6
CONTINUOUS
 62
     7
 10
-97.288002
 20
84.454552
 40
6
 50
269.99998
 51
324.04725
  0
ARC
  8
0
  6
CONTINUOUS
 62
     7
 10
-96.430992
 20
97.454552
 40
17
 50
269.99998
 51
318.56543
  0
ARC
  8
0
  6
CONTINUOUS
 62
     7
 10
-70.940804
 20
74.954552
 40
17
 50
90.000016
 51
138.56537
  0
ARC
  8
0
  6
CONTINUOUS
 62
     7
 10
-70.940804
 20
141.95454
 40
17
 50
221.43457
 51
269.99994
  0
ARC
  8
0
  6
CONTINUOUS
 62
     7
 10
-96.430992
 20
119.45455
 40
17
 50
41.43452
 51
89.999962
  0
ARC
  8
0
  6
CONTINUOUS
 62
     7
 10
-97.288002
 20
132.45454
 40
6
 50
35.952692
 51
89.999962
  0
ARC
  8
0
  6
CONTINUOUS
 62
     7
 10
-11.239874
 20
83.454552
 40
5
 50
269.99998
 51
327.35809
  0
ARC
  8
0
  6
CONTINUOUS
 62
     7
 10
-10.029593
 20
95.454552
 40
15
 50
269.99998
 51
311.40964
  0
ARC
  8
0
  6
CONTINUOUS
 62
     7
 10
9.8135471
 20
72.954552
 40
15
 50
90.000016
 51
131.40963
  0
ARC
  8
0
  6
CONTINUOUS
 62
     7
 10
9.8135471
 20
143.95454
 40
15
 50
228.59032
 51
269.99993
  0
ARC
  8
0
  6
CONTINUOUS
 62
     7
 10
-10.029593
 20
121.45455
 40
15
 50
48.590304
 51
89.999962
  0
ARC
  8
0
  6
CONTINUOUS
 62
     7
 10
-11.239874
 20
133.45454
 40
5
 50
32.641853
 51
89.999962
  0
ARC
  8
0
  6
CONTINUOUS
 62
     7
 10
76.24511
 20
83.454552
 40
5
 50
269.99998
 51
325.62299
  0
ARC
  8
0
  6
CONTINUOUS
 62
     7
 10
78.752861
 20
87.954552
 40
7.5
 50
269.99998
 51
298.95504
  0
ARC
  8
0
  6
CONTINUOUS
 62
     7
 10
90.371811
 20
66.954552
 40
16.5
 50
90.000016
 51
118.95503
  0
ARC
  8
0
  6
CONTINUOUS
 62
     7
 10
90.371811
 20
149.95454
 40
16.5
 50
241.04492
 51
269.99994
  0
ARC
  8
0
  6
CONTINUOUS
 62
     7
 10
76.24511
 20
133.45454
 40
5
 50
34.376953
 51
89.999962
  0
ARC
  8
0
  6
CONTINUOUS
 62
     7
 10
78.752861
 20
128.95454
 40
7.5
 50
61.044904
 51
89.999962
  0
ARC
  8
0
  6
CONTINUOUS
 62
     7
 10
161.28656
 20
76.954552
 40
5
 50
269.99998
 51
328.72253
  0
ARC
  8
0
  6
CONTINUOUS
 62
     7
 10
161.55988
 20
93.954552
 40
20
 50
269.99998
 51
338.6763
  0
ARC
  8
0
  6
CONTINUOUS
 62
     7
 10
192.30072
 20
81.954552
 40
13
 50
90.000016
 51
158.67635
  0
ARC
  8
0
  6
CONTINUOUS
 62
     7
 10
192.30072
 20
134.95454
 40
13
 50
201.3236
 51
269.99994
  0
ARC
  8
0
  6
CONTINUOUS
 62
     7
 10
161.55988
 20
122.95455
 40
20
 50
21.323641
 51
89.999962
  0
ARC
  8
0
  6
CONTINUOUS
 62
     7
 10
161.28656
 20
139.95454
 40
5
 50
31.277414
 51
89.999962
  0
ARC
  8
0
  6
CONTINUOUS
 62
     7
 10
249.49001
 20
76.954552
 40
5.0000033
 50
269.99998
 51
339.54053
  0
ARC
  8
0
  6
CONTINUOUS
 62
     7
 10
248.17461
 20
88.954552
 40
15
 50
269.99993
 51
342.07975
  0
ARC
  8
0
  6
CONTINUOUS
 62
     7
 10
272.91324
 20
80.954552
 40
11
 50
90.000016
 51
162.07973
  0
ARC
  8
0
  6
CONTINUOUS
 62
     7
 10
272.91324
 20
135.95454
 40
11
 50
197.92021
 51
269.99998
  0
ARC
  8
0
  6
CONTINUOUS
 62
     7
 10
248.17461
 20
127.95455
 40
15
 50
17.920198
 51
90.000016
  0
ARC
  8
0
  6
CONTINUOUS
 62
     7
 10
249.49001
 20
139.95454
 40
5.0000033
 50
20.459417
 51
89.999962
  0
ARC
  8
0
  6
CONTINUOUS
 62
     7
 10
335.89142
 20
76.954552
 40
5
 50
269.99998
 51
339.54053
  0
ARC
  8
0
  6
CONTINUOUS
 62
     7
 10
334.57602
 20
88.954552
 40
15
 50
269.99998
 51
331.85543
  0
ARC
  8
0
  6
CONTINUOUS
 62
     7
 10
357.94266
 20
76.454552
 40
11.5
 50
90.000016
 51
151.85542
  0
ARC
  8
0
  6
CONTINUOUS
 62
     7
 10
357.94266
 20
140.45454
 40
11.5
 50
208.14453
 51
269.99993
  0
ARC
  8
0
  6
CONTINUOUS
 62
     7
 10
334.57602
 20
127.95455
 40
15
 50
28.144513
 51
89.999962
  0
ARC
  8
0
  6
CONTINUOUS
 62
     7
 10
335.89142
 20
139.95454
 40
5
 50
20.459417
 51
89.999962
  0
ARC
  8
0
  6
CONTINUOUS
 62
     7
 10
-355.18259
 20
-60.164444
 40
5
 50
269.99998
 51
335.43306
  0
ARC
  8
0
  6
CONTINUOUS
 62
     7
 10
-356.63519
 20
-43.164444
 40
20
 50
269.99998
 51
311.40964
  0
ARC
  8
0
  6
CONTINUOUS
 62
     7
 10
-331.50055
 20
-71.664444
 40
18
 50
90.000016
 51
131.40963
  0
ARC
  8
0
  6
CONTINUOUS
 62
     7
 10
-331.50055
 20
14.335555
 40
18
 50
228.59032
 51
269.99993
  0
ARC
  8
0
  6
CONTINUOUS
 62
     7
 10
-356.63519
 20
-14.164445
 40
20
 50
48.590304
 51
90.000016
  0
ARC
  8
0
  6
CONTINUOUS
 62
     7
 10
-355.18259
 20
2.8355556
 40
5
 50
24.566888
 51
89.999962
  0
ARC
  8
0
  6
CONTINUOUS
 62
     7
 10
-257.38138
 20
-60.164444
 40
5
 50
269.99998
 51
333.91292
  0
ARC
  8
0
  6
CONTINUOUS
 62
     7
 10
-257.89075
 20
-47.164444
 40
16
 50
269.99998
 51
311.40964
  0
ARC
  8
0
  6
CONTINUOUS
 62
     7
 10
-240.69334
 20
-66.664444
 40
10
 50
90.000016
 51
131.40963
  0
ARC
  8
0
  6
CONTINUOUS
 62
     7
 10
-240.69334
 20
9.3355551
 40
10
 50
228.59032
 51
269.99993
  0
ARC
  8
0
  6
CONTINUOUS
 62
     7
 10
-257.89075
 20
-10.164445
 40
16
 50
48.590304
 51
89.999962
  0
ARC
  8
0
  6
CONTINUOUS
 62
     7
 10
-257.38138
 20
2.8355556
 40
5
 50
26.087028
 51
89.999962
  0
ARC
  8
0
  6
CONTINUOUS
 62
     7
 10
-166.77289
 20
-77.664444
 40
6
 50
89.999996
 51
144.31467
  0
ARC
  8
0
  6
CONTINUOUS
 62
     7
 10
-158.50009
 20
-69.164444
 40
5
 50
269.99993
 51
346.11021
  0
ARC
  8
0
  6
CONTINUOUS
 62
     7
 10
-160.64629
 20
-52.164444
 40
19.5
 50
269.99998
 51
351.66696
  0
ARC
  8
0
  6
CONTINUOUS
 62
     7
 10
-126.51053
 20
-57.164444
 40
15
 50
91.937618
 51
171.66689
  0
ARC
  8
0
  6
CONTINUOUS
 62
     7
 10
-127.24437
 20
-45.164444
 40
3
 50
30.000032
 51
85.666787
  0
ARC
  8
0
  6
CONTINUOUS
 62
     7
 10
-127.24435
 20
-12.164444
 40
3
 50
274.33321
 51
330
  0
ARC
  8
0
  6
CONTINUOUS
 62
     7
 10
-126.51053
 20
-0.16444397
 40
15
 50
188.33304
 51
268.06244
  0
ARC
  8
0
  6
CONTINUOUS
 62
     7
 10
-160.64629
 20
-5.164444
 40
19.5
 50
8.3329896
 51
90.000016
  0
ARC
  8
0
  6
CONTINUOUS
 62
     7
 10
-158.50009
 20
11.835556
 40
5
 50
13.889731
 51
90.000016
  0
ARC
  8
0
  6
CONTINUOUS
 62
     7
 10
-166.77289
 20
20.335556
 40
6
 50
215.68533
 51
270
  0
ARC
  8
0
  6
CONTINUOUS
 62
     7
 10
-68.028427
 20
-77.664444
 40
6
 50
89.999996
 51
144.31467
  0
ARC
  8
0
  6
CONTINUOUS
 62
     7
 10
-61.901821
 20
-53.164444
 40
18.5
 50
269.99998
 51
354.16321
  0
ARC
  8
0
  6
CONTINUOUS
 62
     7
 10
-58.787983
 20
-68.164444
 40
5.999999
 50
269.99998
 51
348.82127
  0
ARC
  8
0
  6
CONTINUOUS
 62
     7
 10
-32.55476
 20
-56.164444
 40
11
 50
90.000016
 51
174.16325
  0
ARC
  8
0
  6
CONTINUOUS
 62
     7
 10
-28.499905
 20
-48.164444
 40
3
 50
30.000032
 51
90.000016
  0
ARC
  8
0
  6
CONTINUOUS
 62
     7
 10
-28.499889
 20
-9.164444
 40
3
 50
270
 51
330
  0
ARC
  8
0
  6
CONTINUOUS
 62
     7
 10
-32.55476
 20
-1.164444
 40
11
 50
185.83669
 51
269.99994
  0
ARC
  8
0
  6
CONTINUOUS
 62
     7
 10
-61.901821
 20
-4.164444
 40
18.5
 50
5.836733
 51
89.999962
  0
ARC
  8
0
  6
CONTINUOUS
 62
     7
 10
-58.787983
 20
10.835556
 40
5.999999
 50
11.178679
 51
89.999962
  0
ARC
  8
0
  6
CONTINUOUS
 62
     7
 10
-68.028427
 20
20.335556
 40
6
 50
215.68533
 51
270
  0
ARC
  8
0
  6
CONTINUOUS
 62
     7
 10
30.716034
 20
-77.664444
 40
6
 50
89.999996
 51
144.31467
  0
ARC
  8
0
  6
CONTINUOUS
 62
     7
 10
37.842636
 20
-53.164444
 40
18.5
 50
269.99998
 51
343.39845
  0
ARC
  8
0
  6
CONTINUOUS
 62
     7
 10
40.889206
 20
-69.164444
 40
5
 50
269.99998
 51
352.17395
  0
ARC
  8
0
  6
CONTINUOUS
 62
     7
 10
68.029556
 20
-62.164444
 40
13
 50
90.000016
 51
163.39848
  0
ARC
  8
0
  6
CONTINUOUS
 62
     7
 10
69.244553
 20
-52.164444
 40
3
 50
30.000032
 51
90.000016
  0
ARC
  8
0
  6
CONTINUOUS
 62
     7
 10
69.244568
 20
-5.164444
 40
3
 50
270
 51
330
  0
ARC
  8
0
  6
CONTINUOUS
 62
     7
 10
68.029556
 20
4.835556
 40
13
 50
196.60145
 51
269.99992
  0
ARC
  8
0
  6
CONTINUOUS
 62
     7
 10
37.842636
 20
-4.164444
 40
18.5
 50
16.601494
 51
89.999962
  0
ARC
  8
0
  6
CONTINUOUS
 62
     7
 10
40.889206
 20
11.835556
 40
5
 50
7.8259983
 51
89.999962
  0
ARC
  8
0
  6
CONTINUOUS
 62
     7
 10
30.716034
 20
20.335556
 40
6
 50
215.68533
 51
270
  0
ARC
  8
0
  6
CONTINUOUS
 62
     7
 10
129.46049
 20
-77.664444
 40
6
 50
89.999996
 51
144.31467
  0
ARC
  8
0
  6
CONTINUOUS
 62
     7
 10
139.62625
 20
-69.164444
 40
5.000001
 50
269.99998
 51
352.82491
  0
ARC
  8
0
  6
CONTINUOUS
 62
     7
 10
136.5871
 20
-53.664444
 40
18
 50
269.99998
 51
339.07517
  0
ARC
  8
0
  6
CONTINUOUS
 62
     7
 10
162.74049
 20
-63.664444
 40
10
 50
90.000016
 51
159.07519
  0
ARC
  8
0
  6
CONTINUOUS
 62
     7
 10
166.98901
 20
-56.664444
 40
3
 50
30.000032
 51
90.000016
  0
ARC
  8
0
  6
CONTINUOUS
 62
     7
 10
166.98903
 20
-0.66444397
 40
3
 50
270
 51
330
  0
ARC
  8
0
  6
CONTINUOUS
 62
     7
 10
162.74049
 20
6.335556
 40
10
 50
200.92474
 51
269.99992
  0
ARC
  8
0
  6
CONTINUOUS
 62
     7
 10
136.5871
 20
-3.664444
 40
18
 50
20.924771
 51
89.999962
  0
ARC
  8
0
  6
CONTINUOUS
 62
     7
 10
139.62625
 20
11.835556
 40
5.000001
 50
7.1750403
 51
89.999962
  0
ARC
  8
0
  6
CONTINUOUS
 62
     7
 10
129.46049
 20
20.335556
 40
6
 50
215.68533
 51
270
  0
ARC
  8
0
  6
CONTINUOUS
 62
     7
 10
228.20496
 20
-77.664444
 40
6
 50
89.999996
 51
144.31467
  0
ARC
  8
0
  6
CONTINUOUS
 62
     7
 10
237.11264
 20
-64.164444
 40
10
 50
269.99998
 51
337.20422
  0
ARC
  8
0
  6
CONTINUOUS
 62
     7
 10
235.33156
 20
-53.164444
 40
18.5
 50
269.99998
 51
329.45623
  0
ARC
  8
0
  6
CONTINUOUS
 62
     7
 10
261.59943
 20
-68.664444
 40
12
 50
90.000016
 51
149.45622
  0
ARC
  8
0
  6
CONTINUOUS
 62
     7
 10
263.86743
 20
-60.664444
 40
4
 50
30.000032
 51
90.000016
  0
ARC
  8
0
  6
CONTINUOUS
 62
     7
 10
263.86746
 20
3.335556
 40
4
 50
270
 51
330
  0
ARC
  8
0
  6
CONTINUOUS
 62
     7
 10
261.59943
 20
11.335556
 40
12
 50
210.54373
 51
269.99994
  0
ARC
  8
0
  6
CONTINUOUS
 62
     7
 10
235.33156
 20
-4.164444
 40
18.5
 50
30.543715
 51
89.999962
  0
ARC
  8
0
  6
CONTINUOUS
 62
     7
 10
237.11264
 20
6.835556
 40
10
 50
22.795724
 51
89.999962
  0
ARC
  8
0
  6
CONTINUOUS
 62
     7
 10
228.20496
 20
20.335556
 40
6
 50
215.68533
 51
270
  0
ARC
  8
0
  6
CONTINUOUS
 62
     7
 10
326.9494
 20
-77.664444
 40
6
 50
89.999996
 51
144.31467
  0
ARC
  8
0
  6
CONTINUOUS
 62
     7
 10
334.07602
 20
-49.664444
 40
22
 50
269.99998
 51
311.40963
  0
ARC
  8
0
  6
CONTINUOUS
 62
     7
 10
336.17242
 20
-64.164444
 40
10
 50
269.99998
 51
332.91856
  0
ARC
  8
0
  6
CONTINUOUS
 62
     7
 10
356.56491
 20
-75.164444
 40
12
 50
90.000016
 51
131.40963
  0
ARC
  8
0
  6
CONTINUOUS
 62
     7
 10
360.61191
 20
-67.164444
 40
4
 50
30.000032
 51
90.000016
  0
ARC
  8
0
  6
CONTINUOUS
 62
     7
 10
360.61194
 20
9.835556
 40
4
 50
270
 51
330
  0
ARC
  8
0
  6
CONTINUOUS
 62
     7
 10
356.56491
 20
17.835556
 40
12
 50
228.59032
 51
269.99993
  0
ARC
  8
0
  6
CONTINUOUS
 62
     7
 10
334.07602
 20
-7.664444
 40
22
 50
48.590318
 51
89.999962
  0
ARC
  8
0
  6
CONTINUOUS
 62
     7
 10
336.17242
 20
6.835556
 40
10
 50
27.081381
 51
89.999962
  0
ARC
  8
0
  6
CONTINUOUS
 62
     7
 10
326.9494
 20
20.335556
 40
6
 50
215.68533
 51
270
  0
ARC
  8
0
  6
CONTINUOUS
 62
     7
 10
-317.43704
 20
-256.39142
 40
10
 50
89.999996
 51
135.57298
  0
ARC
  8
0
  6
CONTINUOUS
 62
     7
 10
-309.33374
 20
-239.3914
 40
10
 50
269.99998
 51
347.29871
  0
ARC
  8
0
  6
CONTINUOUS
 62
     7
 10
-312.57846
 20
-226.3914
 40
20
 50
269.99998
 51
336.49771
  0
ARC
  8
0
  6
CONTINUOUS
 62
     7
 10
-276.93555
 20
-224.3914
 40
14
 50
90.000016
 51
164.47233
  0
ARC
  8
0
  6
CONTINUOUS
 62
     7
 10
-274.17654
 20
-213.3914
 40
3
 50
30.000032
 51
90.000016
  0
ARC
  8
0
  6
CONTINUOUS
 62
     7
 10
-274.17651
 20
-180.3914
 40
3
 50
270
 51
330
  0
ARC
  8
0
  6
CONTINUOUS
 62
     7
 10
-276.93555
 20
-169.3914
 40
14
 50
195.52761
 51
269.99994
  0
ARC
  8
0
  6
CONTINUOUS
 62
     7
 10
-312.57846
 20
-167.3914
 40
20
 50
7.5529547
 51
89.999962
  0
ARC
  8
0
  6
CONTINUOUS
 62
     7
 10
-309.33374
 20
-154.3914
 40
10
 50
12.701237
 51
89.999962
  0
ARC
  8
0
  6
CONTINUOUS
 62
     7
 10
-317.43704
 20
-137.3914
 40
10
 50
224.427
 51
270
  0
ARC
  8
0
  6
CONTINUOUS
 62
     7
 10
-211.8208
 20
-256.39142
 40
10
 50
89.999996
 51
135.57298
  0
ARC
  8
0
  6
CONTINUOUS
 62
     7
 10
-203.96222
 20
-224.3914
 40
22
 50
269.99998
 51
355.21984
  0
ARC
  8
0
  6
CONTINUOUS
 62
     7
 10
-201.35225
 20
-239.3914
 40
9.999999
 50
269.99998
 51
339.88482
  0
ARC
  8
0
  6
CONTINUOUS
 62
     7
 10
-168.08743
 20
-227.3914
 40
14
 50
91.323065
 51
175.21979
  0
ARC
  8
0
  6
CONTINUOUS
 62
     7
 10
-168.5603
 20
-216.3914
 40
3
 50
30.000032
 51
87.141404
  0
ARC
  8
0
  6
CONTINUOUS
 62
     7
 10
-168.56029
 20
-177.3914
 40
3
 50
262.21877
 51
330
  0
ARC
  8
0
  6
CONTINUOUS
 62
     7
 10
-168.08743
 20
-166.3914
 40
14
 50
184.78014
 51
268.67694
  0
ARC
  8
0
  6
CONTINUOUS
 62
     7
 10
-203.96222
 20
-169.3914
 40
22
 50
4.7801028
 51
89.999962
  0
ARC
  8
0
  6
CONTINUOUS
 62
     7
 10
-201.35225
 20
-154.3914
 40
9.999999
 50
20.115121
 51
89.999962
  0
ARC
  8
0
  6
CONTINUOUS
 62
     7
 10
-211.8208
 20
-137.3914
 40
10
 50
224.427
 51
270
  0
ARC
  8
0
  6
CONTINUOUS
 62
     7
 10
-107.25027
 20
-256.39142
 40
10
 50
89.999996
 51
135.57298
  0
ARC
  8
0
  6
CONTINUOUS
 62
     7
 10
-98.770813
 20
-239.3914
 40
10
 50
269.99998
 51
339.70382
  0
ARC
  8
0
  6
CONTINUOUS
 62
     7
 10
-101.34602
 20
-224.3914
 40
22
 50
269.99998
 51
348.78776
  0
ARC
  8
0
  6
CONTINUOUS
 62
     7
 10
-66.033142
 20
-231.3914
 40
14
 50
90.000016
 51
168.7877
  0
ARC
  8
0
  6
CONTINUOUS
 62
     7
 10
-64.989777
 20
-220.3914
 40
3
 50
30.000032
 51
90.000016
  0
ARC
  8
0
  6
CONTINUOUS
 62
     7
 10
-64.989761
 20
-173.3914
 40
3
 50
270
 51
330
  0
ARC
  8
0
  6
CONTINUOUS
 62
     7
 10
-66.033142
 20
-162.3914
 40
14
 50
191.21224
 51
269.99993
  0
ARC
  8
0
  6
CONTINUOUS
 62
     7
 10
-101.34602
 20
-169.3914
 40
22
 50
11.212188
 51
89.999962
  0
ARC
  8
0
  6
CONTINUOUS
 62
     7
 10
-98.770813
 20
-154.3914
 40
10
 50
20.296121
 51
89.999962
  0
ARC
  8
0
  6
CONTINUOUS
 62
     7
 10
-107.25027
 20
-137.3914
 40
10
 50
224.427
 51
270
  0
ARC
  8
0
  6
CONTINUOUS
 62
     7
 10
-4.7711449
 20
-256.39142
 40
10
 50
89.999996
 51
135.57298
  0
ARC
  8
0
  6
CONTINUOUS
 62
     7
 10
3.5480385
 20
-239.3914
 40
10
 50
269.99998
 51
342.54241
  0
ARC
  8
0
  6
CONTINUOUS
 62
     7
 10
1.087429
 20
-226.3914
 40
20
 50
269.99998
 51
346.44524
  0
ARC
  8
0
  6
CONTINUOUS
 62
     7
 10
32.196117
 20
-233.8914
 40
12
 50
90.000016
 51
166.44522
  0
ARC
  8
0
  6
CONTINUOUS
 62
     7
 10
36.489346
 20
-224.8914
 40
3
 50
30.000032
 51
90.000016
  0
ARC
  8
0
  6
CONTINUOUS
 62
     7
 10
36.489361
 20
-168.8914
 40
3
 50
270
 51
330
  0
ARC
  8
0
  6
CONTINUOUS
 62
     7
 10
32.196117
 20
-159.8914
 40
12
 50
193.55472
 51
269.99994
  0
ARC
  8
0
  6
CONTINUOUS
 62
     7
 10
1.087429
 20
-167.3914
 40
20
 50
13.55471
 51
89.999962
  0
ARC
  8
0
  6
CONTINUOUS
 62
     7
 10
3.5480385
 20
-154.3914
 40
10
 50
17.457535
 51
89.999962
  0
ARC
  8
0
  6
CONTINUOUS
 62
     7
 10
-4.7711449
 20
-137.3914
 40
10
 50
224.427
 51
270
  0
ARC
  8
0
  6
CONTINUOUS
 62
     7
 10
111.13735
 20
-256.43115
 40
10
 50
89.999996
 51
135.57298
  0
ARC
  8
0
  6
CONTINUOUS
 62
     7
 10
115.99593
 20
-226.43117
 40
20
 50
269.99998
 51
340.84501
  0
ARC
  8
0
  6
CONTINUOUS
 62
     7
 10
119.24063
 20
-239.43117
 40
10
 50
269.99998
 51
347.29871
  0
ARC
  8
0
  6
CONTINUOUS
 62
     7
 10
146.22423
 20
-236.93117
 40
12
 50
90.000016
 51
160.845
  0
ARC
  8
0
  6
CONTINUOUS
 62
     7
 10
148.53183
 20
-228.93117
 40
4
 50
30.000032
 51
90.000016
  0
ARC
  8
0
  6
CONTINUOUS
 62
     7
 10
148.53183
 20
-164.93117
 40
4
 50
270
 51
330
  0
ARC
  8
0
  6
CONTINUOUS
 62
     7
 10
146.22423
 20
-156.93117
 40
12
 50
199.15493
 51
269.99992
  0
ARC
  8
0
  6
CONTINUOUS
 62
     7
 10
115.99593
 20
-167.43117
 40
20
 50
19.154933
 51
89.999962
  0
ARC
  8
0
  6
CONTINUOUS
 62
     7
 10
119.24063
 20
-154.43117
 40
10
 50
12.701237
 51
89.999962
  0
ARC
  8
0
  6
CONTINUOUS
 62
     7
 10
111.13735
 20
-137.43117
 40
10
 50
224.427
 51
270
  0
ARC
  8
0
  6
CONTINUOUS
 62
     7
 10
212.73557
 20
-256.39142
 40
10
 50
89.999996
 51
135.57298
  0
ARC
  8
0
  6
CONTINUOUS
 62
     7
 10
217.92715
 20
-234.3914
 40
15
 50
269.99998
 51
327.6147
  0
ARC
  8
0
  6
CONTINUOUS
 62
     7
 10
218.6398
 20
-226.3914
 40
20
 50
269.99998
 51
325.1501
  0
ARC
  8
0
  6
CONTINUOUS
 62
     7
 10
247.36261
 20
-246.3914
 40
15
 50
90.000016
 51
145.1501
  0
ARC
  8
0
  6
CONTINUOUS
 62
     7
 10
250.13002
 20
-235.3914
 40
4
 50
30.000032
 51
90.000016
  0
ARC
  8
0
  6
CONTINUOUS
 62
     7
 10
250.13004
 20
-158.3914
 40
4
 50
270
 51
330
  0
ARC
  8
0
  6
CONTINUOUS
 62
     7
 10
247.36261
 20
-147.3914
 40
15
 50
214.84983
 51
269.99992
  0
ARC
  8
0
  6
CONTINUOUS
 62
     7
 10
218.6398
 20
-167.3914
 40
20
 50
34.849848
 51
89.999962
  0
ARC
  8
0
  6
CONTINUOUS
 62
     7
 10
217.92715
 20
-159.3914
 40
15
 50
32.385243
 51
89.999962
  0
ARC
  8
0
  6
CONTINUOUS
 62
     7
 10
212.73557
 20
-137.3914
 40
10
 50
224.427
 51
270
  0
ARC
  8
0
  6
CONTINUOUS
 62
     7
 10
326.71744
 20
-256.39142
 40
10
 50
89.999996
 51
135.57298
  0
ARC
  8
0
  6
CONTINUOUS
 62
     7
 10
332.96411
 20
-234.3914
 40
15
 50
269.99998
 51
320.72599
  0
ARC
  8
0
  6
CONTINUOUS
 62
     7
 10
332.57602
 20
-216.3914
 40
30
 50
269.99998
 51
297.38561
  0
ARC
  8
0
  6
CONTINUOUS
 62
     7
 10
359.25467
 20
-267.89142
 40
28
 50
90.000016
 51
117.3856
  0
ARC
  8
0
  6
CONTINUOUS
 62
     7
 10
361.70261
 20
-245.8914
 40
6
 50
35.685358
 51
90.000016
  0
ARC
  8
0
  6
CONTINUOUS
 62
     7
 10
361.70264
 20
-147.8914
 40
6
 50
270
 51
324.31468
  0
ARC
  8
0
  6
CONTINUOUS
 62
     7
 10
359.25467
 20
-125.8914
 40
28
 50
242.61433
 51
269.99992
  0
ARC
  8
0
  6
CONTINUOUS
 62
     7
 10
332.96411
 20
-159.3914
 40
15
 50
39.273953
 51
89.999962
  0
ARC
  8
0
  6
CONTINUOUS
 62
     7
 10
332.57602
 20
-177.3914
 40
30
 50
62.614332
 51
89.999962
  0
ARC
  8
0
  6
CONTINUOUS
 62
     7
 10
326.71744
 20
-137.3914
 40
10
 50
224.427
 51
270
  0
ARC
  8
0
  6
CONTINUOUS
 62
     7
 10
529.33466
 20
131.07025
 40
8
 50
269.99998
 51
346.20005
  0
ARC
  8
0
  6
CONTINUOUS
 62
     7
 10
524.55798
 20
153.07025
 40
27
 50
269.99998
 51
344.53882
  0
ARC
  8
0
  6
CONTINUOUS
 62
     7
 10
518.24512
 20
116.07025
 40
10
 50
89.999996
 51
135.57298
  0
ARC
  8
0
  6
CONTINUOUS
 62
     7
 10
568.75702
 20
159.07025
 40
14
 50
90.000016
 51
164.53878
  0
ARC
  8
0
  6
CONTINUOUS
 62
     7
 10
571.50562
 20
170.07025
 40
3
 50
30.000032
 51
90.000016
  0
ARC
  8
0
  6
CONTINUOUS
 62
     7
 10
571.50562
 20
209.07025
 40
3
 50
270
 51
330
  0
ARC
  8
0
  6
CONTINUOUS
 62
     7
 10
568.75702
 20
220.07025
 40
14
 50
195.46117
 51
269.99993
  0
ARC
  8
0
  6
CONTINUOUS
 62
     7
 10
524.55798
 20
226.07025
 40
27
 50
15.461125
 51
89.999962
  0
ARC
  8
0
  6
CONTINUOUS
 62
     7
 10
529.33466
 20
248.07025
 40
8
 50
13.7999
 51
89.999962
  0
ARC
  8
0
  6
CONTINUOUS
 62
     7
 10
518.24512
 20
263.07025
 40
10
 50
224.427
 51
270
  0
ARC
  8
0
  6
CONTINUOUS
 62
     7
 10
535.1037
 20
195.57025
 40
2
 50
270
 51
0
  0
ARC
  8
0
  6
CONTINUOUS
 62
     7
 10
535.1037
 20
183.57025
 40
2
 50
0
 51
90.000003
  0
ARC
  8
0
  6
CONTINUOUS
 62
     7
 10
514.1037
 20
196.57025
 40
3
 50
179.99999
 51
270
  0
ARC
  8
0
  6
CONTINUOUS
 62
     7
 10
514.1037
 20
182.57025
 40
3
 50
90.000003
 51
180.00001
  0
ARC
  8
0
  6
CONTINUOUS
 62
     7
 10
625.10394
 20
116.07027
 40
10
 50
89.999996
 51
135.57298
  0
ARC
  8
0
  6
CONTINUOUS
 62
     7
 10
634.44214
 20
131.07025
 40
8.0000019
 50
269.99993
 51
340.05969
  0
ARC
  8
0
  6
CONTINUOUS
 62
     7
 10
632.46252
 20
147.07025
 40
21
 50
269.99998
 51
335.42978
  0
ARC
  8
0
  6
CONTINUOUS
 62
     7
 10
673.96252
 20
156.07025
 40
13
 50
90.000016
 51
155.42979
  0
ARC
  8
0
  6
CONTINUOUS
 62
     7
 10
677.36444
 20
166.07025
 40
3
 50
30.000032
 51
90.000016
  0
ARC
  8
0
  6
CONTINUOUS
 62
     7
 10
677.36444
 20
213.07025
 40
3
 50
270
 51
330
  0
ARC
  8
0
  6
CONTINUOUS
 62
     7
 10
673.96252
 20
223.07025
 40
13
 50
204.57015
 51
269.99993
  0
ARC
  8
0
  6
CONTINUOUS
 62
     7
 10
632.46252
 20
232.07025
 40
21
 50
24.570166
 51
89.999962
  0
ARC
  8
0
  6
CONTINUOUS
 62
     7
 10
634.44214
 20
248.07025
 40
8.0000019
 50
19.940254
 51
90.000016
  0
ARC
  8
0
  6
CONTINUOUS
 62
     7
 10
625.10394
 20
263.07025
 40
10
 50
224.427
 51
270
  0
ARC
  8
0
  6
CONTINUOUS
 62
     7
 10
620.96252
 20
196.57025
 40
3
 50
179.99999
 51
270
  0
ARC
  8
0
  6
CONTINUOUS
 62
     7
 10
620.96252
 20
182.57025
 40
3
 50
90.000003
 51
180.00001
  0
ARC
  8
0
  6
CONTINUOUS
 62
     7
 10
639.96252
 20
195.57025
 40
2
 50
270
 51
0
  0
ARC
  8
0
  6
CONTINUOUS
 62
     7
 10
639.96252
 20
183.57025
 40
2
 50
0
 51
90.000003
  0
ARC
  8
0
  6
CONTINUOUS
 62
     7
 10
740.20898
 20
116.07025
 40
10
 50
89.999996
 51
135.57298
  0
ARC
  8
0
  6
CONTINUOUS
 62
     7
 10
751.27222
 20
131.07025
 40
8
 50
269.99998
 51
347.01169
  0
ARC
  8
0
  6
CONTINUOUS
 62
     7
 10
746.56757
 20
152.07025
 40
26
 50
269.99998
 51
353.99295
  0
ARC
  8
0
  6
CONTINUOUS
 62
     7
 10
789.33142
 20
147.57025
 40
17
 50
90.000016
 51
173.99294
  0
ARC
  8
0
  6
CONTINUOUS
 62
     7
 10
791.46948
 20
161.57025
 40
3
 50
30.000032
 51
90.000016
  0
ARC
  8
0
  6
CONTINUOUS
 62
     7
 10
791.46948
 20
217.57025
 40
3
 50
270
 51
330
  0
ARC
  8
0
  6
CONTINUOUS
 62
     7
 10
789.33142
 20
231.57025
 40
17
 50
186.00701
 51
269.99994
  0
ARC
  8
0
  6
CONTINUOUS
 62
     7
 10
746.56757
 20
227.07025
 40
26
 50
6.006996
 51
89.999962
  0
ARC
  8
0
  6
CONTINUOUS
 62
     7
 10
751.27222
 20
248.07025
 40
8
 50
12.988255
 51
89.999962
  0
ARC
  8
0
  6
CONTINUOUS
 62
     7
 10
740.20898
 20
263.07025
 40
10
 50
224.427
 51
270
  0
ARC
  8
0
  6
CONTINUOUS
 62
     7
 10
757.06757
 20
195.57025
 40
2
 50
270
 51
0
  0
ARC
  8
0
  6
CONTINUOUS
 62
     7
 10
757.06757
 20
183.57025
 40
2
 50
0
 51
90.000003
  0
ARC
  8
0
  6
CONTINUOUS
 62
     7
 10
736.06757
 20
196.57025
 40
3
 50
179.99999
 51
270
  0
ARC
  8
0
  6
CONTINUOUS
 62
     7
 10
736.06757
 20
182.57025
 40
3
 50
90.000003
 51
180.00001
  0
ARC
  8
0
  6
CONTINUOUS
 62
     7
 10
856.75513
 20
116.07025
 40
10
 50
89.999996
 51
135.57298
  0
ARC
  8
0
  6
CONTINUOUS
 62
     7
 10
862.25635
 20
138.07025
 40
15
 50
269.99998
 51
319.21423
  0
ARC
  8
0
  6
CONTINUOUS
 62
     7
 10
862.73077
 20
154.07025
 40
28
 50
269.99998
 51
355.53088
  0
ARC
  8
0
  6
CONTINUOUS
 62
     7
 10
901.11371
 20
151.07025
 40
10.5
 50
90.000016
 51
175.53089
  0
ARC
  8
0
  6
CONTINUOUS
 62
     7
 10
906.1496
 20
157.57025
 40
4
 50
30.000032
 51
90.000016
  0
ARC
  8
0
  6
CONTINUOUS
 62
     7
 10
906.1496
 20
221.57025
 40
4
 50
270
 51
330
  0
ARC
  8
0
  6
CONTINUOUS
 62
     7
 10
901.11371
 20
228.07025
 40
10.5
 50
184.46904
 51
269.99992
  0
ARC
  8
0
  6
CONTINUOUS
 62
     7
 10
862.73077
 20
225.07025
 40
28
 50
4.4690696
 51
89.999962
  0
ARC
  8
0
  6
CONTINUOUS
 62
     7
 10
862.25635
 20
241.07025
 40
15
 50
40.78572
 51
89.999962
  0
ARC
  8
0
  6
CONTINUOUS
 62
     7
 10
856.75513
 20
263.07025
 40
10
 50
224.427
 51
270
  0
ARC
  8
0
  6
CONTINUOUS
 62
     7
 10
871.61371
 20
195.57025
 40
2
 50
270
 51
0
  0
ARC
  8
0
  6
CONTINUOUS
 62
     7
 10
871.61371
 20
183.57025
 40
2
 50
0
 51
90.000003
  0
ARC
  8
0
  6
CONTINUOUS
 62
     7
 10
852.61371
 20
196.57025
 40
3
 50
179.99999
 51
270
  0
ARC
  8
0
  6
CONTINUOUS
 62
     7
 10
852.61371
 20
182.57025
 40
3
 50
90.000003
 51
180.00001
  0
ARC
  8
0
  6
CONTINUOUS
 62
     7
 10
978.48444
 20
116.07025
 40
10
 50
89.999996
 51
135.57298
  0
ARC
  8
0
  6
CONTINUOUS
 62
     7
 10
982.83002
 20
133.07025
 40
10
 50
269.99998
 51
318.70312
  0
ARC
  8
0
  6
CONTINUOUS
 62
     7
 10
986.36115
 20
146.07025
 40
20
 50
269.99998
 51
350.12913
  0
ARC
  8
0
  6
CONTINUOUS
 62
     7
 10
1020.843
 20
140.07025
 40
15
 50
90.000016
 51
170.12911
  0
ARC
  8
0
  6
CONTINUOUS
 62
     7
 10
1025.8789
 20
151.07025
 40
4
 50
30.000032
 51
90.000016
  0
ARC
  8
0
  6
CONTINUOUS
 62
     7
 10
1025.8789
 20
228.07025
 40
4
 50
270
 51
330
  0
ARC
  8
0
  6
CONTINUOUS
 62
     7
 10
1020.843
 20
239.07025
 40
15
 50
189.87082
 51
269.99993
  0
ARC
  8
0
  6
CONTINUOUS
 62
     7
 10
986.36115
 20
233.07025
 40
20
 50
9.8708203
 51
89.999962
  0
ARC
  8
0
  6
CONTINUOUS
 62
     7
 10
982.83002
 20
246.07025
 40
10
 50
41.296823
 51
89.999962
  0
ARC
  8
0
  6
CONTINUOUS
 62
     7
 10
978.48444
 20
263.07025
 40
10
 50
224.427
 51
270
  0
ARC
  8
0
  6
CONTINUOUS
 62
     7
 10
987.34302
 20
196.57025
 40
3
 50
270
 51
0
  0
ARC
  8
0
  6
CONTINUOUS
 62
     7
 10
987.34302
 20
182.57025
 40
3
 50
0
 51
90.000003
  0
ARC
  8
0
  6
CONTINUOUS
 62
     7
 10
974.34302
 20
196.57025
 40
3
 50
179.99999
 51
270
  0
ARC
  8
0
  6
CONTINUOUS
 62
     7
 10
974.34302
 20
182.57025
 40
3
 50
90.000003
 51
180.00001
  0
ARC
  8
0
  6
CONTINUOUS
 62
     7
 10
1095.9735
 20
116.07025
 40
10
 50
89.999996
 51
135.57298
  0
ARC
  8
0
  6
CONTINUOUS
 62
     7
 10
1106.0336
 20
131.07025
 40
8
 50
269.99998
 51
347.11026
  0
ARC
  8
0
  6
CONTINUOUS
 62
     7
 10
1101.832
 20
150.07025
 40
24
 50
269.99998
 51
327.01332
  0
ARC
  8
0
  6
CONTINUOUS
 62
     7
 10
1139.5779
 20
125.57025
 40
21
 50
90.000016
 51
147.01329
  0
ARC
  8
0
  6
CONTINUOUS
 62
     7
 10
1140.9586
 20
140.57025
 40
6
 50
35.685358
 51
90.000016
  0
ARC
  8
0
  6
CONTINUOUS
 62
     7
 10
1140.9586
 20
238.57025
 40
6
 50
270
 51
324.31468
  0
ARC
  8
0
  6
CONTINUOUS
 62
     7
 10
1139.5779
 20
253.57025
 40
21
 50
212.98664
 51
269.99992
  0
ARC
  8
0
  6
CONTINUOUS
 62
     7
 10
1101.832
 20
229.07025
 40
24
 50
32.986627
 51
89.999962
  0
ARC
  8
0
  6
CONTINUOUS
 62
     7
 10
1106.0336
 20
248.07025
 40
8
 50
12.889682
 51
89.999962
  0
ARC
  8
0
  6
CONTINUOUS
 62
     7
 10
1095.9735
 20
263.07025
 40
10
 50
224.427
 51
270
  0
ARC
  8
0
  6
CONTINUOUS
 62
     7
 10
1110.832
 20
196.57025
 40
3
 50
270
 51
0
  0
ARC
  8
0
  6
CONTINUOUS
 62
     7
 10
1110.832
 20
182.57025
 40
3
 50
0
 51
90.000003
  0
ARC
  8
0
  6
CONTINUOUS
 62
     7
 10
1091.832
 20
182.57025
 40
3
 50
90.000003
 51
180.00001
  0
ARC
  8
0
  6
CONTINUOUS
 62
     7
 10
1091.832
 20
196.57025
 40
3
 50
179.99999
 51
270
  0
ARC
  8
0
  6
CONTINUOUS
 62
     7
 10
1220.2944
 20
116.07025
 40
10
 50
89.999996
 51
135.57298
  0
ARC
  8
0
  6
CONTINUOUS
 62
     7
 10
1227.0338
 20
135.07025
 40
12
 50
269.99998
 51
327.48676
  0
ARC
  8
0
  6
CONTINUOUS
 62
     7
 10
1226.153
 20
151.07025
 40
25
 50
269.99998
 51
317.59102
  0
ARC
  8
0
  6
CONTINUOUS
 62
     7
 10
1257.902
 20
122.07025
 40
18
 50
90.000016
 51
137.59096
  0
ARC
  8
0
  6
CONTINUOUS
 62
     7
 10
1262.0115
 20
130.07025
 40
10
 50
44.42703
 51
90.000016
  0
ARC
  8
0
  6
CONTINUOUS
 62
     7
 10
1262.0115
 20
249.07025
 40
10
 50
270
 51
315.573
  0
ARC
  8
0
  6
CONTINUOUS
 62
     7
 10
1257.902
 20
257.07025
 40
18
 50
222.40897
 51
269.99992
  0
ARC
  8
0
  6
CONTINUOUS
 62
     7
 10
1226.153
 20
228.07025
 40
25
 50
42.408928
 51
89.999962
  0
ARC
  8
0
  6
CONTINUOUS
 62
     7
 10
1227.0338
 20
244.07025
 40
12
 50
32.513186
 51
89.999962
  0
ARC
  8
0
  6
CONTINUOUS
 62
     7
 10
1220.2944
 20
263.07025
 40
10
 50
224.427
 51
270
  0
ARC
  8
0
  6
CONTINUOUS
 62
     7
 10
1234.153
 20
196.57025
 40
3
 50
270
 51
0
  0
ARC
  8
0
  6
CONTINUOUS
 62
     7
 10
1216.153
 20
196.57025
 40
3
 50
179.99999
 51
270
  0
ARC
  8
0
  6
CONTINUOUS
 62
     7
 10
1216.153
 20
182.57025
 40
3
 50
90.000003
 51
180.00001
  0
ARC
  8
0
  6
CONTINUOUS
 62
     7
 10
1234.153
 20
182.57025
 40
3
 50
0
 51
90.000003
  0
ARC
  8
0
  6
CONTINUOUS
 62
     7
 10
515.70306
 20
-72.588478
 40
10
 50
90.000003
 51
139.45841
  0
ARC
  8
0
  6
CONTINUOUS
 62
     7
 10
515.70306
 20
101.41152
 40
10
 50
220.54161
 51
270
  0
ARC
  8
0
  6
CONTINUOUS
 62
     7
 10
520.1037
 20
-34.588478
 40
28
 50
270
 51
337.7009
  0
ARC
  8
0
  6
CONTINUOUS
 62
     7
 10
522.20538
 20
-55.088478
 40
11
 50
270
 51
334.1382
  0
ARC
  8
0
  6
CONTINUOUS
 62
     7
 10
522.20538
 20
83.911522
 40
11
 50
25.861806
 51
90.000003
  0
ARC
  8
0
  6
CONTINUOUS
 62
     7
 10
520.1037
 20
63.411522
 40
28
 50
22.299101
 51
89.999996
  0
ARC
  8
0
  6
CONTINUOUS
 62
     7
 10
520.1037
 20
-34.588478
 40
28
 50
179.69064
 51
180.00001
  0
ARC
  8
0
  6
CONTINUOUS
 62
     7
 10
575.50562
 20
-9.088479
 40
3
 50
29.999997
 51
90.000003
  0
ARC
  8
0
  6
CONTINUOUS
 62
     7
 10
575.50562
 20
37.911522
 40
3
 50
270
 51
330
  0
ARC
  8
0
  6
CONTINUOUS
 62
     7
 10
570.1037
 20
-18.088478
 40
12
 50
90.000003
 51
157.70091
  0
ARC
  8
0
  6
CONTINUOUS
 62
     7
 10
570.1037
 20
46.911522
 40
12
 50
202.2991
 51
270
  0
ARC
  8
0
  6
CONTINUOUS
 62
     7
 10
530.1037
 20
20.411522
 40
2
 50
270
 51
0
  0
ARC
  8
0
  6
CONTINUOUS
 62
     7
 10
530.1037
 20
8.411521
 40
2
 50
0
 51
90.000003
  0
ARC
  8
0
  6
CONTINUOUS
 62
     7
 10
511.1037
 20
21.411522
 40
3
 50
179.99999
 51
270
  0
ARC
  8
0
  6
CONTINUOUS
 62
     7
 10
511.1037
 20
7.411521
 40
3
 50
90.000003
 51
180.00001
  0
ARC
  8
0
  6
CONTINUOUS
 62
     7
 10
622.56189
 20
-72.588463
 40
10
 50
89.999996
 51
139.45841
  0
ARC
  8
0
  6
CONTINUOUS
 62
     7
 10
629.06421
 20
-55.088478
 40
11
 50
269.99998
 51
334.13819
  0
ARC
  8
0
  6
CONTINUOUS
 62
     7
 10
626.96252
 20
-34.588478
 40
28
 50
269.99998
 51
343.21416
  0
ARC
  8
0
  6
CONTINUOUS
 62
     7
 10
674.96252
 20
-26.088478
 40
15.5
 50
90.000016
 51
163.21415
  0
ARC
  8
0
  6
CONTINUOUS
 62
     7
 10
681.36444
 20
-13.588479
 40
3
 50
30.000032
 51
90.000016
  0
ARC
  8
0
  6
CONTINUOUS
 62
     7
 10
681.36444
 20
42.411522
 40
3
 50
270
 51
330
  0
ARC
  8
0
  6
CONTINUOUS
 62
     7
 10
674.96252
 20
54.911522
 40
15.5
 50
196.78579
 51
269.99992
  0
ARC
  8
0
  6
CONTINUOUS
 62
     7
 10
626.96252
 20
63.411522
 40
28
 50
16.785786
 51
89.999962
  0
ARC
  8
0
  6
CONTINUOUS
 62
     7
 10
629.06421
 20
83.911522
 40
11
 50
25.861755
 51
89.999962
  0
ARC
  8
0
  6
CONTINUOUS
 62
     7
 10
622.56189
 20
101.41152
 40
10
 50
220.54161
 51
270
  0
ARC
  8
0
  6
CONTINUOUS
 62
     7
 10
635.96252
 20
21.411522
 40
3
 50
270
 51
0
  0
ARC
  8
0
  6
CONTINUOUS
 62
     7
 10
635.96252
 20
7.411521
 40
3
 50
0
 51
90.000003
  0
ARC
  8
0
  6
CONTINUOUS
 62
     7
 10
617.96252
 20
21.411522
 40
3
 50
179.99999
 51
270
  0
ARC
  8
0
  6
CONTINUOUS
 62
     7
 10
617.96252
 20
7.411521
 40
3
 50
90.000003
 51
180.00001
  0
ARC
  8
0
  6
CONTINUOUS
 62
     7
 10
737.66687
 20
-72.588463
 40
10
 50
89.999996
 51
139.45841
  0
ARC
  8
0
  6
CONTINUOUS
 62
     7
 10
745.13281
 20
-56.088478
 40
10
 50
269.99998
 51
333.31329
  0
ARC
  8
0
  6
CONTINUOUS
 62
     7
 10
743.65308
 20
-34.588478
 40
28
 50
269.99998
 51
343.51556
  0
ARC
  8
0
  6
CONTINUOUS
 62
     7
 10
794.00659
 20
-33.588478
 40
20
 50
90.000016
 51
163.51556
  0
ARC
  8
0
  6
CONTINUOUS
 62
     7
 10
794.60352
 20
-17.588478
 40
4
 50
30.000032
 51
90.000016
  0
ARC
  8
0
  6
CONTINUOUS
 62
     7
 10
794.60352
 20
46.411522
 40
4
 50
270
 51
330
  0
ARC
  8
0
  6
CONTINUOUS
 62
     7
 10
794.00659
 20
62.411522
 40
20
 50
196.48438
 51
269.99993
  0
ARC
  8
0
  6
CONTINUOUS
 62
     7
 10
743.65308
 20
63.411522
 40
28
 50
16.484383
 51
89.999962
  0
ARC
  8
0
  6
CONTINUOUS
 62
     7
 10
745.13281
 20
84.911522
 40
10
 50
26.68665
 51
89.999962
  0
ARC
  8
0
  6
CONTINUOUS
 62
     7
 10
737.66687
 20
101.41153
 40
10
 50
220.54161
 51
270
  0
ARC
  8
0
  6
CONTINUOUS
 62
     7
 10
751.06757
 20
21.411522
 40
3
 50
270
 51
0
  0
ARC
  8
0
  6
CONTINUOUS
 62
     7
 10
751.06757
 20
7.411521
 40
3
 50
0
 51
90.000003
  0
ARC
  8
0
  6
CONTINUOUS
 62
     7
 10
733.0675
 20
21.411522
 40
3
 50
179.99999
 51
270
  0
ARC
  8
0
  6
CONTINUOUS
 62
     7
 10
733.0675
 20
7.411521
 40
3
 50
90.000003
 51
180.00001
  0
ARC
  8
0
  6
CONTINUOUS
 62
     7
 10
854.21307
 20
-72.588463
 40
10
 50
89.999996
 51
139.45841
  0
ARC
  8
0
  6
CONTINUOUS
 62
     7
 10
856.51947
 20
-38.588478
 40
24
 50
269.99998
 51
326.43464
  0
ARC
  8
0
  6
CONTINUOUS
 62
     7
 10
860.80084
 20
-56.088478
 40
10
 50
269.99998
 51
348.89801
  0
ARC
  8
0
  6
CONTINUOUS
 62
     7
 10
905.10962
 20
-34.088478
 40
14
 50
90.000016
 51
146.43458
  0
ARC
  8
0
  6
CONTINUOUS
 62
     7
 10
909.1496
 20
-24.088478
 40
4
 50
30.000032
 51
90.000016
  0
ARC
  8
0
  6
CONTINUOUS
 62
     7
 10
909.1496
 20
52.911522
 40
4
 50
270
 51
330
  0
ARC
  8
0
  6
CONTINUOUS
 62
     7
 10
905.10962
 20
62.911522
 40
14
 50
213.56535
 51
269.99992
  0
ARC
  8
0
  6
CONTINUOUS
 62
     7
 10
860.80084
 20
84.911522
 40
10
 50
11.101935
 51
89.999962
  0
ARC
  8
0
  6
CONTINUOUS
 62
     7
 10
856.51947
 20
67.411522
 40
24
 50
33.565377
 51
89.999962
  0
ARC
  8
0
  6
CONTINUOUS
 62
     7
 10
854.21307
 20
101.41153
 40
10
 50
220.54161
 51
270
  0
ARC
  8
0
  6
CONTINUOUS
 62
     7
 10
867.61371
 20
7.411521
 40
3
 50
0
 51
90.000003
  0
ARC
  8
0
  6
CONTINUOUS
 62
     7
 10
867.61371
 20
21.411522
 40
3
 50
270
 51
0
  0
ARC
  8
0
  6
CONTINUOUS
 62
     7
 10
849.61371
 20
7.411521
 40
3
 50
90.000003
 51
180.00001
  0
ARC
  8
0
  6
CONTINUOUS
 62
     7
 10
849.61371
 20
21.411522
 40
3
 50
179.99999
 51
270
  0
ARC
  8
0
  6
CONTINUOUS
 62
     7
 10
975.94238
 20
-72.588463
 40
10
 50
89.999996
 51
139.45841
  0
ARC
  8
0
  6
CONTINUOUS
 62
     7
 10
983.39105
 20
-56.088478
 40
10
 50
269.99998
 51
333.5338
  0
ARC
  8
0
  6
CONTINUOUS
 62
     7
 10
981.84302
 20
-34.588478
 40
28
 50
269.99998
 51
350.76444
  0
ARC
  8
0
  6
CONTINUOUS
 62
     7
 10
1021.818
 20
-41.088478
 40
12.5
 50
90.000016
 51
170.76447
  0
ARC
  8
0
  6
CONTINUOUS
 62
     7
 10
1028.4696
 20
-34.588478
 40
6
 50
35.685358
 51
90.000016
  0
ARC
  8
0
  6
CONTINUOUS
 62
     7
 10
1028.4696
 20
63.411522
 40
6
 50
270
 51
324.31468
  0
ARC
  8
0
  6
CONTINUOUS
 62
     7
 10
1021.818
 20
69.911522
 40
12.5
 50
189.23548
 51
269.99994
  0
ARC
  8
0
  6
CONTINUOUS
 62
     7
 10
981.84302
 20
63.411522
 40
28
 50
9.2355035
 51
89.999962
  0
ARC
  8
0
  6
CONTINUOUS
 62
     7
 10
983.39105
 20
84.911522
 40
10
 50
26.466145
 51
89.999962
  0
ARC
  8
0
  6
CONTINUOUS
 62
     7
 10
975.94238
 20
101.41152
 40
10
 50
220.54161
 51
270
  0
ARC
  8
0
  6
CONTINUOUS
 62
     7
 10
989.34302
 20
21.411522
 40
3
 50
270
 51
0
  0
ARC
  8
0
  6
CONTINUOUS
 62
     7
 10
989.34302
 20
7.411521
 40
3
 50
0
 51
90.000003
  0
ARC
  8
0
  6
CONTINUOUS
 62
     7
 10
971.34302
 20
21.411522
 40
3
 50
179.99999
 51
270
  0
ARC
  8
0
  6
CONTINUOUS
 62
     7
 10
971.34302
 20
7.411521
 40
3
 50
90.000003
 51
180.00001
  0
ARC
  8
0
  6
CONTINUOUS
 62
     7
 10
1093.4314
 20
-72.588463
 40
10
 50
89.999996
 51
139.45841
  0
ARC
  8
0
  6
CONTINUOUS
 62
     7
 10
1099.332
 20
-33.588478
 40
29
 50
269.99998
 51
339.8037
  0
ARC
  8
0
  6
CONTINUOUS
 62
     7
 10
1100.9182
 20
-56.088478
 40
10
 50
269.99998
 51
333.04837
  0
ARC
  8
0
  6
CONTINUOUS
 62
     7
 10
1138.7496
 20
-48.088478
 40
13
 50
90.000016
 51
159.80364
  0
ARC
  8
0
  6
CONTINUOUS
 62
     7
 10
1142.6906
 20
-45.088478
 40
10
 50
44.42703
 51
90.000016
  0
ARC
  8
0
  6
CONTINUOUS
 62
     7
 10
1142.6907
 20
73.911522
 40
10
 50
270
 51
315.573
  0
ARC
  8
0
  6
CONTINUOUS
 62
     7
 10
1138.7496
 20
76.911522
 40
13
 50
200.19629
 51
269.99992
  0
ARC
  8
0
  6
CONTINUOUS
 62
     7
 10
1099.332
 20
62.411522
 40
29
 50
20.19625
 51
89.999962
  0
ARC
  8
0
  6
CONTINUOUS
 62
     7
 10
1100.9182
 20
84.911522
 40
10
 50
26.95158
 51
89.999962
  0
ARC
  8
0
  6
CONTINUOUS
 62
     7
 10
1093.4314
 20
101.41153
 40
10
 50
220.54161
 51
270
  0
ARC
  8
0
  6
CONTINUOUS
 62
     7
 10
1106.832
 20
21.411522
 40
3
 50
270
 51
0
  0
ARC
  8
0
  6
CONTINUOUS
 62
     7
 10
1106.832
 20
7.411521
 40
3
 50
0
 51
90.000003
  0
ARC
  8
0
  6
CONTINUOUS
 62
     7
 10
1088.832
 20
21.411522
 40
3
 50
179.99999
 51
270
  0
ARC
  8
0
  6
CONTINUOUS
 62
     7
 10
1088.832
 20
7.411521
 40
3
 50
90.000003
 51
180.00001
  0
ARC
  8
0
  6
CONTINUOUS
 62
     7
 10
1215.7103
 20
-72.588463
 40
10
 50
89.999996
 51
139.45841
  0
ARC
  8
0
  6
CONTINUOUS
 62
     7
 10
1223.2153
 20
-56.088478
 40
9.9999886
 50
269.99998
 51
332.81853
  0
ARC
  8
0
  6
CONTINUOUS
 62
     7
 10
1221.611
 20
-33.088478
 40
29.5
 50
269.99998
 51
309.71514
  0
ARC
  8
0
  6
CONTINUOUS
 62
     7
 10
1258.9907
 20
-78.088478
 40
29
 50
90.000016
 51
129.71517
  0
ARC
  8
0
  6
CONTINUOUS
 62
     7
 10
1261.9695
 20
-59.088478
 40
10
 50
44.42703
 51
90.000016
  0
ARC
  8
0
  6
CONTINUOUS
 62
     7
 10
1258.9907
 20
106.91152
 40
29
 50
230.28478
 51
269.99993
  0
ARC
  8
0
  6
CONTINUOUS
 62
     7
 10
1261.9695
 20
87.911522
 40
10
 50
270
 51
315.573
  0
ARC
  8
0
  6
CONTINUOUS
 62
     7
 10
1221.611
 20
61.911522
 40
29.5
 50
50.284805
 51
89.999962
  0
ARC
  8
0
  6
CONTINUOUS
 62
     7
 10
1223.2153
 20
84.911522
 40
9.9999886
 50
27.181416
 51
89.999962
  0
ARC
  8
0
  6
CONTINUOUS
 62
     7
 10
1215.7103
 20
101.41153
 40
10
 50
220.54161
 51
270
  0
ARC
  8
0
  6
CONTINUOUS
 62
     7
 10
1229.111
 20
21.411522
 40
3
 50
270
 51
0
  0
ARC
  8
0
  6
CONTINUOUS
 62
     7
 10
1229.111
 20
7.411521
 40
3
 50
0
 51
90.000003
  0
ARC
  8
0
  6
CONTINUOUS
 62
     7
 10
1211.111
 20
21.411522
 40
3
 50
179.99999
 51
270
  0
ARC
  8
0
  6
CONTINUOUS
 62
     7
 10
1211.111
 20
7.411521
 40
3
 50
90.000003
 51
180.00001
  0
ARC
  8
0
  6
CONTINUOUS
 62
     7
 10
529.56189
 20
-284.73206
 40
10
 50
89.999996
 51
139.45841
  0
ARC
  8
0
  6
CONTINUOUS
 62
     7
 10
537.44995
 20
-266.23206
 40
12
 50
269.99998
 51
331.16897
  0
ARC
  8
0
  6
CONTINUOUS
 62
     7
 10
534.96252
 20
-242.23206
 40
32.5
 50
269.99998
 51
345.98054
  0
ARC
  8
0
  6
CONTINUOUS
 62
     7
 10
588.96252
 20
-228.23206
 40
16.5
 50
90.000016
 51
165.98054
  0
ARC
  8
0
  6
CONTINUOUS
 62
     7
 10
594.49841
 20
-215.73206
 40
4
 50
30.000032
 51
90.000016
  0
ARC
  8
0
  6
CONTINUOUS
 62
     7
 10
594.49841
 20
-151.73206
 40
4
 50
270
 51
330
  0
ARC
  8
0
  6
CONTINUOUS
 62
     7
 10
588.96252
 20
-139.23206
 40
16.5
 50
194.0194
 51
269.99992
  0
ARC
  8
0
  6
CONTINUOUS
 62
     7
 10
534.96252
 20
-125.23206
 40
32.5
 50
14.019409
 51
89.999962
  0
ARC
  8
0
  6
CONTINUOUS
 62
     7
 10
537.44995
 20
-101.23204
 40
12
 50
28.830976
 51
89.999962
  0
ARC
  8
0
  6
CONTINUOUS
 62
     7
 10
529.56189
 20
-82.732056
 40
10
 50
220.54161
 51
270
  0
ARC
  8
0
  6
CONTINUOUS
 62
     7
 10
544.96252
 20
-176.73206
 40
3
 50
270
 51
0
  0
ARC
  8
0
  6
CONTINUOUS
 62
     7
 10
544.96252
 20
-190.73206
 40
3
 50
0
 51
90.000003
  0
ARC
  8
0
  6
CONTINUOUS
 62
     7
 10
525.96252
 20
-191.73206
 40
4
 50
90.000003
 51
180.00001
  0
ARC
  8
0
  6
CONTINUOUS
 62
     7
 10
525.96252
 20
-175.73206
 40
4
 50
179.99999
 51
270
  0
ARC
  8
0
  6
CONTINUOUS
 62
     7
 10
659.66693
 20
-284.73206
 40
10
 50
89.999996
 51
139.45841
  0
ARC
  8
0
  6
CONTINUOUS
 62
     7
 10
665.06757
 20
-242.23206
 40
32.5
 50
269.99998
 51
338.28504
  0
ARC
  8
0
  6
CONTINUOUS
 62
     7
 10
667.55505
 20
-266.23206
 40
12
 50
269.99998
 51
331.16908
  0
ARC
  8
0
  6
CONTINUOUS
 62
     7
 10
717.06757
 20
-229.23206
 40
11
 50
90.000016
 51
158.28502
  0
ARC
  8
0
  6
CONTINUOUS
 62
     7
 10
722.60345
 20
-222.23206
 40
4
 50
30.000032
 51
90.000016
  0
ARC
  8
0
  6
CONTINUOUS
 62
     7
 10
722.60345
 20
-145.23206
 40
4
 50
270
 51
330
  0
ARC
  8
0
  6
CONTINUOUS
 62
     7
 10
717.06757
 20
-138.23206
 40
11
 50
201.71491
 51
269.99992
  0
ARC
  8
0
  6
CONTINUOUS
 62
     7
 10
665.06757
 20
-125.23206
 40
32.5
 50
21.714901
 51
90.000016
  0
ARC
  8
0
  6
CONTINUOUS
 62
     7
 10
667.55505
 20
-101.23204
 40
12
 50
28.830867
 51
89.999962
  0
ARC
  8
0
  6
CONTINUOUS
 62
     7
 10
659.66693
 20
-82.732056
 40
10
 50
220.54161
 51
270
  0
ARC
  8
0
  6
CONTINUOUS
 62
     7
 10
656.06757
 20
-175.73206
 40
4
 50
179.99999
 51
270
  0
ARC
  8
0
  6
CONTINUOUS
 62
     7
 10
656.06757
 20
-191.73206
 40
4
 50
90.000003
 51
180.00001
  0
ARC
  8
0
  6
CONTINUOUS
 62
     7
 10
675.06757
 20
-176.73206
 40
3
 50
270
 51
0
  0
ARC
  8
0
  6
CONTINUOUS
 62
     7
 10
675.06757
 20
-190.73206
 40
3
 50
0
 51
90.000003
  0
ARC
  8
0
  6
CONTINUOUS
 62
     7
 10
796.21301
 20
-284.73206
 40
10
 50
89.999996
 51
139.45841
  0
ARC
  8
0
  6
CONTINUOUS
 62
     7
 10
803.52588
 20
-265.23206
 40
13.000002
 50
269.99998
 51
328.52967
  0
ARC
  8
0
  6
CONTINUOUS
 62
     7
 10
801.61371
 20
-242.23206
 40
32.5
 50
269.99998
 51
335.93882
  0
ARC
  8
0
  6
CONTINUOUS
 62
     7
 10
850.61371
 20
-236.73206
 40
10
 50
90.000016
 51
155.93874
  0
ARC
  8
0
  6
CONTINUOUS
 62
     7
 10
856.7403
 20
-232.73206
 40
6
 50
35.685358
 51
90.000016
  0
ARC
  8
0
  6
CONTINUOUS
 62
     7
 10
856.74036
 20
-134.73206
 40
6
 50
270
 51
324.31468
  0
ARC
  8
0
  6
CONTINUOUS
 62
     7
 10
850.61371
 20
-130.73206
 40
10
 50
204.06119
 51
269.99992
  0
ARC
  8
0
  6
CONTINUOUS
 62
     7
 10
801.61371
 20
-125.23206
 40
32.5
 50
24.061126
 51
89.999962
  0
ARC
  8
0
  6
CONTINUOUS
 62
     7
 10
803.52588
 20
-102.23206
 40
13.000002
 50
31.470271
 51
89.999962
  0
ARC
  8
0
  6
CONTINUOUS
 62
     7
 10
796.21301
 20
-82.732056
 40
10
 50
220.54161
 51
270
  0
ARC
  8
0
  6
CONTINUOUS
 62
     7
 10
811.61371
 20
-176.73206
 40
3
 50
270
 51
0
  0
ARC
  8
0
  6
CONTINUOUS
 62
     7
 10
811.61371
 20
-190.73206
 40
3
 50
0
 51
90.000003
  0
ARC
  8
0
  6
CONTINUOUS
 62
     7
 10
792.61371
 20
-175.73206
 40
4
 50
179.99999
 51
270
  0
ARC
  8
0
  6
CONTINUOUS
 62
     7
 10
792.61371
 20
-191.73206
 40
4
 50
90.000003
 51
180.00001
  0
ARC
  8
0
  6
CONTINUOUS
 62
     7
 10
927.94238
 20
-284.73206
 40
10
 50
89.999996
 51
139.45841
  0
ARC
  8
0
  6
CONTINUOUS
 62
     7
 10
935.10614
 20
-265.23206
 40
13
 50
269.99998
 51
329.81163
  0
ARC
  8
0
  6
CONTINUOUS
 62
     7
 10
933.34302
 20
-244.73206
 40
30
 50
269.99998
 51
330.10839
  0
ARC
  8
0
  6
CONTINUOUS
 62
     7
 10
980.34302
 20
-243.23206
 40
10
 50
90.000016
 51
150.10831
  0
ARC
  8
0
  6
CONTINUOUS
 62
     7
 10
985.20154
 20
-243.23206
 40
10
 50
44.42703
 51
90.000016
  0
ARC
  8
0
  6
CONTINUOUS
 62
     7
 10
985.2016
 20
-124.23206
 40
10
 50
270
 51
315.573
  0
ARC
  8
0
  6
CONTINUOUS
 62
     7
 10
980.34302
 20
-124.23206
 40
10
 50
209.89163
 51
269.99994
  0
ARC
  8
0
  6
CONTINUOUS
 62
     7
 10
933.34302
 20
-122.73206
 40
30
 50
29.891555
 51
89.999962
  0
ARC
  8
0
  6
CONTINUOUS
 62
     7
 10
935.10614
 20
-102.23204
 40
13
 50
30.188313
 51
89.999962
  0
ARC
  8
0
  6
CONTINUOUS
 62
     7
 10
927.94238
 20
-82.732056
 40
10
 50
220.54161
 51
270
  0
ARC
  8
0
  6
CONTINUOUS
 62
     7
 10
924.34302
 20
-175.73206
 40
4
 50
179.99999
 51
270
  0
ARC
  8
0
  6
CONTINUOUS
 62
     7
 10
924.34302
 20
-191.73206
 40
4
 50
90.000003
 51
180.00001
  0
ARC
  8
0
  6
CONTINUOUS
 62
     7
 10
943.34302
 20
-176.73206
 40
3
 50
270
 51
0
  0
ARC
  8
0
  6
CONTINUOUS
 62
     7
 10
943.34302
 20
-190.73206
 40
3
 50
0
 51
90.000003
  0
ARC
  8
0
  6
CONTINUOUS
 62
     7
 10
1066.5305
 20
-284.73206
 40
10
 50
89.999996
 51
139.45841
  0
ARC
  8
0
  6
CONTINUOUS
 62
     7
 10
1075.6348
 20
-266.23206
 40
12
 50
269.99998
 51
340.28121
  0
ARC
  8
0
  6
CONTINUOUS
 62
     7
 10
1071.9312
 20
-247.23206
 40
27.5
 50
269.99998
 51
315.59744
  0
ARC
  8
0
  6
CONTINUOUS
 62
     7
 10
1120.9312
 20
-272.23206
 40
25.000015
 50
90.000016
 51
135.59744
  0
ARC
  8
0
  6
CONTINUOUS
 62
     7
 10
1120.7897
 20
-257.23206
 40
10
 50
44.42703
 51
90.000016
  0
ARC
  8
0
  6
CONTINUOUS
 62
     7
 10
1120.7898
 20
-110.23206
 40
10
 50
270
 51
315.573
  0
ARC
  8
0
  6
CONTINUOUS
 62
     7
 10
1120.9312
 20
-95.23204
 40
25.000015
 50
224.40251
 51
269.80144
  0
ARC
  8
0
  6
CONTINUOUS
 62
     7
 10
1075.6348
 20
-101.23204
 40
12
 50
19.718737
 51
89.999962
  0
ARC
  8
0
  6
CONTINUOUS
 62
     7
 10
1071.9312
 20
-120.23206
 40
27.5
 50
44.40251
 51
89.999962
  0
ARC
  8
0
  6
CONTINUOUS
 62
     7
 10
1066.5305
 20
-82.732056
 40
10
 50
220.54161
 51
270
  0
ARC
  8
0
  6
CONTINUOUS
 62
     7
 10
1083.9312
 20
-176.73206
 40
3
 50
270
 51
0
  0
ARC
  8
0
  6
CONTINUOUS
 62
     7
 10
1083.9312
 20
-190.73206
 40
3
 50
0
 51
90.000003
  0
ARC
  8
0
  6
CONTINUOUS
 62
     7
 10
1062.9312
 20
-175.73206
 40
4
 50
179.99999
 51
270
  0
ARC
  8
0
  6
CONTINUOUS
 62
     7
 10
1062.9312
 20
-191.73206
 40
4
 50
90.000003
 51
180.00001
  0
ARC
  8
0
  6
CONTINUOUS
 62
     7
 10
1202.7103
 20
-284.73206
 40
10
 50
89.999996
 51
139.45841
  0
ARC
  8
0
  6
CONTINUOUS
 62
     7
 10
1209.611
 20
-236.23206
 40
38.5
 50
269.99998
 51
310.84149
  0
ARC
  8
0
  6
CONTINUOUS
 62
     7
 10
1213.5325
 20
-266.23206
 40
11.999984
 50
269.99998
 51
331.82991
  0
ARC
  8
0
  6
CONTINUOUS
 62
     7
 10
1247.2141
 20
-279.73206
 40
19
 50
90.000016
 51
130.84147
  0
ARC
  8
0
  6
CONTINUOUS
 62
     7
 10
1254.5116
 20
-270.73206
 40
10
 50
40.541623
 51
90.000016
  0
ARC
  8
0
  6
CONTINUOUS
 62
     7
 10
1254.5116
 20
-96.732063
 40
10
 50
270
 51
319.45842
  0
ARC
  8
0
  6
CONTINUOUS
 62
     7
 10
1247.2141
 20
-87.732056
 40
19
 50
229.15848
 51
269.99994
  0
ARC
  8
0
  6
CONTINUOUS
 62
     7
 10
1209.611
 20
-131.23206
 40
38.5
 50
49.158453
 51
89.999962
  0
ARC
  8
0
  6
CONTINUOUS
 62
     7
 10
1213.5325
 20
-101.23204
 40
11.999984
 50
28.170031
 51
89.999962
  0
ARC
  8
0
  6
CONTINUOUS
 62
     7
 10
1202.7103
 20
-82.732056
 40
10
 50
220.54161
 51
270
  0
ARC
  8
0
  6
CONTINUOUS
 62
     7
 10
1221.111
 20
-176.73206
 40
3
 50
270
 51
0
  0
ARC
  8
0
  6
CONTINUOUS
 62
     7
 10
1221.111
 20
-190.73206
 40
3
 50
0
 51
90.000003
  0
ARC
  8
0
  6
CONTINUOUS
 62
     7
 10
1199.111
 20
-175.73206
 40
4
 50
179.99999
 51
270
  0
ARC
  8
0
  6
CONTINUOUS
 62
     7
 10
1199.111
 20
-191.73206
 40
4
 50
90.000003
 51
180.00001
  0
ARC
  8
0
  6
CONTINUOUS
 62
     7
 10
-355.53036
 20
216.25916
 40
1
 50
306.00832
 51
53.991676
  0
ARC
  8
0
  6
CONTINUOUS
 62
     7
 10
-355.53036
 20
216.25916
 40
1.5
 50
306.00832
 51
53.991676
  0
ARC
  8
0
  6
CONTINUOUS
 62
     7
 10
-357.53036
 20
216.25916
 40
1
 50
126.00833
 51
233.99168
  0
ARC
  8
0
  6
CONTINUOUS
 62
     7
 10
-357.53036
 20
216.25916
 40
1.5
 50
126.00833
 51
233.99168
  0
ARC
  8
0
  6
CONTINUOUS
 62
     7
 10
-356.53036
 20
214.88319
 40
3.2009616
 50
53.991676
 51
85.520553
  0
ARC
  8
0
  6
CONTINUOUS
 62
     7
 10
-356.53036
 20
214.88319
 40
2.7009616
 50
53.991676
 51
84.689121
  0
ARC
  8
0
  6
CONTINUOUS
 62
     7
 10
-356.53036
 20
217.63512
 40
2.7009616
 50
233.99167
 51
306.00832
  0
ARC
  8
0
  6
CONTINUOUS
 62
     7
 10
-356.53036
 20
217.63512
 40
3.2009616
 50
233.99167
 51
265.52055
  0
ARC
  8
0
  6
CONTINUOUS
 62
     7
 10
-356.53036
 20
218.57166
 40
0.3125
 50
36.869897
 51
143.1301
  0
ARC
  8
0
  6
CONTINUOUS
 62
     7
 10
-356.53036
 20
216.44666
 40
0.3125
 50
216.8699
 51
323.1301
  0
ARC
  8
0
  6
CONTINUOUS
 62
     7
 10
-356.53036
 20
213.94666
 40
0.3125
 50
216.8699
 51
323.1301
  0
ARC
  8
0
  6
CONTINUOUS
 62
     7
 10
-356.53036
 20
217.63512
 40
3.2009616
 50
274.47945
 51
306.00832
  0
ARC
  8
0
  6
CONTINUOUS
 62
     7
 10
-356.53036
 20
214.88319
 40
2.7009616
 50
95.310878
 51
126.00833
  0
ARC
  8
0
  6
CONTINUOUS
 62
     7
 10
-356.53036
 20
214.88319
 40
3.2009616
 50
94.479452
 51
126.00833
  0
ARC
  8
0
  6
CONTINUOUS
 62
     7
 10
-287.97522
 20
216.15822
 40
1
 50
306.00832
 51
53.991676
  0
ARC
  8
0
  6
CONTINUOUS
 62
     7
 10
-287.97522
 20
216.15822
 40
1.5
 50
306.00832
 51
53.991676
  0
ARC
  8
0
  6
CONTINUOUS
 62
     7
 10
-289.97522
 20
216.15822
 40
1
 50
126.00833
 51
233.99168
  0
ARC
  8
0
  6
CONTINUOUS
 62
     7
 10
-289.97522
 20
216.15822
 40
1.5
 50
126.00833
 51
233.99168
  0
ARC
  8
0
  6
CONTINUOUS
 62
     7
 10
-288.97522
 20
214.78226
 40
3.2009616
 50
53.991676
 51
85.520553
  0
ARC
  8
0
  6
CONTINUOUS
 62
     7
 10
-288.97522
 20
214.78226
 40
2.7009616
 50
53.991676
 51
84.689121
  0
ARC
  8
0
  6
CONTINUOUS
 62
     7
 10
-288.97522
 20
217.53418
 40
2.7009616
 50
233.99167
 51
306.00832
  0
ARC
  8
0
  6
CONTINUOUS
 62
     7
 10
-288.97522
 20
217.53418
 40
3.2009616
 50
233.99167
 51
265.52055
  0
ARC
  8
0
  6
CONTINUOUS
 62
     7
 10
-288.97522
 20
218.47072
 40
0.3125
 50
36.869897
 51
143.1301
  0
ARC
  8
0
  6
CONTINUOUS
 62
     7
 10
-288.97522
 20
216.34572
 40
0.3125
 50
216.8699
 51
323.1301
  0
ARC
  8
0
  6
CONTINUOUS
 62
     7
 10
-288.97522
 20
213.84572
 40
0.3125
 50
216.8699
 51
323.1301
  0
ARC
  8
0
  6
CONTINUOUS
 62
     7
 10
-288.97522
 20
217.53418
 40
3.2009616
 50
274.47945
 51
306.00832
  0
ARC
  8
0
  6
CONTINUOUS
 62
     7
 10
-288.97522
 20
214.78226
 40
2.7009616
 50
95.310878
 51
126.00833
  0
ARC
  8
0
  6
CONTINUOUS
 62
     7
 10
-288.97522
 20
214.78226
 40
3.2009616
 50
94.479452
 51
126.00833
  0
ARC
  8
0
  6
CONTINUOUS
 62
     7
 10
-218.77455
 20
216.21788
 40
1
 50
306.00832
 51
53.991676
  0
ARC
  8
0
  6
CONTINUOUS
 62
     7
 10
-218.77455
 20
216.21788
 40
1.5
 50
306.00832
 51
53.991676
  0
ARC
  8
0
  6
CONTINUOUS
 62
     7
 10
-220.77455
 20
216.21788
 40
1
 50
126.00833
 51
233.99168
  0
ARC
  8
0
  6
CONTINUOUS
 62
     7
 10
-220.77455
 20
216.21788
 40
1.5
 50
126.00833
 51
233.99168
  0
ARC
  8
0
  6
CONTINUOUS
 62
     7
 10
-219.77455
 20
214.84192
 40
3.2009616
 50
53.991676
 51
85.520553
  0
ARC
  8
0
  6
CONTINUOUS
 62
     7
 10
-219.77455
 20
214.84192
 40
2.7009616
 50
53.991676
 51
84.689121
  0
ARC
  8
0
  6
CONTINUOUS
 62
     7
 10
-219.77455
 20
217.59384
 40
2.7009616
 50
233.99167
 51
306.00832
  0
ARC
  8
0
  6
CONTINUOUS
 62
     7
 10
-219.77455
 20
217.59384
 40
3.2009616
 50
233.99167
 51
265.52055
  0
ARC
  8
0
  6
CONTINUOUS
 62
     7
 10
-219.77455
 20
218.53038
 40
0.3125
 50
36.869897
 51
143.1301
  0
ARC
  8
0
  6
CONTINUOUS
 62
     7
 10
-219.77455
 20
216.40538
 40
0.3125
 50
216.8699
 51
323.1301
  0
ARC
  8
0
  6
CONTINUOUS
 62
     7
 10
-219.77455
 20
213.90538
 40
0.3125
 50
216.8699
 51
323.1301
  0
ARC
  8
0
  6
CONTINUOUS
 62
     7
 10
-219.77455
 20
217.59384
 40
3.2009616
 50
274.47945
 51
306.00832
  0
ARC
  8
0
  6
CONTINUOUS
 62
     7
 10
-219.77455
 20
214.84192
 40
2.7009616
 50
95.310878
 51
126.00833
  0
ARC
  8
0
  6
CONTINUOUS
 62
     7
 10
-219.77455
 20
214.84192
 40
3.2009616
 50
94.479452
 51
126.00833
  0
ARC
  8
0
  6
CONTINUOUS
 62
     7
 10
-150.95303
 20
216.18832
 40
1.2
 50
306.00832
 51
53.991676
  0
ARC
  8
0
  6
CONTINUOUS
 62
     7
 10
-150.95303
 20
216.18832
 40
1.8
 50
306.00832
 51
53.991676
  0
ARC
  8
0
  6
CONTINUOUS
 62
     7
 10
-153.35303
 20
216.18832
 40
1.2
 50
126.00833
 51
233.99168
  0
ARC
  8
0
  6
CONTINUOUS
 62
     7
 10
-153.35303
 20
216.18832
 40
1.8
 50
126.00833
 51
233.99168
  0
ARC
  8
0
  6
CONTINUOUS
 62
     7
 10
-152.15303
 20
214.53717
 40
3.8411539
 50
53.991676
 51
85.520553
  0
ARC
  8
0
  6
CONTINUOUS
 62
     7
 10
-152.15303
 20
214.53717
 40
3.241154
 50
53.991676
 51
84.689121
  0
ARC
  8
0
  6
CONTINUOUS
 62
     7
 10
-152.15303
 20
217.83948
 40
3.241154
 50
233.99167
 51
306.00832
  0
ARC
  8
0
  6
CONTINUOUS
 62
     7
 10
-152.15303
 20
217.83948
 40
3.8411539
 50
233.99167
 51
265.52055
  0
ARC
  8
0
  6
CONTINUOUS
 62
     7
 10
-152.15303
 20
218.96332
 40
0.375
 50
36.869897
 51
143.1301
  0
ARC
  8
0
  6
CONTINUOUS
 62
     7
 10
-152.15303
 20
216.41333
 40
0.375
 50
216.8699
 51
323.1301
  0
ARC
  8
0
  6
CONTINUOUS
 62
     7
 10
-152.15303
 20
213.41333
 40
0.375
 50
216.8699
 51
323.1301
  0
ARC
  8
0
  6
CONTINUOUS
 62
     7
 10
-152.15303
 20
217.83948
 40
3.8411539
 50
274.47945
 51
306.00832
  0
ARC
  8
0
  6
CONTINUOUS
 62
     7
 10
-152.15303
 20
214.53717
 40
3.241154
 50
95.310878
 51
126.00833
  0
ARC
  8
0
  6
CONTINUOUS
 62
     7
 10
-152.15303
 20
214.53717
 40
3.8411539
 50
94.479452
 51
126.00833
  0
ARC
  8
0
  6
CONTINUOUS
 62
     7
 10
-81.891579
 20
216.17924
 40
1.2
 50
306.00832
 51
53.991676
  0
ARC
  8
0
  6
CONTINUOUS
 62
     7
 10
-81.891579
 20
216.17924
 40
1.8
 50
306.00832
 51
53.991676
  0
ARC
  8
0
  6
CONTINUOUS
 62
     7
 10
-84.291573
 20
216.17924
 40
1.2
 50
126.00833
 51
233.99168
  0
ARC
  8
0
  6
CONTINUOUS
 62
     7
 10
-84.291573
 20
216.17924
 40
1.8
 50
126.00833
 51
233.99168
  0
ARC
  8
0
  6
CONTINUOUS
 62
     7
 10
-83.091576
 20
214.52809
 40
3.8411539
 50
53.991676
 51
85.520553
  0
ARC
  8
0
  6
CONTINUOUS
 62
     7
 10
-83.091576
 20
214.52809
 40
3.241154
 50
53.991676
 51
84.689121
  0
ARC
  8
0
  6
CONTINUOUS
 62
     7
 10
-83.091576
 20
217.8304
 40
3.241154
 50
233.99167
 51
306.00832
  0
ARC
  8
0
  6
CONTINUOUS
 62
     7
 10
-83.091576
 20
217.8304
 40
3.8411539
 50
233.99167
 51
265.52055
  0
ARC
  8
0
  6
CONTINUOUS
 62
     7
 10
-83.091576
 20
218.95424
 40
0.375
 50
36.869897
 51
143.1301
  0
ARC
  8
0
  6
CONTINUOUS
 62
     7
 10
-83.091576
 20
216.40425
 40
0.375
 50
216.8699
 51
323.1301
  0
ARC
  8
0
  6
CONTINUOUS
 62
     7
 10
-83.091576
 20
213.40425
 40
0.375
 50
216.8699
 51
323.1301
  0
ARC
  8
0
  6
CONTINUOUS
 62
     7
 10
-83.091576
 20
217.8304
 40
3.8411539
 50
274.47945
 51
306.00832
  0
ARC
  8
0
  6
CONTINUOUS
 62
     7
 10
-83.091576
 20
214.52809
 40
3.241154
 50
95.310878
 51
126.00833
  0
ARC
  8
0
  6
CONTINUOUS
 62
     7
 10
-83.091576
 20
214.52809
 40
3.8411539
 50
94.479452
 51
126.00833
  0
ARC
  8
0
  6
CONTINUOUS
 62
     7
 10
-14.79181
 20
216.26958
 40
1.2
 50
306.00832
 51
53.991676
  0
ARC
  8
0
  6
CONTINUOUS
 62
     7
 10
-14.79181
 20
216.26958
 40
1.8
 50
306.00832
 51
53.991676
  0
ARC
  8
0
  6
CONTINUOUS
 62
     7
 10
-17.191811
 20
216.26958
 40
1.2
 50
126.00833
 51
233.99168
  0
ARC
  8
0
  6
CONTINUOUS
 62
     7
 10
-17.191811
 20
216.26958
 40
1.8
 50
126.00833
 51
233.99168
  0
ARC
  8
0
  6
CONTINUOUS
 62
     7
 10
-15.99181
 20
214.61842
 40
3.8411539
 50
53.991676
 51
85.520553
  0
ARC
  8
0
  6
CONTINUOUS
 62
     7
 10
-15.99181
 20
214.61842
 40
3.241154
 50
53.991676
 51
84.689121
  0
ARC
  8
0
  6
CONTINUOUS
 62
     7
 10
-15.99181
 20
217.92073
 40
3.241154
 50
233.99167
 51
306.00832
  0
ARC
  8
0
  6
CONTINUOUS
 62
     7
 10
-15.99181
 20
217.92073
 40
3.8411539
 50
233.99167
 51
265.52055
  0
ARC
  8
0
  6
CONTINUOUS
 62
     7
 10
-15.99181
 20
219.04457
 40
0.375
 50
36.869897
 51
143.1301
  0
ARC
  8
0
  6
CONTINUOUS
 62
     7
 10
-15.99181
 20
216.49458
 40
0.375
 50
216.8699
 51
323.1301
  0
ARC
  8
0
  6
CONTINUOUS
 62
     7
 10
-15.99181
 20
213.49458
 40
0.375
 50
216.8699
 51
323.1301
  0
ARC
  8
0
  6
CONTINUOUS
 62
     7
 10
-15.99181
 20
217.92073
 40
3.8411539
 50
274.47945
 51
306.00832
  0
ARC
  8
0
  6
CONTINUOUS
 62
     7
 10
-15.99181
 20
214.61842
 40
3.241154
 50
95.310878
 51
126.00833
  0
ARC
  8
0
  6
CONTINUOUS
 62
     7
 10
-15.99181
 20
214.61842
 40
3.8411539
 50
94.479452
 51
126.00833
  0
ARC
  8
0
  6
CONTINUOUS
 62
     7
 10
54.428459
 20
216.10083
 40
1.2
 50
306.00832
 51
53.991676
  0
ARC
  8
0
  6
CONTINUOUS
 62
     7
 10
54.428459
 20
216.10083
 40
1.8
 50
306.00832
 51
53.991676
  0
ARC
  8
0
  6
CONTINUOUS
 62
     7
 10
52.028458
 20
216.10083
 40
1.2
 50
126.00833
 51
233.99168
  0
ARC
  8
0
  6
CONTINUOUS
 62
     7
 10
52.028458
 20
216.10083
 40
1.8
 50
126.00833
 51
233.99168
  0
ARC
  8
0
  6
CONTINUOUS
 62
     7
 10
53.228458
 20
214.44968
 40
3.8411539
 50
53.991676
 51
85.520553
  0
ARC
  8
0
  6
CONTINUOUS
 62
     7
 10
53.228458
 20
214.44968
 40
3.241154
 50
53.991676
 51
84.689121
  0
ARC
  8
0
  6
CONTINUOUS
 62
     7
 10
53.228458
 20
217.75198
 40
3.241154
 50
233.99167
 51
306.00832
  0
ARC
  8
0
  6
CONTINUOUS
 62
     7
 10
53.228458
 20
217.75198
 40
3.8411539
 50
233.99167
 51
265.52055
  0
ARC
  8
0
  6
CONTINUOUS
 62
     7
 10
53.228458
 20
218.87582
 40
0.375
 50
36.869897
 51
143.1301
  0
ARC
  8
0
  6
CONTINUOUS
 62
     7
 10
53.228458
 20
216.32584
 40
0.375
 50
216.8699
 51
323.1301
  0
ARC
  8
0
  6
CONTINUOUS
 62
     7
 10
53.228458
 20
213.32584
 40
0.375
 50
216.8699
 51
323.1301
  0
ARC
  8
0
  6
CONTINUOUS
 62
     7
 10
53.228458
 20
217.75198
 40
3.8411539
 50
274.47945
 51
306.00832
  0
ARC
  8
0
  6
CONTINUOUS
 62
     7
 10
53.228458
 20
214.44968
 40
3.241154
 50
95.310878
 51
126.00833
  0
ARC
  8
0
  6
CONTINUOUS
 62
     7
 10
53.228458
 20
214.44968
 40
3.8411539
 50
94.479452
 51
126.00833
  0
ARC
  8
0
  6
CONTINUOUS
 62
     7
 10
123.55225
 20
216.23265
 40
1.8
 50
306.00832
 51
53.991676
  0
ARC
  8
0
  6
CONTINUOUS
 62
     7
 10
123.55225
 20
216.23265
 40
2.7
 50
306.00832
 51
53.991676
  0
ARC
  8
0
  6
CONTINUOUS
 62
     7
 10
119.95224
 20
216.23265
 40
1.8
 50
126.00833
 51
233.99168
  0
ARC
  8
0
  6
CONTINUOUS
 62
     7
 10
119.95224
 20
216.23265
 40
2.7
 50
126.00833
 51
233.99168
  0
ARC
  8
0
  6
CONTINUOUS
 62
     7
 10
121.75224
 20
213.75592
 40
5.7617307
 50
53.991676
 51
85.520553
  0
ARC
  8
0
  6
CONTINUOUS
 62
     7
 10
121.75224
 20
213.75592
 40
4.8617306
 50
53.991676
 51
84.689121
  0
ARC
  8
0
  6
CONTINUOUS
 62
     7
 10
121.75224
 20
218.70938
 40
4.8617306
 50
233.99167
 51
306.00832
  0
ARC
  8
0
  6
CONTINUOUS
 62
     7
 10
121.75224
 20
218.70938
 40
5.7617307
 50
233.99167
 51
265.52055
  0
ARC
  8
0
  6
CONTINUOUS
 62
     7
 10
121.75224
 20
220.39516
 40
0.5625
 50
36.869897
 51
143.1301
  0
ARC
  8
0
  6
CONTINUOUS
 62
     7
 10
121.75224
 20
216.57014
 40
0.5625
 50
216.8699
 51
323.1301
  0
ARC
  8
0
  6
CONTINUOUS
 62
     7
 10
121.75224
 20
212.07014
 40
0.5625
 50
216.8699
 51
323.1301
  0
ARC
  8
0
  6
CONTINUOUS
 62
     7
 10
121.75224
 20
213.75592
 40
5.7617307
 50
94.479452
 51
126.00833
  0
ARC
  8
0
  6
CONTINUOUS
 62
     7
 10
121.75224
 20
213.75592
 40
4.8617306
 50
95.310878
 51
126.00833
  0
ARC
  8
0
  6
CONTINUOUS
 62
     7
 10
121.75224
 20
218.70938
 40
5.7617307
 50
274.47945
 51
306.00832
  0
ARC
  8
0
  6
CONTINUOUS
 62
     7
 10
192.55934
 20
216.28947
 40
1.8
 50
306.00832
 51
53.991676
  0
ARC
  8
0
  6
CONTINUOUS
 62
     7
 10
192.55934
 20
216.28947
 40
2.7
 50
306.00832
 51
53.991676
  0
ARC
  8
0
  6
CONTINUOUS
 62
     7
 10
188.95934
 20
216.28947
 40
1.8
 50
126.00833
 51
233.99168
  0
ARC
  8
0
  6
CONTINUOUS
 62
     7
 10
188.95934
 20
216.28947
 40
2.7
 50
126.00833
 51
233.99168
  0
ARC
  8
0
  6
CONTINUOUS
 62
     7
 10
190.75934
 20
213.81274
 40
5.7617307
 50
53.991676
 51
85.520553
  0
ARC
  8
0
  6
CONTINUOUS
 62
     7
 10
190.75934
 20
213.81274
 40
4.8617306
 50
53.991676
 51
84.689121
  0
ARC
  8
0
  6
CONTINUOUS
 62
     7
 10
190.75934
 20
218.7662
 40
4.8617306
 50
233.99167
 51
306.00832
  0
ARC
  8
0
  6
CONTINUOUS
 62
     7
 10
190.75934
 20
218.7662
 40
5.7617307
 50
233.99167
 51
265.52055
  0
ARC
  8
0
  6
CONTINUOUS
 62
     7
 10
190.75934
 20
220.45198
 40
0.5625
 50
36.869897
 51
143.1301
  0
ARC
  8
0
  6
CONTINUOUS
 62
     7
 10
190.75934
 20
216.62697
 40
0.5625
 50
216.8699
 51
323.1301
  0
ARC
  8
0
  6
CONTINUOUS
 62
     7
 10
190.75934
 20
212.12697
 40
0.5625
 50
216.8699
 51
323.1301
  0
ARC
  8
0
  6
CONTINUOUS
 62
     7
 10
190.75934
 20
213.81274
 40
5.7617307
 50
94.479452
 51
126.00833
  0
ARC
  8
0
  6
CONTINUOUS
 62
     7
 10
190.75934
 20
213.81274
 40
4.8617306
 50
95.310878
 51
126.00833
  0
ARC
  8
0
  6
CONTINUOUS
 62
     7
 10
190.75934
 20
218.7662
 40
5.7617307
 50
274.47945
 51
306.00832
  0
ARC
  8
0
  6
CONTINUOUS
 62
     7
 10
261.83954
 20
216.23378
 40
1.8
 50
306.00832
 51
53.991676
  0
ARC
  8
0
  6
CONTINUOUS
 62
     7
 10
261.83954
 20
216.23378
 40
2.7
 50
306.00832
 51
53.991676
  0
ARC
  8
0
  6
CONTINUOUS
 62
     7
 10
258.23956
 20
216.23378
 40
1.8
 50
126.00833
 51
233.99168
  0
ARC
  8
0
  6
CONTINUOUS
 62
     7
 10
258.23956
 20
216.23378
 40
2.7
 50
126.00833
 51
233.99168
  0
ARC
  8
0
  6
CONTINUOUS
 62
     7
 10
260.03955
 20
213.75705
 40
5.7617307
 50
53.991676
 51
85.520553
  0
ARC
  8
0
  6
CONTINUOUS
 62
     7
 10
260.03955
 20
213.75705
 40
4.8617306
 50
53.991676
 51
84.689121
  0
ARC
  8
0
  6
CONTINUOUS
 62
     7
 10
260.03955
 20
218.71051
 40
4.8617306
 50
233.99167
 51
306.00832
  0
ARC
  8
0
  6
CONTINUOUS
 62
     7
 10
260.03955
 20
218.71051
 40
5.7617307
 50
233.99167
 51
265.52055
  0
ARC
  8
0
  6
CONTINUOUS
 62
     7
 10
260.03955
 20
220.39629
 40
0.5625
 50
36.869897
 51
143.1301
  0
ARC
  8
0
  6
CONTINUOUS
 62
     7
 10
260.03955
 20
216.57127
 40
0.5625
 50
216.8699
 51
323.1301
  0
ARC
  8
0
  6
CONTINUOUS
 62
     7
 10
260.03955
 20
212.07127
 40
0.5625
 50
216.8699
 51
323.1301
  0
ARC
  8
0
  6
CONTINUOUS
 62
     7
 10
260.03955
 20
213.75705
 40
5.7617307
 50
94.479452
 51
126.00833
  0
ARC
  8
0
  6
CONTINUOUS
 62
     7
 10
260.03955
 20
213.75705
 40
4.8617306
 50
95.310878
 51
126.00833
  0
ARC
  8
0
  6
CONTINUOUS
 62
     7
 10
260.03955
 20
218.71051
 40
5.7617307
 50
274.47945
 51
306.00832
  0
ARC
  8
0
  6
CONTINUOUS
 62
     7
 10
328.98508
 20
216.21219
 40
1.8
 50
306.00832
 51
53.991676
  0
ARC
  8
0
  6
CONTINUOUS
 62
     7
 10
328.98508
 20
216.21219
 40
2.7
 50
306.00832
 51
53.991676
  0
ARC
  8
0
  6
CONTINUOUS
 62
     7
 10
325.3851
 20
216.21219
 40
1.8
 50
126.00833
 51
233.99168
  0
ARC
  8
0
  6
CONTINUOUS
 62
     7
 10
325.3851
 20
216.21219
 40
2.7
 50
126.00833
 51
233.99168
  0
ARC
  8
0
  6
CONTINUOUS
 62
     7
 10
327.18509
 20
213.73546
 40
5.7617307
 50
53.991676
 51
85.520553
  0
ARC
  8
0
  6
CONTINUOUS
 62
     7
 10
327.18509
 20
213.73546
 40
4.8617306
 50
53.991676
 51
84.689121
  0
ARC
  8
0
  6
CONTINUOUS
 62
     7
 10
327.18509
 20
218.68892
 40
4.8617306
 50
233.99167
 51
306.00832
  0
ARC
  8
0
  6
CONTINUOUS
 62
     7
 10
327.18509
 20
218.68892
 40
5.7617307
 50
233.99167
 51
265.52055
  0
ARC
  8
0
  6
CONTINUOUS
 62
     7
 10
327.18509
 20
220.37469
 40
0.5625
 50
36.869897
 51
143.1301
  0
ARC
  8
0
  6
CONTINUOUS
 62
     7
 10
327.18509
 20
216.54968
 40
0.5625
 50
216.8699
 51
323.1301
  0
ARC
  8
0
  6
CONTINUOUS
 62
     7
 10
327.18509
 20
212.04968
 40
0.5625
 50
216.8699
 51
323.1301
  0
ARC
  8
0
  6
CONTINUOUS
 62
     7
 10
327.18509
 20
213.73546
 40
5.7617307
 50
94.479452
 51
126.00833
  0
ARC
  8
0
  6
CONTINUOUS
 62
     7
 10
327.18509
 20
213.73546
 40
4.8617306
 50
95.310878
 51
126.00833
  0
ARC
  8
0
  6
CONTINUOUS
 62
     7
 10
327.18509
 20
218.68892
 40
5.7617307
 50
274.47945
 51
306.00832
  0
ARC
  8
0
  6
CONTINUOUS
 62
     7
 10
-362.45255
 20
108.50341
 40
1.8
 50
306.00832
 51
53.991676
  0
ARC
  8
0
  6
CONTINUOUS
 62
     7
 10
-362.45255
 20
108.50341
 40
2.7
 50
306.00832
 51
53.991676
  0
ARC
  8
0
  6
CONTINUOUS
 62
     7
 10
-366.05252
 20
108.50341
 40
1.8
 50
126.00833
 51
233.99168
  0
ARC
  8
0
  6
CONTINUOUS
 62
     7
 10
-366.05252
 20
108.50341
 40
2.7
 50
126.00833
 51
233.99168
  0
ARC
  8
0
  6
CONTINUOUS
 62
     7
 10
-364.25253
 20
106.02668
 40
5.7617307
 50
53.991676
 51
85.520553
  0
ARC
  8
0
  6
CONTINUOUS
 62
     7
 10
-364.25253
 20
106.02668
 40
4.8617306
 50
53.991676
 51
84.689121
  0
ARC
  8
0
  6
CONTINUOUS
 62
     7
 10
-364.25253
 20
110.98014
 40
4.8617306
 50
233.99167
 51
306.00832
  0
ARC
  8
0
  6
CONTINUOUS
 62
     7
 10
-364.25253
 20
110.98014
 40
5.7617307
 50
233.99167
 51
265.52055
  0
ARC
  8
0
  6
CONTINUOUS
 62
     7
 10
-364.25253
 20
112.66591
 40
0.5625
 50
36.869897
 51
143.1301
  0
ARC
  8
0
  6
CONTINUOUS
 62
     7
 10
-364.25253
 20
108.84091
 40
0.5625
 50
216.8699
 51
323.1301
  0
ARC
  8
0
  6
CONTINUOUS
 62
     7
 10
-364.25253
 20
104.34091
 40
0.5625
 50
216.8699
 51
323.1301
  0
ARC
  8
0
  6
CONTINUOUS
 62
     7
 10
-364.25253
 20
106.02668
 40
5.7617307
 50
94.479452
 51
126.00833
  0
ARC
  8
0
  6
CONTINUOUS
 62
     7
 10
-364.25253
 20
106.02668
 40
4.8617306
 50
95.310878
 51
126.00833
  0
ARC
  8
0
  6
CONTINUOUS
 62
     7
 10
-364.25253
 20
110.98014
 40
5.7617307
 50
274.47945
 51
306.00832
  0
ARC
  8
0
  6
CONTINUOUS
 62
     7
 10
-276.23663
 20
108.6216
 40
1.8
 50
306.00832
 51
53.991676
  0
ARC
  8
0
  6
CONTINUOUS
 62
     7
 10
-276.23663
 20
108.6216
 40
2.7
 50
306.00832
 51
53.991676
  0
ARC
  8
0
  6
CONTINUOUS
 62
     7
 10
-279.83661
 20
108.6216
 40
1.8
 50
126.00833
 51
233.99168
  0
ARC
  8
0
  6
CONTINUOUS
 62
     7
 10
-279.83661
 20
108.6216
 40
2.7
 50
126.00833
 51
233.99168
  0
ARC
  8
0
  6
CONTINUOUS
 62
     7
 10
-278.03662
 20
106.14487
 40
5.7617307
 50
53.991676
 51
85.520553
  0
ARC
  8
0
  6
CONTINUOUS
 62
     7
 10
-278.03662
 20
106.14487
 40
4.8617306
 50
53.991676
 51
84.689121
  0
ARC
  8
0
  6
CONTINUOUS
 62
     7
 10
-278.03662
 20
111.09833
 40
4.8617306
 50
233.99167
 51
306.00832
  0
ARC
  8
0
  6
CONTINUOUS
 62
     7
 10
-278.03662
 20
111.09833
 40
5.7617307
 50
233.99167
 51
265.52055
  0
ARC
  8
0
  6
CONTINUOUS
 62
     7
 10
-278.03662
 20
112.7841
 40
0.5625
 50
36.869897
 51
143.1301
  0
ARC
  8
0
  6
CONTINUOUS
 62
     7
 10
-278.03662
 20
108.9591
 40
0.5625
 50
216.8699
 51
323.1301
  0
ARC
  8
0
  6
CONTINUOUS
 62
     7
 10
-278.03662
 20
104.4591
 40
0.5625
 50
216.8699
 51
323.1301
  0
ARC
  8
0
  6
CONTINUOUS
 62
     7
 10
-278.03662
 20
106.14487
 40
5.7617307
 50
94.479452
 51
126.00833
  0
ARC
  8
0
  6
CONTINUOUS
 62
     7
 10
-278.03662
 20
106.14487
 40
4.8617306
 50
95.310878
 51
126.00833
  0
ARC
  8
0
  6
CONTINUOUS
 62
     7
 10
-278.03662
 20
111.09833
 40
5.7617307
 50
274.47945
 51
306.00832
  0
ARC
  8
0
  6
CONTINUOUS
 62
     7
 10
-191.37671
 20
108.55682
 40
1.8
 50
306.00832
 51
53.991676
  0
ARC
  8
0
  6
CONTINUOUS
 62
     7
 10
-191.37671
 20
108.55682
 40
2.7
 50
306.00832
 51
53.991676
  0
ARC
  8
0
  6
CONTINUOUS
 62
     7
 10
-194.97672
 20
108.55682
 40
1.8
 50
126.00833
 51
233.99168
  0
ARC
  8
0
  6
CONTINUOUS
 62
     7
 10
-194.97672
 20
108.55682
 40
2.7
 50
126.00833
 51
233.99168
  0
ARC
  8
0
  6
CONTINUOUS
 62
     7
 10
-193.17671
 20
106.08009
 40
5.7617307
 50
53.991676
 51
85.520553
  0
ARC
  8
0
  6
CONTINUOUS
 62
     7
 10
-193.17671
 20
106.08009
 40
4.8617306
 50
53.991676
 51
84.689121
  0
ARC
  8
0
  6
CONTINUOUS
 62
     7
 10
-193.17671
 20
111.03355
 40
4.8617306
 50
233.99167
 51
306.00832
  0
ARC
  8
0
  6
CONTINUOUS
 62
     7
 10
-193.17671
 20
111.03355
 40
5.7617307
 50
233.99167
 51
265.52055
  0
ARC
  8
0
  6
CONTINUOUS
 62
     7
 10
-193.17671
 20
112.71932
 40
0.5625
 50
36.869897
 51
143.1301
  0
ARC
  8
0
  6
CONTINUOUS
 62
     7
 10
-193.17671
 20
108.89433
 40
0.5625
 50
216.8699
 51
323.1301
  0
ARC
  8
0
  6
CONTINUOUS
 62
     7
 10
-193.17671
 20
104.39433
 40
0.5625
 50
216.8699
 51
323.1301
  0
ARC
  8
0
  6
CONTINUOUS
 62
     7
 10
-193.17671
 20
106.08009
 40
5.7617307
 50
94.479452
 51
126.00833
  0
ARC
  8
0
  6
CONTINUOUS
 62
     7
 10
-193.17671
 20
106.08009
 40
4.8617306
 50
95.310878
 51
126.00833
  0
ARC
  8
0
  6
CONTINUOUS
 62
     7
 10
-193.17671
 20
111.03355
 40
5.7617307
 50
274.47945
 51
306.00832
  0
ARC
  8
0
  6
CONTINUOUS
 62
     7
 10
-105.14889
 20
108.46819
 40
1.8
 50
306.00832
 51
53.991676
  0
ARC
  8
0
  6
CONTINUOUS
 62
     7
 10
-105.14889
 20
108.46819
 40
2.7
 50
306.00832
 51
53.991676
  0
ARC
  8
0
  6
CONTINUOUS
 62
     7
 10
-108.74889
 20
108.46819
 40
1.8
 50
126.00833
 51
233.99168
  0
ARC
  8
0
  6
CONTINUOUS
 62
     7
 10
-108.74889
 20
108.46819
 40
2.7
 50
126.00833
 51
233.99168
  0
ARC
  8
0
  6
CONTINUOUS
 62
     7
 10
-106.94889
 20
105.99146
 40
5.7617307
 50
53.991676
 51
85.520553
  0
ARC
  8
0
  6
CONTINUOUS
 62
     7
 10
-106.94889
 20
105.99146
 40
4.8617306
 50
53.991676
 51
84.689121
  0
ARC
  8
0
  6
CONTINUOUS
 62
     7
 10
-106.94889
 20
110.94492
 40
4.8617306
 50
233.99167
 51
306.00832
  0
ARC
  8
0
  6
CONTINUOUS
 62
     7
 10
-106.94889
 20
110.94492
 40
5.7617307
 50
233.99167
 51
265.52055
  0
ARC
  8
0
  6
CONTINUOUS
 62
     7
 10
-106.94889
 20
112.63068
 40
0.5625
 50
36.869897
 51
143.1301
  0
ARC
  8
0
  6
CONTINUOUS
 62
     7
 10
-106.94889
 20
108.80569
 40
0.5625
 50
216.8699
 51
323.1301
  0
ARC
  8
0
  6
CONTINUOUS
 62
     7
 10
-106.94889
 20
104.30569
 40
0.5625
 50
216.8699
 51
323.1301
  0
ARC
  8
0
  6
CONTINUOUS
 62
     7
 10
-106.94889
 20
105.99146
 40
5.7617307
 50
94.479452
 51
126.00833
  0
ARC
  8
0
  6
CONTINUOUS
 62
     7
 10
-106.94889
 20
105.99146
 40
4.8617306
 50
95.310878
 51
126.00833
  0
ARC
  8
0
  6
CONTINUOUS
 62
     7
 10
-106.94889
 20
110.94492
 40
5.7617307
 50
274.47945
 51
306.00832
  0
ARC
  8
0
  6
CONTINUOUS
 62
     7
 10
-18.763969
 20
108.6733
 40
1.8
 50
306.00832
 51
53.991676
  0
ARC
  8
0
  6
CONTINUOUS
 62
     7
 10
-18.763969
 20
108.6733
 40
2.7
 50
306.00832
 51
53.991676
  0
ARC
  8
0
  6
CONTINUOUS
 62
     7
 10
-22.363968
 20
108.6733
 40
1.8
 50
126.00833
 51
233.99168
  0
ARC
  8
0
  6
CONTINUOUS
 62
     7
 10
-22.363968
 20
108.6733
 40
2.7
 50
126.00833
 51
233.99168
  0
ARC
  8
0
  6
CONTINUOUS
 62
     7
 10
-20.563969
 20
106.19657
 40
5.7617307
 50
53.991676
 51
85.520553
  0
ARC
  8
0
  6
CONTINUOUS
 62
     7
 10
-20.563969
 20
106.19657
 40
4.8617306
 50
53.991676
 51
84.689121
  0
ARC
  8
0
  6
CONTINUOUS
 62
     7
 10
-20.563969
 20
111.15003
 40
4.8617306
 50
233.99167
 51
306.00832
  0
ARC
  8
0
  6
CONTINUOUS
 62
     7
 10
-20.563969
 20
111.15003
 40
5.7617307
 50
233.99167
 51
265.52055
  0
ARC
  8
0
  6
CONTINUOUS
 62
     7
 10
-20.563969
 20
112.8358
 40
0.5625
 50
36.869897
 51
143.1301
  0
ARC
  8
0
  6
CONTINUOUS
 62
     7
 10
-20.563969
 20
109.0108
 40
0.5625
 50
216.8699
 51
323.1301
  0
ARC
  8
0
  6
CONTINUOUS
 62
     7
 10
-20.563969
 20
104.5108
 40
0.5625
 50
216.8699
 51
323.1301
  0
ARC
  8
0
  6
CONTINUOUS
 62
     7
 10
-20.563969
 20
106.19657
 40
5.7617307
 50
94.479452
 51
126.00833
  0
ARC
  8
0
  6
CONTINUOUS
 62
     7
 10
-20.563969
 20
106.19657
 40
4.8617306
 50
95.310878
 51
126.00833
  0
ARC
  8
0
  6
CONTINUOUS
 62
     7
 10
-20.563969
 20
111.15003
 40
5.7617307
 50
274.47945
 51
306.00832
  0
ARC
  8
0
  6
CONTINUOUS
 62
     7
 10
67.576073
 20
108.70398
 40
1.8
 50
306.00832
 51
53.991676
  0
ARC
  8
0
  6
CONTINUOUS
 62
     7
 10
67.576073
 20
108.70398
 40
2.7
 50
306.00832
 51
53.991676
  0
ARC
  8
0
  6
CONTINUOUS
 62
     7
 10
63.97607
 20
108.70398
 40
1.8
 50
126.00833
 51
233.99168
  0
ARC
  8
0
  6
CONTINUOUS
 62
     7
 10
63.97607
 20
108.70398
 40
2.7
 50
126.00833
 51
233.99168
  0
ARC
  8
0
  6
CONTINUOUS
 62
     7
 10
65.77607
 20
106.22725
 40
5.7617307
 50
53.991676
 51
85.520553
  0
ARC
  8
0
  6
CONTINUOUS
 62
     7
 10
65.77607
 20
106.22725
 40
4.8617306
 50
53.991676
 51
84.689121
  0
ARC
  8
0
  6
CONTINUOUS
 62
     7
 10
65.77607
 20
111.18071
 40
4.8617306
 50
233.99167
 51
306.00832
  0
ARC
  8
0
  6
CONTINUOUS
 62
     7
 10
65.77607
 20
111.18071
 40
5.7617307
 50
233.99167
 51
265.52055
  0
ARC
  8
0
  6
CONTINUOUS
 62
     7
 10
65.77607
 20
112.86648
 40
0.5625
 50
36.869897
 51
143.1301
  0
ARC
  8
0
  6
CONTINUOUS
 62
     7
 10
65.77607
 20
109.04148
 40
0.5625
 50
216.8699
 51
323.1301
  0
ARC
  8
0
  6
CONTINUOUS
 62
     7
 10
65.77607
 20
104.54148
 40
0.5625
 50
216.8699
 51
323.1301
  0
ARC
  8
0
  6
CONTINUOUS
 62
     7
 10
65.77607
 20
106.22725
 40
5.7617307
 50
94.479452
 51
126.00833
  0
ARC
  8
0
  6
CONTINUOUS
 62
     7
 10
65.77607
 20
106.22725
 40
4.8617306
 50
95.310878
 51
126.00833
  0
ARC
  8
0
  6
CONTINUOUS
 62
     7
 10
65.77607
 20
111.18071
 40
5.7617307
 50
274.47945
 51
306.00832
  0
ARC
  8
0
  6
CONTINUOUS
 62
     7
 10
154.39307
 20
108.49034
 40
2.4000001
 50
306.00832
 51
53.991676
  0
ARC
  8
0
  6
CONTINUOUS
 62
     7
 10
154.39307
 20
108.49034
 40
3.5999999
 50
306.00832
 51
53.991676
  0
ARC
  8
0
  6
CONTINUOUS
 62
     7
 10
149.59308
 20
108.49034
 40
2.4000001
 50
126.00833
 51
233.99168
  0
ARC
  8
0
  6
CONTINUOUS
 62
     7
 10
149.59308
 20
108.49034
 40
3.5999999
 50
126.00833
 51
233.99168
  0
ARC
  8
0
  6
CONTINUOUS
 62
     7
 10
151.99307
 20
105.18803
 40
7.6823077
 50
53.991676
 51
85.520553
  0
ARC
  8
0
  6
CONTINUOUS
 62
     7
 10
151.99307
 20
105.18803
 40
6.4823079
 50
53.991676
 51
84.689121
  0
ARC
  8
0
  6
CONTINUOUS
 62
     7
 10
151.99307
 20
111.79265
 40
6.4823079
 50
233.99167
 51
306.00832
  0
ARC
  8
0
  6
CONTINUOUS
 62
     7
 10
151.99307
 20
111.79265
 40
7.6823077
 50
233.99167
 51
265.52055
  0
ARC
  8
0
  6
CONTINUOUS
 62
     7
 10
151.99307
 20
114.04034
 40
0.75
 50
36.869897
 51
143.1301
  0
ARC
  8
0
  6
CONTINUOUS
 62
     7
 10
151.99307
 20
108.94034
 40
0.75
 50
216.8699
 51
323.1301
  0
ARC
  8
0
  6
CONTINUOUS
 62
     7
 10
151.99307
 20
102.94034
 40
0.75
 50
216.8699
 51
323.1301
  0
ARC
  8
0
  6
CONTINUOUS
 62
     7
 10
151.99307
 20
105.18803
 40
6.4823079
 50
95.310878
 51
126.00833
  0
ARC
  8
0
  6
CONTINUOUS
 62
     7
 10
151.99307
 20
105.18803
 40
7.6823077
 50
94.479452
 51
126.00833
  0
ARC
  8
0
  6
CONTINUOUS
 62
     7
 10
151.99307
 20
111.79265
 40
7.6823077
 50
274.47945
 51
306.00832
  0
ARC
  8
0
  6
CONTINUOUS
 62
     7
 10
240.33028
 20
108.6841
 40
2.4000001
 50
306.00832
 51
53.991676
  0
ARC
  8
0
  6
CONTINUOUS
 62
     7
 10
240.33028
 20
108.6841
 40
3.5999999
 50
306.00832
 51
53.991676
  0
ARC
  8
0
  6
CONTINUOUS
 62
     7
 10
235.53029
 20
108.6841
 40
2.4000001
 50
126.00833
 51
233.99168
  0
ARC
  8
0
  6
CONTINUOUS
 62
     7
 10
235.53029
 20
108.6841
 40
3.5999999
 50
126.00833
 51
233.99168
  0
ARC
  8
0
  6
CONTINUOUS
 62
     7
 10
237.93028
 20
105.3818
 40
7.6823077
 50
53.991676
 51
85.520553
  0
ARC
  8
0
  6
CONTINUOUS
 62
     7
 10
237.93028
 20
105.3818
 40
6.4823079
 50
53.991676
 51
84.689121
  0
ARC
  8
0
  6
CONTINUOUS
 62
     7
 10
237.93028
 20
111.98641
 40
6.4823079
 50
233.99167
 51
306.00832
  0
ARC
  8
0
  6
CONTINUOUS
 62
     7
 10
237.93028
 20
111.98641
 40
7.6823077
 50
233.99167
 51
265.52055
  0
ARC
  8
0
  6
CONTINUOUS
 62
     7
 10
237.93028
 20
114.23411
 40
0.75
 50
36.869897
 51
143.1301
  0
ARC
  8
0
  6
CONTINUOUS
 62
     7
 10
237.93028
 20
109.1341
 40
0.75
 50
216.8699
 51
323.1301
  0
ARC
  8
0
  6
CONTINUOUS
 62
     7
 10
237.93028
 20
103.1341
 40
0.75
 50
216.8699
 51
323.1301
  0
ARC
  8
0
  6
CONTINUOUS
 62
     7
 10
237.93028
 20
105.3818
 40
6.4823079
 50
95.310878
 51
126.00833
  0
ARC
  8
0
  6
CONTINUOUS
 62
     7
 10
237.93028
 20
105.3818
 40
7.6823077
 50
94.479452
 51
126.00833
  0
ARC
  8
0
  6
CONTINUOUS
 62
     7
 10
237.93028
 20
111.98641
 40
7.6823077
 50
274.47945
 51
306.00832
  0
ARC
  8
0
  6
CONTINUOUS
 62
     7
 10
326.80441
 20
108.64773
 40
2.4000001
 50
306.00832
 51
53.991676
  0
ARC
  8
0
  6
CONTINUOUS
 62
     7
 10
326.80441
 20
108.64773
 40
3.5999999
 50
306.00832
 51
53.991676
  0
ARC
  8
0
  6
CONTINUOUS
 62
     7
 10
322.00443
 20
108.64773
 40
2.4000001
 50
126.00833
 51
233.99168
  0
ARC
  8
0
  6
CONTINUOUS
 62
     7
 10
322.00443
 20
108.64773
 40
3.5999999
 50
126.00833
 51
233.99168
  0
ARC
  8
0
  6
CONTINUOUS
 62
     7
 10
324.40442
 20
105.34542
 40
7.6823077
 50
53.991676
 51
85.520553
  0
ARC
  8
0
  6
CONTINUOUS
 62
     7
 10
324.40442
 20
105.34542
 40
6.4823079
 50
53.991676
 51
84.689121
  0
ARC
  8
0
  6
CONTINUOUS
 62
     7
 10
324.40442
 20
111.95004
 40
6.4823079
 50
233.99167
 51
306.00832
  0
ARC
  8
0
  6
CONTINUOUS
 62
     7
 10
324.40442
 20
111.95004
 40
7.6823077
 50
233.99167
 51
265.52055
  0
ARC
  8
0
  6
CONTINUOUS
 62
     7
 10
324.40442
 20
114.19773
 40
0.75
 50
36.869897
 51
143.1301
  0
ARC
  8
0
  6
CONTINUOUS
 62
     7
 10
324.40442
 20
109.09772
 40
0.75
 50
216.8699
 51
323.1301
  0
ARC
  8
0
  6
CONTINUOUS
 62
     7
 10
324.40442
 20
103.09772
 40
0.75
 50
216.8699
 51
323.1301
  0
ARC
  8
0
  6
CONTINUOUS
 62
     7
 10
324.40442
 20
105.34542
 40
6.4823079
 50
95.310878
 51
126.00833
  0
ARC
  8
0
  6
CONTINUOUS
 62
     7
 10
324.40442
 20
105.34542
 40
7.6823077
 50
94.479452
 51
126.00833
  0
ARC
  8
0
  6
CONTINUOUS
 62
     7
 10
324.40442
 20
111.95004
 40
7.6823077
 50
274.47945
 51
306.00832
  0
ARC
  8
0
  6
CONTINUOUS
 62
     7
 10
-364.28464
 20
-28.792854
 40
2.4000001
 50
306.00832
 51
53.991676
  0
ARC
  8
0
  6
CONTINUOUS
 62
     7
 10
-364.28464
 20
-28.792854
 40
3.5999999
 50
306.00832
 51
53.991676
  0
ARC
  8
0
  6
CONTINUOUS
 62
     7
 10
-369.08463
 20
-28.792854
 40
2.4000001
 50
126.00833
 51
233.99168
  0
ARC
  8
0
  6
CONTINUOUS
 62
     7
 10
-369.08463
 20
-28.792854
 40
3.5999999
 50
126.00833
 51
233.99168
  0
ARC
  8
0
  6
CONTINUOUS
 62
     7
 10
-366.68463
 20
-32.095161
 40
7.6823077
 50
53.991676
 51
85.520553
  0
ARC
  8
0
  6
CONTINUOUS
 62
     7
 10
-366.68463
 20
-32.095161
 40
6.4823079
 50
53.991676
 51
84.689121
  0
ARC
  8
0
  6
CONTINUOUS
 62
     7
 10
-366.68463
 20
-25.490547
 40
6.4823079
 50
233.99167
 51
306.00832
  0
ARC
  8
0
  6
CONTINUOUS
 62
     7
 10
-366.68463
 20
-25.490547
 40
7.6823077
 50
233.99167
 51
265.52055
  0
ARC
  8
0
  6
CONTINUOUS
 62
     7
 10
-366.68463
 20
-23.242855
 40
0.75
 50
36.869897
 51
143.1301
  0
ARC
  8
0
  6
CONTINUOUS
 62
     7
 10
-366.68463
 20
-28.342854
 40
0.75
 50
216.8699
 51
323.1301
  0
ARC
  8
0
  6
CONTINUOUS
 62
     7
 10
-366.68463
 20
-34.342854
 40
0.75
 50
216.8699
 51
323.1301
  0
ARC
  8
0
  6
CONTINUOUS
 62
     7
 10
-366.68463
 20
-32.095161
 40
6.4823079
 50
95.310878
 51
126.00833
  0
ARC
  8
0
  6
CONTINUOUS
 62
     7
 10
-366.68463
 20
-32.095161
 40
7.6823077
 50
94.479452
 51
126.00833
  0
ARC
  8
0
  6
CONTINUOUS
 62
     7
 10
-366.68463
 20
-25.490547
 40
7.6823077
 50
274.47945
 51
306.00832
  0
ARC
  8
0
  6
CONTINUOUS
 62
     7
 10
-265.60837
 20
-28.646263
 40
2.4000001
 50
306.00832
 51
53.991676
  0
ARC
  8
0
  6
CONTINUOUS
 62
     7
 10
-265.60837
 20
-28.646263
 40
3.5999999
 50
306.00832
 51
53.991676
  0
ARC
  8
0
  6
CONTINUOUS
 62
     7
 10
-270.40836
 20
-28.646263
 40
2.4000001
 50
126.00833
 51
233.99168
  0
ARC
  8
0
  6
CONTINUOUS
 62
     7
 10
-270.40836
 20
-28.646263
 40
3.5999999
 50
126.00833
 51
233.99168
  0
ARC
  8
0
  6
CONTINUOUS
 62
     7
 10
-268.00836
 20
-31.94857
 40
7.6823077
 50
53.991676
 51
85.520553
  0
ARC
  8
0
  6
CONTINUOUS
 62
     7
 10
-268.00836
 20
-31.94857
 40
6.4823079
 50
53.991676
 51
84.689121
  0
ARC
  8
0
  6
CONTINUOUS
 62
     7
 10
-268.00836
 20
-25.343956
 40
6.4823079
 50
233.99167
 51
306.00832
  0
ARC
  8
0
  6
CONTINUOUS
 62
     7
 10
-268.00836
 20
-25.343956
 40
7.6823077
 50
233.99167
 51
265.52055
  0
ARC
  8
0
  6
CONTINUOUS
 62
     7
 10
-268.00836
 20
-23.096264
 40
0.75
 50
36.869897
 51
143.1301
  0
ARC
  8
0
  6
CONTINUOUS
 62
     7
 10
-268.00836
 20
-28.196262
 40
0.75
 50
216.8699
 51
323.1301
  0
ARC
  8
0
  6
CONTINUOUS
 62
     7
 10
-268.00836
 20
-34.196262
 40
0.75
 50
216.8699
 51
323.1301
  0
ARC
  8
0
  6
CONTINUOUS
 62
     7
 10
-268.00836
 20
-31.94857
 40
6.4823079
 50
95.310878
 51
126.00833
  0
ARC
  8
0
  6
CONTINUOUS
 62
     7
 10
-268.00836
 20
-31.94857
 40
7.6823077
 50
94.479452
 51
126.00833
  0
ARC
  8
0
  6
CONTINUOUS
 62
     7
 10
-268.00836
 20
-25.343956
 40
7.6823077
 50
274.47945
 51
306.00832
  0
ARC
  8
0
  6
CONTINUOUS
 62
     7
 10
-156.20197
 20
-28.59399
 40
3
 50
306.00832
 51
53.991676
  0
ARC
  8
0
  6
CONTINUOUS
 62
     7
 10
-156.20197
 20
-28.59399
 40
4.5
 50
306.00832
 51
53.991676
  0
ARC
  8
0
  6
CONTINUOUS
 62
     7
 10
-162.20197
 20
-28.59399
 40
3
 50
126.00833
 51
233.99168
  0
ARC
  8
0
  6
CONTINUOUS
 62
     7
 10
-162.20197
 20
-28.59399
 40
4.5
 50
126.00833
 51
233.99168
  0
ARC
  8
0
  6
CONTINUOUS
 62
     7
 10
-159.20197
 20
-32.721874
 40
9.6028843
 50
53.991676
 51
85.520553
  0
ARC
  8
0
  6
CONTINUOUS
 62
     7
 10
-159.20197
 20
-32.721874
 40
8.1028843
 50
53.991676
 51
84.689121
  0
ARC
  8
0
  6
CONTINUOUS
 62
     7
 10
-159.20197
 20
-24.466106
 40
8.1028843
 50
233.99167
 51
306.00832
  0
ARC
  8
0
  6
CONTINUOUS
 62
     7
 10
-159.20197
 20
-24.466106
 40
9.6028843
 50
233.99167
 51
265.52055
  0
ARC
  8
0
  6
CONTINUOUS
 62
     7
 10
-159.20197
 20
-21.65649
 40
0.9375
 50
36.869897
 51
143.1301
  0
ARC
  8
0
  6
CONTINUOUS
 62
     7
 10
-159.20197
 20
-28.03149
 40
0.9375
 50
216.8699
 51
323.1301
  0
ARC
  8
0
  6
CONTINUOUS
 62
     7
 10
-159.20197
 20
-35.53149
 40
0.9375
 50
216.8699
 51
323.1301
  0
ARC
  8
0
  6
CONTINUOUS
 62
     7
 10
-159.20197
 20
-32.721874
 40
9.6028843
 50
94.479452
 51
126.00833
  0
ARC
  8
0
  6
CONTINUOUS
 62
     7
 10
-159.20197
 20
-32.721874
 40
8.1028843
 50
95.310878
 51
126.00833
  0
ARC
  8
0
  6
CONTINUOUS
 62
     7
 10
-159.20197
 20
-24.466106
 40
9.6028843
 50
274.47945
 51
306.00832
  0
ARC
  8
0
  6
CONTINUOUS
 62
     7
 10
-57.234207
 20
-28.582626
 40
3
 50
306.00832
 51
53.991676
  0
ARC
  8
0
  6
CONTINUOUS
 62
     7
 10
-57.234207
 20
-28.582626
 40
4.5
 50
306.00832
 51
53.991676
  0
ARC
  8
0
  6
CONTINUOUS
 62
     7
 10
-63.234207
 20
-28.582626
 40
3
 50
126.00833
 51
233.99168
  0
ARC
  8
0
  6
CONTINUOUS
 62
     7
 10
-63.234207
 20
-28.582626
 40
4.5
 50
126.00833
 51
233.99168
  0
ARC
  8
0
  6
CONTINUOUS
 62
     7
 10
-60.234207
 20
-32.71051
 40
9.6028843
 50
53.991676
 51
85.520553
  0
ARC
  8
0
  6
CONTINUOUS
 62
     7
 10
-60.234207
 20
-32.71051
 40
8.1028843
 50
53.991676
 51
84.689121
  0
ARC
  8
0
  6
CONTINUOUS
 62
     7
 10
-60.234207
 20
-24.454742
 40
8.1028843
 50
233.99167
 51
306.00832
  0
ARC
  8
0
  6
CONTINUOUS
 62
     7
 10
-60.234207
 20
-24.454742
 40
9.6028843
 50
233.99167
 51
265.52055
  0
ARC
  8
0
  6
CONTINUOUS
 62
     7
 10
-60.234207
 20
-21.645126
 40
0.9375
 50
36.869897
 51
143.1301
  0
ARC
  8
0
  6
CONTINUOUS
 62
     7
 10
-60.234207
 20
-28.020126
 40
0.9375
 50
216.8699
 51
323.1301
  0
ARC
  8
0
  6
CONTINUOUS
 62
     7
 10
-60.234207
 20
-35.520126
 40
0.9375
 50
216.8699
 51
323.1301
  0
ARC
  8
0
  6
CONTINUOUS
 62
     7
 10
-60.234207
 20
-32.71051
 40
9.6028843
 50
94.479452
 51
126.00833
  0
ARC
  8
0
  6
CONTINUOUS
 62
     7
 10
-60.234207
 20
-32.71051
 40
8.1028843
 50
95.310878
 51
126.00833
  0
ARC
  8
0
  6
CONTINUOUS
 62
     7
 10
-60.234207
 20
-24.454742
 40
9.6028843
 50
274.47945
 51
306.00832
  0
ARC
  8
0
  6
CONTINUOUS
 62
     7
 10
238.41763
 20
-28.282057
 40
3
 50
306.00832
 51
53.991676
  0
ARC
  8
0
  6
CONTINUOUS
 62
     7
 10
238.41763
 20
-28.282057
 40
4.5
 50
306.00832
 51
53.991676
  0
ARC
  8
0
  6
CONTINUOUS
 62
     7
 10
232.41763
 20
-28.282057
 40
3
 50
126.00833
 51
233.99168
  0
ARC
  8
0
  6
CONTINUOUS
 62
     7
 10
232.41763
 20
-28.282057
 40
4.5
 50
126.00833
 51
233.99168
  0
ARC
  8
0
  6
CONTINUOUS
 62
     7
 10
235.41763
 20
-32.409943
 40
9.6028843
 50
53.991676
 51
85.520553
  0
ARC
  8
0
  6
CONTINUOUS
 62
     7
 10
235.41763
 20
-32.409943
 40
8.1028843
 50
53.991676
 51
84.689121
  0
ARC
  8
0
  6
CONTINUOUS
 62
     7
 10
235.41763
 20
-24.154173
 40
8.1028843
 50
233.99167
 51
306.00832
  0
ARC
  8
0
  6
CONTINUOUS
 62
     7
 10
235.41763
 20
-24.154173
 40
9.6028843
 50
233.99167
 51
265.52055
  0
ARC
  8
0
  6
CONTINUOUS
 62
     7
 10
235.41763
 20
-21.344557
 40
0.9375
 50
36.869897
 51
143.1301
  0
ARC
  8
0
  6
CONTINUOUS
 62
     7
 10
235.41763
 20
-27.719557
 40
0.9375
 50
216.8699
 51
323.1301
  0
ARC
  8
0
  6
CONTINUOUS
 62
     7
 10
235.41763
 20
-35.219559
 40
0.9375
 50
216.8699
 51
323.1301
  0
ARC
  8
0
  6
CONTINUOUS
 62
     7
 10
235.41763
 20
-32.409943
 40
9.6028843
 50
94.479452
 51
126.00833
  0
ARC
  8
0
  6
CONTINUOUS
 62
     7
 10
235.41763
 20
-32.409943
 40
8.1028843
 50
95.310878
 51
126.00833
  0
ARC
  8
0
  6
CONTINUOUS
 62
     7
 10
235.41763
 20
-24.154173
 40
9.6028843
 50
274.47945
 51
306.00832
  0
ARC
  8
0
  6
CONTINUOUS
 62
     7
 10
-305.86765
 20
-196.92776
 40
3.5999999
 50
306.00832
 51
53.991676
  0
ARC
  8
0
  6
CONTINUOUS
 62
     7
 10
-305.86765
 20
-196.92776
 40
5.4000001
 50
306.00832
 51
53.991676
  0
ARC
  8
0
  6
CONTINUOUS
 62
     7
 10
-313.06766
 20
-196.92776
 40
3.5999999
 50
126.00833
 51
233.99168
  0
ARC
  8
0
  6
CONTINUOUS
 62
     7
 10
-313.06766
 20
-196.92776
 40
5.4000001
 50
126.00833
 51
233.99168
  0
ARC
  8
0
  6
CONTINUOUS
 62
     7
 10
-309.46765
 20
-201.88123
 40
11.523461
 50
53.991676
 51
85.520553
  0
ARC
  8
0
  6
CONTINUOUS
 62
     7
 10
-309.46765
 20
-201.88123
 40
9.7234612
 50
53.991676
 51
84.689121
  0
ARC
  8
0
  6
CONTINUOUS
 62
     7
 10
-309.46765
 20
-191.9743
 40
9.7234612
 50
233.99167
 51
306.00832
  0
ARC
  8
0
  6
CONTINUOUS
 62
     7
 10
-309.46765
 20
-191.9743
 40
11.523461
 50
233.99167
 51
265.52055
  0
ARC
  8
0
  6
CONTINUOUS
 62
     7
 10
-309.46765
 20
-188.60277
 40
1.125
 50
36.869897
 51
143.1301
  0
ARC
  8
0
  6
CONTINUOUS
 62
     7
 10
-309.46765
 20
-196.25276
 40
1.125
 50
216.8699
 51
323.1301
  0
ARC
  8
0
  6
CONTINUOUS
 62
     7
 10
-309.46765
 20
-205.25276
 40
1.125
 50
216.8699
 51
323.1301
  0
ARC
  8
0
  6
CONTINUOUS
 62
     7
 10
-309.46765
 20
-201.88123
 40
11.523461
 50
94.479452
 51
126.00833
  0
ARC
  8
0
  6
CONTINUOUS
 62
     7
 10
-309.46765
 20
-201.88123
 40
9.7234612
 50
95.310878
 51
126.00833
  0
ARC
  8
0
  6
CONTINUOUS
 62
     7
 10
-309.46765
 20
-191.9743
 40
11.523461
 50
274.47945
 51
306.00832
  0
ARC
  8
0
  6
CONTINUOUS
 62
     7
 10
139.64363
 20
-28.298534
 40
3
 50
306.00832
 51
53.991676
  0
ARC
  8
0
  6
CONTINUOUS
 62
     7
 10
139.64363
 20
-28.298534
 40
4.5
 50
306.00832
 51
53.991676
  0
ARC
  8
0
  6
CONTINUOUS
 62
     7
 10
133.64363
 20
-28.298534
 40
3
 50
126.00833
 51
233.99168
  0
ARC
  8
0
  6
CONTINUOUS
 62
     7
 10
133.64363
 20
-28.298534
 40
4.5
 50
126.00833
 51
233.99168
  0
ARC
  8
0
  6
CONTINUOUS
 62
     7
 10
136.64363
 20
-32.426418
 40
9.6028843
 50
53.991676
 51
85.520553
  0
ARC
  8
0
  6
CONTINUOUS
 62
     7
 10
136.64363
 20
-32.426418
 40
8.1028843
 50
53.991676
 51
84.689121
  0
ARC
  8
0
  6
CONTINUOUS
 62
     7
 10
136.64363
 20
-24.17065
 40
8.1028843
 50
233.99167
 51
306.00832
  0
ARC
  8
0
  6
CONTINUOUS
 62
     7
 10
136.64363
 20
-24.17065
 40
9.6028843
 50
233.99167
 51
265.52055
  0
ARC
  8
0
  6
CONTINUOUS
 62
     7
 10
136.64363
 20
-21.361034
 40
0.9375
 50
36.869897
 51
143.1301
  0
ARC
  8
0
  6
CONTINUOUS
 62
     7
 10
136.64363
 20
-27.736034
 40
0.9375
 50
216.8699
 51
323.1301
  0
ARC
  8
0
  6
CONTINUOUS
 62
     7
 10
136.64363
 20
-35.236034
 40
0.9375
 50
216.8699
 51
323.1301
  0
ARC
  8
0
  6
CONTINUOUS
 62
     7
 10
136.64363
 20
-32.426418
 40
9.6028843
 50
94.479452
 51
126.00833
  0
ARC
  8
0
  6
CONTINUOUS
 62
     7
 10
136.64363
 20
-32.426418
 40
8.1028843
 50
95.310878
 51
126.00833
  0
ARC
  8
0
  6
CONTINUOUS
 62
     7
 10
136.64363
 20
-24.17065
 40
9.6028843
 50
274.47945
 51
306.00832
  0
ARC
  8
0
  6
CONTINUOUS
 62
     7
 10
337.5871
 20
-28.588877
 40
3
 50
306.00832
 51
53.991676
  0
ARC
  8
0
  6
CONTINUOUS
 62
     7
 10
337.5871
 20
-28.588877
 40
4.5
 50
306.00832
 51
53.991676
  0
ARC
  8
0
  6
CONTINUOUS
 62
     7
 10
331.5871
 20
-28.588877
 40
3
 50
126.00833
 51
233.99168
  0
ARC
  8
0
  6
CONTINUOUS
 62
     7
 10
331.5871
 20
-28.588877
 40
4.5
 50
126.00833
 51
233.99168
  0
ARC
  8
0
  6
CONTINUOUS
 62
     7
 10
334.5871
 20
-32.716763
 40
9.6028843
 50
53.991676
 51
85.520553
  0
ARC
  8
0
  6
CONTINUOUS
 62
     7
 10
334.5871
 20
-32.716763
 40
8.1028843
 50
53.991676
 51
84.689121
  0
ARC
  8
0
  6
CONTINUOUS
 62
     7
 10
334.5871
 20
-24.460993
 40
8.1028843
 50
233.99167
 51
306.00832
  0
ARC
  8
0
  6
CONTINUOUS
 62
     7
 10
334.5871
 20
-24.460993
 40
9.6028843
 50
233.99167
 51
265.52055
  0
ARC
  8
0
  6
CONTINUOUS
 62
     7
 10
334.5871
 20
-21.651377
 40
0.9375
 50
36.869897
 51
143.1301
  0
ARC
  8
0
  6
CONTINUOUS
 62
     7
 10
334.5871
 20
-28.026377
 40
0.9375
 50
216.8699
 51
323.1301
  0
ARC
  8
0
  6
CONTINUOUS
 62
     7
 10
334.5871
 20
-35.526375
 40
0.9375
 50
216.8699
 51
323.1301
  0
ARC
  8
0
  6
CONTINUOUS
 62
     7
 10
334.5871
 20
-32.716763
 40
9.6028843
 50
94.479452
 51
126.00833
  0
ARC
  8
0
  6
CONTINUOUS
 62
     7
 10
334.5871
 20
-32.716763
 40
8.1028843
 50
95.310878
 51
126.00833
  0
ARC
  8
0
  6
CONTINUOUS
 62
     7
 10
334.5871
 20
-24.460993
 40
9.6028843
 50
274.47945
 51
306.00832
  0
ARC
  8
0
  6
CONTINUOUS
 62
     7
 10
40.867069
 20
-28.481489
 40
3
 50
306.00832
 51
53.991676
  0
ARC
  8
0
  6
CONTINUOUS
 62
     7
 10
40.867069
 20
-28.481489
 40
4.5
 50
306.00832
 51
53.991676
  0
ARC
  8
0
  6
CONTINUOUS
 62
     7
 10
34.867069
 20
-28.481489
 40
3
 50
126.00833
 51
233.99168
  0
ARC
  8
0
  6
CONTINUOUS
 62
     7
 10
34.867069
 20
-28.481489
 40
4.5
 50
126.00833
 51
233.99168
  0
ARC
  8
0
  6
CONTINUOUS
 62
     7
 10
37.867069
 20
-32.609375
 40
9.6028843
 50
53.991676
 51
85.520553
  0
ARC
  8
0
  6
CONTINUOUS
 62
     7
 10
37.867069
 20
-32.609375
 40
8.1028843
 50
53.991676
 51
84.689121
  0
ARC
  8
0
  6
CONTINUOUS
 62
     7
 10
37.867069
 20
-24.353605
 40
8.1028843
 50
233.99167
 51
306.00832
  0
ARC
  8
0
  6
CONTINUOUS
 62
     7
 10
37.867069
 20
-24.353605
 40
9.6028843
 50
233.99167
 51
265.52055
  0
ARC
  8
0
  6
CONTINUOUS
 62
     7
 10
37.867069
 20
-21.543989
 40
0.9375
 50
36.869897
 51
143.1301
  0
ARC
  8
0
  6
CONTINUOUS
 62
     7
 10
37.867069
 20
-27.918989
 40
0.9375
 50
216.8699
 51
323.1301
  0
ARC
  8
0
  6
CONTINUOUS
 62
     7
 10
37.867069
 20
-35.418991
 40
0.9375
 50
216.8699
 51
323.1301
  0
ARC
  8
0
  6
CONTINUOUS
 62
     7
 10
37.867069
 20
-32.609375
 40
9.6028843
 50
94.479452
 51
126.00833
  0
ARC
  8
0
  6
CONTINUOUS
 62
     7
 10
37.867069
 20
-32.609375
 40
8.1028843
 50
95.310878
 51
126.00833
  0
ARC
  8
0
  6
CONTINUOUS
 62
     7
 10
37.867069
 20
-24.353605
 40
9.6028843
 50
274.47945
 51
306.00832
  0
ARC
  8
0
  6
CONTINUOUS
 62
     7
 10
-200.65625
 20
-196.65106
 40
3.5999999
 50
306.00832
 51
53.991676
  0
ARC
  8
0
  6
CONTINUOUS
 62
     7
 10
-200.65625
 20
-196.65106
 40
5.4000001
 50
306.00832
 51
53.991676
  0
ARC
  8
0
  6
CONTINUOUS
 62
     7
 10
-207.85626
 20
-196.65106
 40
3.5999999
 50
126.00833
 51
233.99168
  0
ARC
  8
0
  6
CONTINUOUS
 62
     7
 10
-207.85626
 20
-196.65106
 40
5.4000001
 50
126.00833
 51
233.99168
  0
ARC
  8
0
  6
CONTINUOUS
 62
     7
 10
-204.25626
 20
-201.60452
 40
11.523461
 50
53.991676
 51
85.520553
  0
ARC
  8
0
  6
CONTINUOUS
 62
     7
 10
-204.25626
 20
-201.60452
 40
9.7234612
 50
53.991676
 51
84.689121
  0
ARC
  8
0
  6
CONTINUOUS
 62
     7
 10
-204.25626
 20
-191.6976
 40
9.7234612
 50
233.99167
 51
306.00832
  0
ARC
  8
0
  6
CONTINUOUS
 62
     7
 10
-204.25626
 20
-191.6976
 40
11.523461
 50
233.99167
 51
265.52055
  0
ARC
  8
0
  6
CONTINUOUS
 62
     7
 10
-204.25626
 20
-188.32607
 40
1.125
 50
36.869897
 51
143.1301
  0
ARC
  8
0
  6
CONTINUOUS
 62
     7
 10
-204.25626
 20
-195.97606
 40
1.125
 50
216.8699
 51
323.1301
  0
ARC
  8
0
  6
CONTINUOUS
 62
     7
 10
-204.25626
 20
-204.97606
 40
1.125
 50
216.8699
 51
323.1301
  0
ARC
  8
0
  6
CONTINUOUS
 62
     7
 10
-204.25626
 20
-201.60452
 40
11.523461
 50
94.479452
 51
126.00833
  0
ARC
  8
0
  6
CONTINUOUS
 62
     7
 10
-204.25626
 20
-201.60452
 40
9.7234612
 50
95.310878
 51
126.00833
  0
ARC
  8
0
  6
CONTINUOUS
 62
     7
 10
-204.25626
 20
-191.6976
 40
11.523461
 50
274.47945
 51
306.00832
  0
ARC
  8
0
  6
CONTINUOUS
 62
     7
 10
-95.806183
 20
-196.6181
 40
3.5999999
 50
306.00832
 51
53.991676
  0
ARC
  8
0
  6
CONTINUOUS
 62
     7
 10
-95.806183
 20
-196.6181
 40
5.4000001
 50
306.00832
 51
53.991676
  0
ARC
  8
0
  6
CONTINUOUS
 62
     7
 10
-103.00618
 20
-196.6181
 40
3.5999999
 50
126.00833
 51
233.99168
  0
ARC
  8
0
  6
CONTINUOUS
 62
     7
 10
-103.00618
 20
-196.6181
 40
5.4000001
 50
126.00833
 51
233.99168
  0
ARC
  8
0
  6
CONTINUOUS
 62
     7
 10
-99.406181
 20
-201.57156
 40
11.523461
 50
53.991676
 51
85.520553
  0
ARC
  8
0
  6
CONTINUOUS
 62
     7
 10
-99.406181
 20
-201.57156
 40
9.7234612
 50
53.991676
 51
84.689121
  0
ARC
  8
0
  6
CONTINUOUS
 62
     7
 10
-99.406181
 20
-191.66464
 40
9.7234612
 50
233.99167
 51
306.00832
  0
ARC
  8
0
  6
CONTINUOUS
 62
     7
 10
-99.406181
 20
-191.66464
 40
11.523461
 50
233.99167
 51
265.52055
  0
ARC
  8
0
  6
CONTINUOUS
 62
     7
 10
-99.406181
 20
-188.29311
 40
1.125
 50
36.869897
 51
143.1301
  0
ARC
  8
0
  6
CONTINUOUS
 62
     7
 10
-99.406181
 20
-195.9431
 40
1.125
 50
216.8699
 51
323.1301
  0
ARC
  8
0
  6
CONTINUOUS
 62
     7
 10
-99.406181
 20
-204.9431
 40
1.125
 50
216.8699
 51
323.1301
  0
ARC
  8
0
  6
CONTINUOUS
 62
     7
 10
-99.406181
 20
-201.57156
 40
11.523461
 50
94.479452
 51
126.00833
  0
ARC
  8
0
  6
CONTINUOUS
 62
     7
 10
-99.406181
 20
-201.57156
 40
9.7234612
 50
95.310878
 51
126.00833
  0
ARC
  8
0
  6
CONTINUOUS
 62
     7
 10
-99.406181
 20
-191.66464
 40
11.523461
 50
274.47945
 51
306.00832
  0
ARC
  8
0
  6
CONTINUOUS
 62
     7
 10
6.4246449
 20
-196.85504
 40
3.5999999
 50
306.00832
 51
53.991676
  0
ARC
  8
0
  6
CONTINUOUS
 62
     7
 10
6.4246449
 20
-196.85504
 40
5.4000001
 50
306.00832
 51
53.991676
  0
ARC
  8
0
  6
CONTINUOUS
 62
     7
 10
-0.77535486
 20
-196.85504
 40
3.5999999
 50
126.00833
 51
233.99168
  0
ARC
  8
0
  6
CONTINUOUS
 62
     7
 10
-0.77535486
 20
-196.85504
 40
5.4000001
 50
126.00833
 51
233.99168
  0
ARC
  8
0
  6
CONTINUOUS
 62
     7
 10
2.824645
 20
-201.8085
 40
11.523461
 50
53.991676
 51
85.520553
  0
ARC
  8
0
  6
CONTINUOUS
 62
     7
 10
2.824645
 20
-201.8085
 40
9.7234612
 50
53.991676
 51
84.689121
  0
ARC
  8
0
  6
CONTINUOUS
 62
     7
 10
2.824645
 20
-191.90158
 40
9.7234612
 50
233.99167
 51
306.00832
  0
ARC
  8
0
  6
CONTINUOUS
 62
     7
 10
2.824645
 20
-191.90158
 40
11.523461
 50
233.99167
 51
265.52055
  0
ARC
  8
0
  6
CONTINUOUS
 62
     7
 10
2.824645
 20
-188.53004
 40
1.125
 50
36.869897
 51
143.1301
  0
ARC
  8
0
  6
CONTINUOUS
 62
     7
 10
2.824645
 20
-196.18004
 40
1.125
 50
216.8699
 51
323.1301
  0
ARC
  8
0
  6
CONTINUOUS
 62
     7
 10
2.824645
 20
-205.18004
 40
1.125
 50
216.8699
 51
323.1301
  0
ARC
  8
0
  6
CONTINUOUS
 62
     7
 10
2.824645
 20
-201.8085
 40
11.523461
 50
94.479452
 51
126.00833
  0
ARC
  8
0
  6
CONTINUOUS
 62
     7
 10
2.824645
 20
-201.8085
 40
9.7234612
 50
95.310878
 51
126.00833
  0
ARC
  8
0
  6
CONTINUOUS
 62
     7
 10
2.824645
 20
-191.90158
 40
11.523461
 50
274.47945
 51
306.00832
  0
ARC
  8
0
  6
CONTINUOUS
 62
     7
 10
122.39507
 20
-196.89139
 40
3.5999999
 50
306.00832
 51
53.991676
  0
ARC
  8
0
  6
CONTINUOUS
 62
     7
 10
122.39507
 20
-196.89139
 40
5.4000001
 50
306.00832
 51
53.991676
  0
ARC
  8
0
  6
CONTINUOUS
 62
     7
 10
115.19508
 20
-196.89139
 40
3.5999999
 50
126.00833
 51
233.99168
  0
ARC
  8
0
  6
CONTINUOUS
 62
     7
 10
115.19508
 20
-196.89139
 40
5.4000001
 50
126.00833
 51
233.99168
  0
ARC
  8
0
  6
CONTINUOUS
 62
     7
 10
118.79507
 20
-201.84485
 40
11.523461
 50
53.991676
 51
85.520553
  0
ARC
  8
0
  6
CONTINUOUS
 62
     7
 10
118.79507
 20
-201.84485
 40
9.7234612
 50
53.991676
 51
84.689121
  0
ARC
  8
0
  6
CONTINUOUS
 62
     7
 10
118.79507
 20
-191.93793
 40
9.7234612
 50
233.99167
 51
306.00832
  0
ARC
  8
0
  6
CONTINUOUS
 62
     7
 10
118.79507
 20
-191.93793
 40
11.523461
 50
233.99167
 51
265.52055
  0
ARC
  8
0
  6
CONTINUOUS
 62
     7
 10
118.79507
 20
-188.56639
 40
1.125
 50
36.869897
 51
143.1301
  0
ARC
  8
0
  6
CONTINUOUS
 62
     7
 10
118.79507
 20
-196.21638
 40
1.125
 50
216.8699
 51
323.1301
  0
ARC
  8
0
  6
CONTINUOUS
 62
     7
 10
118.79507
 20
-205.21638
 40
1.125
 50
216.8699
 51
323.1301
  0
ARC
  8
0
  6
CONTINUOUS
 62
     7
 10
118.79507
 20
-201.84485
 40
11.523461
 50
94.479452
 51
126.00833
  0
ARC
  8
0
  6
CONTINUOUS
 62
     7
 10
118.79507
 20
-201.84485
 40
9.7234612
 50
95.310878
 51
126.00833
  0
ARC
  8
0
  6
CONTINUOUS
 62
     7
 10
118.79507
 20
-191.93793
 40
11.523461
 50
274.47945
 51
306.00832
  0
ARC
  8
0
  6
CONTINUOUS
 62
     7
 10
223.98022
 20
-196.73402
 40
3.5999999
 50
306.00832
 51
53.991676
  0
ARC
  8
0
  6
CONTINUOUS
 62
     7
 10
223.98022
 20
-196.73402
 40
5.4000001
 50
306.00832
 51
53.991676
  0
ARC
  8
0
  6
CONTINUOUS
 62
     7
 10
216.78021
 20
-196.73402
 40
3.5999999
 50
126.00833
 51
233.99168
  0
ARC
  8
0
  6
CONTINUOUS
 62
     7
 10
216.78021
 20
-196.73402
 40
5.4000001
 50
126.00833
 51
233.99168
  0
ARC
  8
0
  6
CONTINUOUS
 62
     7
 10
220.38022
 20
-201.68748
 40
11.523461
 50
53.991676
 51
85.520553
  0
ARC
  8
0
  6
CONTINUOUS
 62
     7
 10
220.38022
 20
-201.68748
 40
9.7234612
 50
53.991676
 51
84.689121
  0
ARC
  8
0
  6
CONTINUOUS
 62
     7
 10
220.38022
 20
-191.78056
 40
9.7234612
 50
233.99167
 51
306.00832
  0
ARC
  8
0
  6
CONTINUOUS
 62
     7
 10
220.38022
 20
-191.78056
 40
11.523461
 50
233.99167
 51
265.52055
  0
ARC
  8
0
  6
CONTINUOUS
 62
     7
 10
220.38022
 20
-188.40903
 40
1.125
 50
36.869897
 51
143.1301
  0
ARC
  8
0
  6
CONTINUOUS
 62
     7
 10
220.38022
 20
-196.05902
 40
1.125
 50
216.8699
 51
323.1301
  0
ARC
  8
0
  6
CONTINUOUS
 62
     7
 10
220.38022
 20
-205.05902
 40
1.125
 50
216.8699
 51
323.1301
  0
ARC
  8
0
  6
CONTINUOUS
 62
     7
 10
220.38022
 20
-201.68748
 40
11.523461
 50
94.479452
 51
126.00833
  0
ARC
  8
0
  6
CONTINUOUS
 62
     7
 10
220.38022
 20
-201.68748
 40
9.7234612
 50
95.310878
 51
126.00833
  0
ARC
  8
0
  6
CONTINUOUS
 62
     7
 10
220.38022
 20
-191.78056
 40
11.523461
 50
274.47945
 51
306.00832
  0
ARC
  8
0
  6
CONTINUOUS
 62
     7
 10
337.65445
 20
-196.80276
 40
3.5999999
 50
306.00832
 51
53.991676
  0
ARC
  8
0
  6
CONTINUOUS
 62
     7
 10
337.65445
 20
-196.80276
 40
5.4000001
 50
306.00832
 51
53.991676
  0
ARC
  8
0
  6
CONTINUOUS
 62
     7
 10
330.45444
 20
-196.80276
 40
3.5999999
 50
126.00833
 51
233.99168
  0
ARC
  8
0
  6
CONTINUOUS
 62
     7
 10
330.45444
 20
-196.80276
 40
5.4000001
 50
126.00833
 51
233.99168
  0
ARC
  8
0
  6
CONTINUOUS
 62
     7
 10
334.05444
 20
-201.75623
 40
11.523461
 50
53.991676
 51
85.520553
  0
ARC
  8
0
  6
CONTINUOUS
 62
     7
 10
334.05444
 20
-201.75623
 40
9.7234612
 50
53.991676
 51
84.689121
  0
ARC
  8
0
  6
CONTINUOUS
 62
     7
 10
334.05444
 20
-191.8493
 40
9.7234612
 50
233.99167
 51
306.00832
  0
ARC
  8
0
  6
CONTINUOUS
 62
     7
 10
334.05444
 20
-191.8493
 40
11.523461
 50
233.99167
 51
265.52055
  0
ARC
  8
0
  6
CONTINUOUS
 62
     7
 10
334.05444
 20
-188.47777
 40
1.125
 50
36.869897
 51
143.1301
  0
ARC
  8
0
  6
CONTINUOUS
 62
     7
 10
334.05444
 20
-196.12776
 40
1.125
 50
216.8699
 51
323.1301
  0
ARC
  8
0
  6
CONTINUOUS
 62
     7
 10
334.05444
 20
-205.12776
 40
1.125
 50
216.8699
 51
323.1301
  0
ARC
  8
0
  6
CONTINUOUS
 62
     7
 10
334.05444
 20
-201.75623
 40
11.523461
 50
94.479452
 51
126.00833
  0
ARC
  8
0
  6
CONTINUOUS
 62
     7
 10
334.05444
 20
-201.75623
 40
9.7234612
 50
95.310878
 51
126.00833
  0
ARC
  8
0
  6
CONTINUOUS
 62
     7
 10
334.05444
 20
-191.8493
 40
11.523461
 50
274.47945
 51
306.00832
  0
ARC
  8
0
  6
CONTINUOUS
 62
     7
 10
529.65875
 20
174.11673
 40
3.5999999
 50
306.00832
 51
53.991676
  0
ARC
  8
0
  6
CONTINUOUS
 62
     7
 10
529.65875
 20
174.11673
 40
5.4000001
 50
306.00832
 51
53.991676
  0
ARC
  8
0
  6
CONTINUOUS
 62
     7
 10
522.4588
 20
174.11673
 40
3.5999999
 50
126.00833
 51
233.99168
  0
ARC
  8
0
  6
CONTINUOUS
 62
     7
 10
522.4588
 20
174.11673
 40
5.4000001
 50
126.00833
 51
233.99168
  0
ARC
  8
0
  6
CONTINUOUS
 62
     7
 10
526.05878
 20
169.16327
 40
11.523461
 50
53.991676
 51
85.520553
  0
ARC
  8
0
  6
CONTINUOUS
 62
     7
 10
526.05878
 20
169.16327
 40
9.7234612
 50
53.991676
 51
84.689121
  0
ARC
  8
0
  6
CONTINUOUS
 62
     7
 10
526.05878
 20
179.07019
 40
9.7234612
 50
233.99167
 51
306.00832
  0
ARC
  8
0
  6
CONTINUOUS
 62
     7
 10
526.05878
 20
179.07019
 40
11.523461
 50
233.99167
 51
265.52055
  0
ARC
  8
0
  6
CONTINUOUS
 62
     7
 10
526.05878
 20
182.44173
 40
1.125
 50
36.869897
 51
143.1301
  0
ARC
  8
0
  6
CONTINUOUS
 62
     7
 10
526.05878
 20
174.79173
 40
1.125
 50
216.8699
 51
323.1301
  0
ARC
  8
0
  6
CONTINUOUS
 62
     7
 10
526.05878
 20
165.79173
 40
1.125
 50
216.8699
 51
323.1301
  0
ARC
  8
0
  6
CONTINUOUS
 62
     7
 10
526.05878
 20
169.16327
 40
11.523461
 50
94.479452
 51
126.00833
  0
ARC
  8
0
  6
CONTINUOUS
 62
     7
 10
526.05878
 20
169.16327
 40
9.7234612
 50
95.310878
 51
126.00833
  0
ARC
  8
0
  6
CONTINUOUS
 62
     7
 10
526.05878
 20
179.07019
 40
11.523461
 50
274.47945
 51
306.00832
  0
ARC
  8
0
  6
CONTINUOUS
 62
     7
 10
636.55188
 20
175.72327
 40
3.5999999
 50
306.00832
 51
53.991676
  0
ARC
  8
0
  6
CONTINUOUS
 62
     7
 10
636.55188
 20
175.72327
 40
5.4000001
 50
306.00832
 51
53.991676
  0
ARC
  8
0
  6
CONTINUOUS
 62
     7
 10
629.35193
 20
175.72327
 40
3.5999999
 50
126.00833
 51
233.99168
  0
ARC
  8
0
  6
CONTINUOUS
 62
     7
 10
629.35193
 20
175.72327
 40
5.4000001
 50
126.00833
 51
233.99168
  0
ARC
  8
0
  6
CONTINUOUS
 62
     7
 10
632.9519
 20
170.76981
 40
11.523461
 50
53.991676
 51
85.520553
  0
ARC
  8
0
  6
CONTINUOUS
 62
     7
 10
632.9519
 20
170.76981
 40
9.7234612
 50
53.991676
 51
84.689121
  0
ARC
  8
0
  6
CONTINUOUS
 62
     7
 10
632.9519
 20
180.67673
 40
9.7234612
 50
233.99167
 51
306.00832
  0
ARC
  8
0
  6
CONTINUOUS
 62
     7
 10
632.9519
 20
180.67673
 40
11.523461
 50
233.99167
 51
265.52055
  0
ARC
  8
0
  6
CONTINUOUS
 62
     7
 10
632.9519
 20
184.04826
 40
1.125
 50
36.869897
 51
143.1301
  0
ARC
  8
0
  6
CONTINUOUS
 62
     7
 10
632.9519
 20
176.39827
 40
1.125
 50
216.8699
 51
323.1301
  0
ARC
  8
0
  6
CONTINUOUS
 62
     7
 10
632.9519
 20
167.39827
 40
1.125
 50
216.8699
 51
323.1301
  0
ARC
  8
0
  6
CONTINUOUS
 62
     7
 10
632.9519
 20
170.76981
 40
11.523461
 50
94.479452
 51
126.00833
  0
ARC
  8
0
  6
CONTINUOUS
 62
     7
 10
632.9519
 20
170.76981
 40
9.7234612
 50
95.310878
 51
126.00833
  0
ARC
  8
0
  6
CONTINUOUS
 62
     7
 10
632.9519
 20
180.67673
 40
11.523461
 50
274.47945
 51
306.00832
  0
ARC
  8
0
  6
CONTINUOUS
 62
     7
 10
751.06244
 20
173.11684
 40
3.5999999
 50
306.00832
 51
53.991676
  0
ARC
  8
0
  6
CONTINUOUS
 62
     7
 10
751.06244
 20
173.11684
 40
5.4000001
 50
306.00832
 51
53.991676
  0
ARC
  8
0
  6
CONTINUOUS
 62
     7
 10
743.86249
 20
173.11684
 40
3.5999999
 50
126.00833
 51
233.99168
  0
ARC
  8
0
  6
CONTINUOUS
 62
     7
 10
743.86249
 20
173.11684
 40
5.4000001
 50
126.00833
 51
233.99168
  0
ARC
  8
0
  6
CONTINUOUS
 62
     7
 10
747.46246
 20
168.16338
 40
11.523461
 50
53.991676
 51
85.520553
  0
ARC
  8
0
  6
CONTINUOUS
 62
     7
 10
747.46246
 20
168.16338
 40
9.7234612
 50
53.991676
 51
84.689121
  0
ARC
  8
0
  6
CONTINUOUS
 62
     7
 10
747.46246
 20
178.0703
 40
9.7234612
 50
233.99167
 51
306.00832
  0
ARC
  8
0
  6
CONTINUOUS
 62
     7
 10
747.46246
 20
178.0703
 40
11.523461
 50
233.99167
 51
265.52055
  0
ARC
  8
0
  6
CONTINUOUS
 62
     7
 10
747.46246
 20
181.44183
 40
1.125
 50
36.869897
 51
143.1301
  0
ARC
  8
0
  6
CONTINUOUS
 62
     7
 10
747.46246
 20
173.79184
 40
1.125
 50
216.8699
 51
323.1301
  0
ARC
  8
0
  6
CONTINUOUS
 62
     7
 10
747.46246
 20
164.79184
 40
1.125
 50
216.8699
 51
323.1301
  0
ARC
  8
0
  6
CONTINUOUS
 62
     7
 10
747.46246
 20
168.16338
 40
11.523461
 50
94.479452
 51
126.00833
  0
ARC
  8
0
  6
CONTINUOUS
 62
     7
 10
747.46246
 20
168.16338
 40
9.7234612
 50
95.310878
 51
126.00833
  0
ARC
  8
0
  6
CONTINUOUS
 62
     7
 10
747.46246
 20
178.0703
 40
11.523461
 50
274.47945
 51
306.00832
  0
ARC
  8
0
  6
CONTINUOUS
 62
     7
 10
867.54803
 20
174.414
 40
3.5999999
 50
306.00832
 51
53.991676
  0
ARC
  8
0
  6
CONTINUOUS
 62
     7
 10
867.54803
 20
174.414
 40
5.4000001
 50
306.00832
 51
53.991676
  0
ARC
  8
0
  6
CONTINUOUS
 62
     7
 10
860.34808
 20
174.414
 40
3.5999999
 50
126.00833
 51
233.99168
  0
ARC
  8
0
  6
CONTINUOUS
 62
     7
 10
860.34808
 20
174.414
 40
5.4000001
 50
126.00833
 51
233.99168
  0
ARC
  8
0
  6
CONTINUOUS
 62
     7
 10
863.94806
 20
169.46054
 40
11.523461
 50
53.991676
 51
85.520553
  0
ARC
  8
0
  6
CONTINUOUS
 62
     7
 10
863.94806
 20
169.46054
 40
9.7234612
 50
53.991676
 51
84.689121
  0
ARC
  8
0
  6
CONTINUOUS
 62
     7
 10
863.94806
 20
179.36746
 40
9.7234612
 50
233.99167
 51
306.00832
  0
ARC
  8
0
  6
CONTINUOUS
 62
     7
 10
863.94806
 20
179.36746
 40
11.523461
 50
233.99167
 51
265.52055
  0
ARC
  8
0
  6
CONTINUOUS
 62
     7
 10
863.94806
 20
182.739
 40
1.125
 50
36.869897
 51
143.1301
  0
ARC
  8
0
  6
CONTINUOUS
 62
     7
 10
863.94806
 20
175.089
 40
1.125
 50
216.8699
 51
323.1301
  0
ARC
  8
0
  6
CONTINUOUS
 62
     7
 10
863.94806
 20
166.089
 40
1.125
 50
216.8699
 51
323.1301
  0
ARC
  8
0
  6
CONTINUOUS
 62
     7
 10
863.94806
 20
169.46054
 40
11.523461
 50
94.479452
 51
126.00833
  0
ARC
  8
0
  6
CONTINUOUS
 62
     7
 10
863.94806
 20
169.46054
 40
9.7234612
 50
95.310878
 51
126.00833
  0
ARC
  8
0
  6
CONTINUOUS
 62
     7
 10
863.94806
 20
179.36746
 40
11.523461
 50
274.47945
 51
306.00832
  0
ARC
  8
0
  6
CONTINUOUS
 62
     7
 10
991.13818
 20
174.07707
 40
3.5999999
 50
306.00832
 51
53.991676
  0
ARC
  8
0
  6
CONTINUOUS
 62
     7
 10
991.13818
 20
174.07707
 40
5.4000001
 50
306.00832
 51
53.991676
  0
ARC
  8
0
  6
CONTINUOUS
 62
     7
 10
983.93823
 20
174.07707
 40
3.5999999
 50
126.00833
 51
233.99168
  0
ARC
  8
0
  6
CONTINUOUS
 62
     7
 10
983.93823
 20
174.07707
 40
5.4000001
 50
126.00833
 51
233.99168
  0
ARC
  8
0
  6
CONTINUOUS
 62
     7
 10
987.53821
 20
169.12361
 40
11.523461
 50
53.991676
 51
85.520553
  0
ARC
  8
0
  6
CONTINUOUS
 62
     7
 10
987.53821
 20
169.12361
 40
9.7234612
 50
53.991676
 51
84.689121
  0
ARC
  8
0
  6
CONTINUOUS
 62
     7
 10
987.53821
 20
179.03053
 40
9.7234612
 50
233.99167
 51
306.00832
  0
ARC
  8
0
  6
CONTINUOUS
 62
     7
 10
987.53821
 20
179.03053
 40
11.523461
 50
233.99167
 51
265.52055
  0
ARC
  8
0
  6
CONTINUOUS
 62
     7
 10
987.53821
 20
182.40207
 40
1.125
 50
36.869897
 51
143.1301
  0
ARC
  8
0
  6
CONTINUOUS
 62
     7
 10
987.53821
 20
174.75208
 40
1.125
 50
216.8699
 51
323.1301
  0
ARC
  8
0
  6
CONTINUOUS
 62
     7
 10
987.53821
 20
165.75208
 40
1.125
 50
216.8699
 51
323.1301
  0
ARC
  8
0
  6
CONTINUOUS
 62
     7
 10
987.53821
 20
169.12361
 40
11.523461
 50
94.479452
 51
126.00833
  0
ARC
  8
0
  6
CONTINUOUS
 62
     7
 10
987.53821
 20
169.12361
 40
9.7234612
 50
95.310878
 51
126.00833
  0
ARC
  8
0
  6
CONTINUOUS
 62
     7
 10
987.53821
 20
179.03053
 40
11.523461
 50
274.47945
 51
306.00832
  0
ARC
  8
0
  6
CONTINUOUS
 62
     7
 10
1107.1704
 20
175.00946
 40
3.5999999
 50
306.00832
 51
53.991676
  0
ARC
  8
0
  6
CONTINUOUS
 62
     7
 10
1107.1704
 20
175.00946
 40
5.4000001
 50
306.00832
 51
53.991676
  0
ARC
  8
0
  6
CONTINUOUS
 62
     7
 10
1099.9705
 20
175.00946
 40
3.5999999
 50
126.00833
 51
233.99168
  0
ARC
  8
0
  6
CONTINUOUS
 62
     7
 10
1099.9705
 20
175.00946
 40
5.4000001
 50
126.00833
 51
233.99168
  0
ARC
  8
0
  6
CONTINUOUS
 62
     7
 10
1103.5704
 20
170.056
 40
11.523461
 50
53.991676
 51
85.520553
  0
ARC
  8
0
  6
CONTINUOUS
 62
     7
 10
1103.5704
 20
170.056
 40
9.7234612
 50
53.991676
 51
84.689121
  0
ARC
  8
0
  6
CONTINUOUS
 62
     7
 10
1103.5704
 20
179.96292
 40
9.7234612
 50
233.99167
 51
306.00832
  0
ARC
  8
0
  6
CONTINUOUS
 62
     7
 10
1103.5704
 20
179.96292
 40
11.523461
 50
233.99167
 51
265.52055
  0
ARC
  8
0
  6
CONTINUOUS
 62
     7
 10
1103.5704
 20
183.33446
 40
1.125
 50
36.869897
 51
143.1301
  0
ARC
  8
0
  6
CONTINUOUS
 62
     7
 10
1103.5704
 20
175.68446
 40
1.125
 50
216.8699
 51
323.1301
  0
ARC
  8
0
  6
CONTINUOUS
 62
     7
 10
1103.5704
 20
166.68446
 40
1.125
 50
216.8699
 51
323.1301
  0
ARC
  8
0
  6
CONTINUOUS
 62
     7
 10
1103.5704
 20
170.056
 40
11.523461
 50
94.479452
 51
126.00833
  0
ARC
  8
0
  6
CONTINUOUS
 62
     7
 10
1103.5704
 20
170.056
 40
9.7234612
 50
95.310878
 51
126.00833
  0
ARC
  8
0
  6
CONTINUOUS
 62
     7
 10
1103.5704
 20
179.96292
 40
11.523461
 50
274.47945
 51
306.00832
  0
ARC
  8
0
  6
CONTINUOUS
 62
     7
 10
1231.2185
 20
173.95491
 40
3.5999999
 50
306.00832
 51
53.991676
  0
ARC
  8
0
  6
CONTINUOUS
 62
     7
 10
1231.2185
 20
173.95491
 40
5.4000001
 50
306.00832
 51
53.991676
  0
ARC
  8
0
  6
CONTINUOUS
 62
     7
 10
1224.0186
 20
173.95491
 40
3.5999999
 50
126.00833
 51
233.99168
  0
ARC
  8
0
  6
CONTINUOUS
 62
     7
 10
1224.0186
 20
173.95491
 40
5.4000001
 50
126.00833
 51
233.99168
  0
ARC
  8
0
  6
CONTINUOUS
 62
     7
 10
1227.6185
 20
169.00145
 40
11.523461
 50
53.991676
 51
85.520553
  0
ARC
  8
0
  6
CONTINUOUS
 62
     7
 10
1227.6185
 20
169.00145
 40
9.7234612
 50
53.991676
 51
84.689121
  0
ARC
  8
0
  6
CONTINUOUS
 62
     7
 10
1227.6185
 20
178.90837
 40
9.7234612
 50
233.99167
 51
306.00832
  0
ARC
  8
0
  6
CONTINUOUS
 62
     7
 10
1227.6185
 20
178.90837
 40
11.523461
 50
233.99167
 51
265.52055
  0
ARC
  8
0
  6
CONTINUOUS
 62
     7
 10
1227.6185
 20
182.27991
 40
1.125
 50
36.869897
 51
143.1301
  0
ARC
  8
0
  6
CONTINUOUS
 62
     7
 10
1227.6185
 20
174.62991
 40
1.125
 50
216.8699
 51
323.1301
  0
ARC
  8
0
  6
CONTINUOUS
 62
     7
 10
1227.6185
 20
165.62991
 40
1.125
 50
216.8699
 51
323.1301
  0
ARC
  8
0
  6
CONTINUOUS
 62
     7
 10
1227.6185
 20
169.00145
 40
11.523461
 50
94.479452
 51
126.00833
  0
ARC
  8
0
  6
CONTINUOUS
 62
     7
 10
1227.6185
 20
169.00145
 40
9.7234612
 50
95.310878
 51
126.00833
  0
ARC
  8
0
  6
CONTINUOUS
 62
     7
 10
1227.6185
 20
178.90837
 40
11.523461
 50
274.47945
 51
306.00832
  0
ARC
  8
0
  6
CONTINUOUS
 62
     7
 10
752.5675
 20
-4.3134789
 40
4.8000002
 50
306.00832
 51
53.991676
  0
ARC
  8
0
  6
CONTINUOUS
 62
     7
 10
752.5675
 20
-4.3134789
 40
7.1999998
 50
306.00832
 51
53.991676
  0
ARC
  8
0
  6
CONTINUOUS
 62
     7
 10
742.96753
 20
-4.3134789
 40
4.8000002
 50
126.00833
 51
233.99168
  0
ARC
  8
0
  6
CONTINUOUS
 62
     7
 10
742.96753
 20
-4.3134789
 40
7.1999998
 50
126.00833
 51
233.99168
  0
ARC
  8
0
  6
CONTINUOUS
 62
     7
 10
747.76752
 20
-10.918095
 40
15.364615
 50
53.991676
 51
85.520553
  0
ARC
  8
0
  6
CONTINUOUS
 62
     7
 10
747.76752
 20
-10.918095
 40
12.964616
 50
53.991676
 51
84.689121
  0
ARC
  8
0
  6
CONTINUOUS
 62
     7
 10
747.76752
 20
2.2911363
 40
15.364615
 50
233.99167
 51
265.52055
  0
ARC
  8
0
  6
CONTINUOUS
 62
     7
 10
747.76752
 20
6.7865214
 40
1.5
 50
36.869897
 51
143.1301
  0
ARC
  8
0
  6
CONTINUOUS
 62
     7
 10
747.76752
 20
-3.4134789
 40
1.5
 50
216.8699
 51
323.1301
  0
ARC
  8
0
  6
CONTINUOUS
 62
     7
 10
747.76752
 20
-15.413479
 40
1.5
 50
216.8699
 51
323.1301
  0
ARC
  8
0
  6
CONTINUOUS
 62
     7
 10
747.76752
 20
2.2911363
 40
12.964616
 50
233.99167
 51
306.00832
  0
ARC
  8
0
  6
CONTINUOUS
 62
     7
 10
747.76752
 20
2.2911363
 40
15.364615
 50
274.47945
 51
306.00832
  0
ARC
  8
0
  6
CONTINUOUS
 62
     7
 10
747.76752
 20
-10.918095
 40
12.964616
 50
95.310878
 51
126.00833
  0
ARC
  8
0
  6
CONTINUOUS
 62
     7
 10
747.76752
 20
-10.918095
 40
15.364615
 50
94.479452
 51
126.00833
  0
ARC
  8
0
  6
CONTINUOUS
 62
     7
 10
637.46252
 20
-5.3634791
 40
4.8000002
 50
306.00832
 51
53.991676
  0
ARC
  8
0
  6
CONTINUOUS
 62
     7
 10
637.46252
 20
-5.3634791
 40
7.1999998
 50
306.00832
 51
53.991676
  0
ARC
  8
0
  6
CONTINUOUS
 62
     7
 10
627.86255
 20
-5.3634791
 40
4.8000002
 50
126.00833
 51
233.99168
  0
ARC
  8
0
  6
CONTINUOUS
 62
     7
 10
627.86255
 20
-5.3634791
 40
7.1999998
 50
126.00833
 51
233.99168
  0
ARC
  8
0
  6
CONTINUOUS
 62
     7
 10
632.66254
 20
-11.968094
 40
15.364615
 50
53.991676
 51
85.520553
  0
ARC
  8
0
  6
CONTINUOUS
 62
     7
 10
632.66254
 20
-11.968094
 40
12.964616
 50
53.991676
 51
84.689121
  0
ARC
  8
0
  6
CONTINUOUS
 62
     7
 10
632.66254
 20
1.2411361
 40
15.364615
 50
233.99167
 51
265.52055
  0
ARC
  8
0
  6
CONTINUOUS
 62
     7
 10
632.66254
 20
5.7365212
 40
1.5
 50
36.869897
 51
143.1301
  0
ARC
  8
0
  6
CONTINUOUS
 62
     7
 10
632.66254
 20
-4.463479
 40
1.5
 50
216.8699
 51
323.1301
  0
ARC
  8
0
  6
CONTINUOUS
 62
     7
 10
632.66254
 20
-16.46348
 40
1.5
 50
216.8699
 51
323.1301
  0
ARC
  8
0
  6
CONTINUOUS
 62
     7
 10
632.66254
 20
1.2411361
 40
12.964616
 50
233.99167
 51
306.00832
  0
ARC
  8
0
  6
CONTINUOUS
 62
     7
 10
632.66254
 20
1.2411361
 40
15.364615
 50
274.47945
 51
306.00832
  0
ARC
  8
0
  6
CONTINUOUS
 62
     7
 10
632.66254
 20
-11.968094
 40
12.964616
 50
95.310878
 51
126.00833
  0
ARC
  8
0
  6
CONTINUOUS
 62
     7
 10
632.66254
 20
-11.968094
 40
15.364615
 50
94.479452
 51
126.00833
  0
ARC
  8
0
  6
CONTINUOUS
 62
     7
 10
531.15424
 20
-5.0043883
 40
4.8000002
 50
306.00832
 51
53.991676
  0
ARC
  8
0
  6
CONTINUOUS
 62
     7
 10
531.15424
 20
-5.0043883
 40
7.1999998
 50
306.00832
 51
53.991676
  0
ARC
  8
0
  6
CONTINUOUS
 62
     7
 10
521.55426
 20
-5.0043883
 40
4.8000002
 50
126.00833
 51
233.99168
  0
ARC
  8
0
  6
CONTINUOUS
 62
     7
 10
521.55426
 20
-5.0043883
 40
7.1999998
 50
126.00833
 51
233.99168
  0
ARC
  8
0
  6
CONTINUOUS
 62
     7
 10
526.35425
 20
-11.609003
 40
15.364615
 50
53.991676
 51
85.520553
  0
ARC
  8
0
  6
CONTINUOUS
 62
     7
 10
526.35425
 20
-11.609003
 40
12.964616
 50
53.991676
 51
84.689121
  0
ARC
  8
0
  6
CONTINUOUS
 62
     7
 10
526.35425
 20
1.6002269
 40
15.364615
 50
233.99167
 51
265.52055
  0
ARC
  8
0
  6
CONTINUOUS
 62
     7
 10
526.35425
 20
6.095612
 40
1.5
 50
36.869897
 51
143.1301
  0
ARC
  8
0
  6
CONTINUOUS
 62
     7
 10
526.35425
 20
-4.1043882
 40
1.5
 50
216.8699
 51
323.1301
  0
ARC
  8
0
  6
CONTINUOUS
 62
     7
 10
526.35425
 20
-16.104389
 40
1.5
 50
216.8699
 51
323.1301
  0
ARC
  8
0
  6
CONTINUOUS
 62
     7
 10
526.35425
 20
1.6002269
 40
12.964616
 50
233.99167
 51
306.00832
  0
ARC
  8
0
  6
CONTINUOUS
 62
     7
 10
526.35425
 20
1.6002269
 40
15.364615
 50
274.47945
 51
306.00832
  0
ARC
  8
0
  6
CONTINUOUS
 62
     7
 10
526.35425
 20
-11.609003
 40
12.964616
 50
95.310878
 51
126.00833
  0
ARC
  8
0
  6
CONTINUOUS
 62
     7
 10
526.35425
 20
-11.609003
 40
15.364615
 50
94.479452
 51
126.00833
  0
ARC
  8
0
  6
CONTINUOUS
 62
     7
 10
869.46368
 20
-5.713479
 40
4.8000002
 50
306.00832
 51
53.991676
  0
ARC
  8
0
  6
CONTINUOUS
 62
     7
 10
869.46368
 20
-5.713479
 40
7.1999998
 50
306.00832
 51
53.991676
  0
ARC
  8
0
  6
CONTINUOUS
 62
     7
 10
859.86371
 20
-5.713479
 40
4.8000002
 50
126.00833
 51
233.99168
  0
ARC
  8
0
  6
CONTINUOUS
 62
     7
 10
859.86371
 20
-5.713479
 40
7.1999998
 50
126.00833
 51
233.99168
  0
ARC
  8
0
  6
CONTINUOUS
 62
     7
 10
864.6637
 20
-12.318094
 40
15.364615
 50
53.991676
 51
85.520553
  0
ARC
  8
0
  6
CONTINUOUS
 62
     7
 10
864.6637
 20
-12.318094
 40
12.964616
 50
53.991676
 51
84.689121
  0
ARC
  8
0
  6
CONTINUOUS
 62
     7
 10
864.6637
 20
0.89113617
 40
15.364615
 50
233.99167
 51
265.52055
  0
ARC
  8
0
  6
CONTINUOUS
 62
     7
 10
864.6637
 20
5.3865213
 40
1.5
 50
36.869897
 51
143.1301
  0
ARC
  8
0
  6
CONTINUOUS
 62
     7
 10
864.6637
 20
-4.8134789
 40
1.5
 50
216.8699
 51
323.1301
  0
ARC
  8
0
  6
CONTINUOUS
 62
     7
 10
864.6637
 20
-16.81348
 40
1.5
 50
216.8699
 51
323.1301
  0
ARC
  8
0
  6
CONTINUOUS
 62
     7
 10
864.6637
 20
0.89113617
 40
12.964616
 50
233.99167
 51
306.00832
  0
ARC
  8
0
  6
CONTINUOUS
 62
     7
 10
864.6637
 20
0.89113617
 40
15.364615
 50
274.47945
 51
306.00832
  0
ARC
  8
0
  6
CONTINUOUS
 62
     7
 10
864.6637
 20
-12.318094
 40
12.964616
 50
95.310878
 51
126.00833
  0
ARC
  8
0
  6
CONTINUOUS
 62
     7
 10
864.6637
 20
-12.318094
 40
15.364615
 50
94.479452
 51
126.00833
  0
ARC
  8
0
  6
CONTINUOUS
 62
     7
 10
990.49298
 20
-4.6634789
 40
4.8000002
 50
306.00832
 51
53.991676
  0
ARC
  8
0
  6
CONTINUOUS
 62
     7
 10
990.49298
 20
-4.6634789
 40
7.1999998
 50
306.00832
 51
53.991676
  0
ARC
  8
0
  6
CONTINUOUS
 62
     7
 10
980.89301
 20
-4.6634789
 40
4.8000002
 50
126.00833
 51
233.99168
  0
ARC
  8
0
  6
CONTINUOUS
 62
     7
 10
980.89301
 20
-4.6634789
 40
7.1999998
 50
126.00833
 51
233.99168
  0
ARC
  8
0
  6
CONTINUOUS
 62
     7
 10
985.69299
 20
-11.268094
 40
15.364615
 50
53.991676
 51
85.520553
  0
ARC
  8
0
  6
CONTINUOUS
 62
     7
 10
985.69299
 20
-11.268094
 40
12.964616
 50
53.991676
 51
84.689121
  0
ARC
  8
0
  6
CONTINUOUS
 62
     7
 10
985.69299
 20
1.9411364
 40
15.364615
 50
233.99167
 51
265.52055
  0
ARC
  8
0
  6
CONTINUOUS
 62
     7
 10
985.69299
 20
6.4365215
 40
1.5
 50
36.869897
 51
143.1301
  0
ARC
  8
0
  6
CONTINUOUS
 62
     7
 10
985.69299
 20
-3.7634788
 40
1.5
 50
216.8699
 51
323.1301
  0
ARC
  8
0
  6
CONTINUOUS
 62
     7
 10
985.69299
 20
-15.763479
 40
1.5
 50
216.8699
 51
323.1301
  0
ARC
  8
0
  6
CONTINUOUS
 62
     7
 10
985.69299
 20
1.9411364
 40
12.964616
 50
233.99167
 51
306.00832
  0
ARC
  8
0
  6
CONTINUOUS
 62
     7
 10
985.69299
 20
1.9411364
 40
15.364615
 50
274.47945
 51
306.00832
  0
ARC
  8
0
  6
CONTINUOUS
 62
     7
 10
985.69299
 20
-11.268094
 40
12.964616
 50
95.310878
 51
126.00833
  0
ARC
  8
0
  6
CONTINUOUS
 62
     7
 10
985.69299
 20
-11.268094
 40
15.364615
 50
94.479452
 51
126.00833
  0
ARC
  8
0
  6
CONTINUOUS
 62
     7
 10
1108.332
 20
-6.4134789
 40
4.8000002
 50
306.00832
 51
53.991676
  0
ARC
  8
0
  6
CONTINUOUS
 62
     7
 10
1108.332
 20
-6.4134789
 40
7.1999998
 50
306.00832
 51
53.991676
  0
ARC
  8
0
  6
CONTINUOUS
 62
     7
 10
1098.7319
 20
-6.4134789
 40
4.8000002
 50
126.00833
 51
233.99168
  0
ARC
  8
0
  6
CONTINUOUS
 62
     7
 10
1098.7319
 20
-6.4134789
 40
7.1999998
 50
126.00833
 51
233.99168
  0
ARC
  8
0
  6
CONTINUOUS
 62
     7
 10
1103.532
 20
-13.018094
 40
15.364615
 50
53.991676
 51
85.520553
  0
ARC
  8
0
  6
CONTINUOUS
 62
     7
 10
1103.532
 20
-13.018094
 40
12.964616
 50
53.991676
 51
84.689121
  0
ARC
  8
0
  6
CONTINUOUS
 62
     7
 10
1103.532
 20
0.19113636
 40
15.364615
 50
233.99167
 51
265.52055
  0
ARC
  8
0
  6
CONTINUOUS
 62
     7
 10
1103.532
 20
4.6865215
 40
1.5
 50
36.869897
 51
143.1301
  0
ARC
  8
0
  6
CONTINUOUS
 62
     7
 10
1103.532
 20
-5.5134788
 40
1.5
 50
216.8699
 51
323.1301
  0
ARC
  8
0
  6
CONTINUOUS
 62
     7
 10
1103.532
 20
-17.513479
 40
1.5
 50
216.8699
 51
323.1301
  0
ARC
  8
0
  6
CONTINUOUS
 62
     7
 10
1103.532
 20
0.19113636
 40
12.964616
 50
233.99167
 51
306.00832
  0
ARC
  8
0
  6
CONTINUOUS
 62
     7
 10
1103.532
 20
0.19113636
 40
15.364615
 50
274.47945
 51
306.00832
  0
ARC
  8
0
  6
CONTINUOUS
 62
     7
 10
1103.532
 20
-13.018094
 40
12.964616
 50
95.310878
 51
126.00833
  0
ARC
  8
0
  6
CONTINUOUS
 62
     7
 10
1103.532
 20
-13.018094
 40
15.364615
 50
94.479452
 51
126.00833
  0
ARC
  8
0
  6
CONTINUOUS
 62
     7
 10
1230.611
 20
-6.7634792
 40
4.8000002
 50
306.00832
 51
53.991676
  0
ARC
  8
0
  6
CONTINUOUS
 62
     7
 10
1230.611
 20
-6.7634792
 40
7.1999998
 50
306.00832
 51
53.991676
  0
ARC
  8
0
  6
CONTINUOUS
 62
     7
 10
1221.0109
 20
-6.7634792
 40
4.8000002
 50
126.00833
 51
233.99168
  0
ARC
  8
0
  6
CONTINUOUS
 62
     7
 10
1221.0109
 20
-6.7634792
 40
7.1999998
 50
126.00833
 51
233.99168
  0
ARC
  8
0
  6
CONTINUOUS
 62
     7
 10
1225.8109
 20
-13.368094
 40
15.364615
 50
53.991676
 51
85.520553
  0
ARC
  8
0
  6
CONTINUOUS
 62
     7
 10
1225.8109
 20
-13.368094
 40
12.964616
 50
53.991676
 51
84.689121
  0
ARC
  8
0
  6
CONTINUOUS
 62
     7
 10
1225.8109
 20
-0.15886402
 40
15.364615
 50
233.99167
 51
265.52055
  0
ARC
  8
0
  6
CONTINUOUS
 62
     7
 10
1225.8109
 20
4.3365211
 40
1.5
 50
36.869897
 51
143.1301
  0
ARC
  8
0
  6
CONTINUOUS
 62
     7
 10
1225.8109
 20
-5.8634791
 40
1.5
 50
216.8699
 51
323.1301
  0
ARC
  8
0
  6
CONTINUOUS
 62
     7
 10
1225.8109
 20
-17.86348
 40
1.5
 50
216.8699
 51
323.1301
  0
ARC
  8
0
  6
CONTINUOUS
 62
     7
 10
1225.8109
 20
-0.15886402
 40
12.964616
 50
233.99167
 51
306.00832
  0
ARC
  8
0
  6
CONTINUOUS
 62
     7
 10
1225.8109
 20
-0.15886402
 40
15.364615
 50
274.47945
 51
306.00832
  0
ARC
  8
0
  6
CONTINUOUS
 62
     7
 10
1225.8109
 20
-13.368094
 40
12.964616
 50
95.310878
 51
126.00833
  0
ARC
  8
0
  6
CONTINUOUS
 62
     7
 10
1225.8109
 20
-13.368094
 40
15.364615
 50
94.479452
 51
126.00833
  0
ARC
  8
0
  6
CONTINUOUS
 62
     7
 10
545.26251
 20
-203.50705
 40
4.8000002
 50
306.00832
 51
53.991676
  0
ARC
  8
0
  6
CONTINUOUS
 62
     7
 10
545.26251
 20
-203.50705
 40
7.1999998
 50
306.00832
 51
53.991676
  0
ARC
  8
0
  6
CONTINUOUS
 62
     7
 10
535.66254
 20
-203.50705
 40
4.8000002
 50
126.00833
 51
233.99168
  0
ARC
  8
0
  6
CONTINUOUS
 62
     7
 10
535.66254
 20
-203.50705
 40
7.1999998
 50
126.00833
 51
233.99168
  0
ARC
  8
0
  6
CONTINUOUS
 62
     7
 10
540.46252
 20
-210.11166
 40
15.364615
 50
53.991676
 51
85.520553
  0
ARC
  8
0
  6
CONTINUOUS
 62
     7
 10
540.46252
 20
-210.11166
 40
12.964616
 50
53.991676
 51
84.689121
  0
ARC
  8
0
  6
CONTINUOUS
 62
     7
 10
540.46252
 20
-196.90244
 40
15.364615
 50
233.99167
 51
265.52055
  0
ARC
  8
0
  6
CONTINUOUS
 62
     7
 10
540.46252
 20
-192.40704
 40
1.5
 50
36.869897
 51
143.1301
  0
ARC
  8
0
  6
CONTINUOUS
 62
     7
 10
540.46252
 20
-202.60706
 40
1.5
 50
216.8699
 51
323.1301
  0
ARC
  8
0
  6
CONTINUOUS
 62
     7
 10
540.46252
 20
-214.60706
 40
1.5
 50
216.8699
 51
323.1301
  0
ARC
  8
0
  6
CONTINUOUS
 62
     7
 10
540.46252
 20
-196.90244
 40
12.964616
 50
233.99167
 51
306.00832
  0
ARC
  8
0
  6
CONTINUOUS
 62
     7
 10
540.46252
 20
-196.90244
 40
15.364615
 50
274.47945
 51
306.00832
  0
ARC
  8
0
  6
CONTINUOUS
 62
     7
 10
540.46252
 20
-210.11166
 40
12.964616
 50
95.310878
 51
126.00833
  0
ARC
  8
0
  6
CONTINUOUS
 62
     7
 10
540.46252
 20
-210.11166
 40
15.364615
 50
94.479452
 51
126.00833
  0
ARC
  8
0
  6
CONTINUOUS
 62
     7
 10
675.36755
 20
-203.15706
 40
4.8000002
 50
306.00832
 51
53.991676
  0
ARC
  8
0
  6
CONTINUOUS
 62
     7
 10
675.36755
 20
-203.15706
 40
7.1999998
 50
306.00832
 51
53.991676
  0
ARC
  8
0
  6
CONTINUOUS
 62
     7
 10
665.76758
 20
-203.15706
 40
4.8000002
 50
126.00833
 51
233.99168
  0
ARC
  8
0
  6
CONTINUOUS
 62
     7
 10
665.76758
 20
-203.15706
 40
7.1999998
 50
126.00833
 51
233.99168
  0
ARC
  8
0
  6
CONTINUOUS
 62
     7
 10
670.56757
 20
-209.76167
 40
15.364615
 50
53.991676
 51
85.520553
  0
ARC
  8
0
  6
CONTINUOUS
 62
     7
 10
670.56757
 20
-209.76167
 40
12.964616
 50
53.991676
 51
84.689121
  0
ARC
  8
0
  6
CONTINUOUS
 62
     7
 10
670.56757
 20
-196.55244
 40
15.364615
 50
233.99167
 51
265.52055
  0
ARC
  8
0
  6
CONTINUOUS
 62
     7
 10
670.56757
 20
-192.05705
 40
1.5
 50
36.869897
 51
143.1301
  0
ARC
  8
0
  6
CONTINUOUS
 62
     7
 10
670.56757
 20
-202.25706
 40
1.5
 50
216.8699
 51
323.1301
  0
ARC
  8
0
  6
CONTINUOUS
 62
     7
 10
670.56757
 20
-214.25706
 40
1.5
 50
216.8699
 51
323.1301
  0
ARC
  8
0
  6
CONTINUOUS
 62
     7
 10
670.56757
 20
-196.55244
 40
12.964616
 50
233.99167
 51
306.00832
  0
ARC
  8
0
  6
CONTINUOUS
 62
     7
 10
670.56757
 20
-196.55244
 40
15.364615
 50
274.47945
 51
306.00832
  0
ARC
  8
0
  6
CONTINUOUS
 62
     7
 10
670.56757
 20
-209.76167
 40
12.964616
 50
95.310878
 51
126.00833
  0
ARC
  8
0
  6
CONTINUOUS
 62
     7
 10
670.56757
 20
-209.76167
 40
15.364615
 50
94.479452
 51
126.00833
  0
ARC
  8
0
  6
CONTINUOUS
 62
     7
 10
812.26367
 20
-204.55705
 40
4.8000002
 50
306.00832
 51
53.991676
  0
ARC
  8
0
  6
CONTINUOUS
 62
     7
 10
812.26367
 20
-204.55705
 40
7.1999998
 50
306.00832
 51
53.991676
  0
ARC
  8
0
  6
CONTINUOUS
 62
     7
 10
802.6637
 20
-204.55705
 40
4.8000002
 50
126.00833
 51
233.99168
  0
ARC
  8
0
  6
CONTINUOUS
 62
     7
 10
802.6637
 20
-204.55705
 40
7.1999998
 50
126.00833
 51
233.99168
  0
ARC
  8
0
  6
CONTINUOUS
 62
     7
 10
807.46368
 20
-211.16167
 40
15.364615
 50
53.991676
 51
85.520553
  0
ARC
  8
0
  6
CONTINUOUS
 62
     7
 10
807.46368
 20
-211.16167
 40
12.964616
 50
53.991676
 51
84.689121
  0
ARC
  8
0
  6
CONTINUOUS
 62
     7
 10
807.46368
 20
-197.95244
 40
15.364615
 50
233.99167
 51
265.52055
  0
ARC
  8
0
  6
CONTINUOUS
 62
     7
 10
807.46368
 20
-193.45705
 40
1.5
 50
36.869897
 51
143.1301
  0
ARC
  8
0
  6
CONTINUOUS
 62
     7
 10
807.46368
 20
-203.65706
 40
1.5
 50
216.8699
 51
323.1301
  0
ARC
  8
0
  6
CONTINUOUS
 62
     7
 10
807.46368
 20
-215.65706
 40
1.5
 50
216.8699
 51
323.1301
  0
ARC
  8
0
  6
CONTINUOUS
 62
     7
 10
807.46368
 20
-197.95244
 40
12.964616
 50
233.99167
 51
306.00832
  0
ARC
  8
0
  6
CONTINUOUS
 62
     7
 10
807.46368
 20
-197.95244
 40
15.364615
 50
274.47945
 51
306.00832
  0
ARC
  8
0
  6
CONTINUOUS
 62
     7
 10
807.46368
 20
-211.16167
 40
12.964616
 50
95.310878
 51
126.00833
  0
ARC
  8
0
  6
CONTINUOUS
 62
     7
 10
807.46368
 20
-211.16167
 40
15.364615
 50
94.479452
 51
126.00833
  0
ARC
  8
0
  6
CONTINUOUS
 62
     7
 10
943.99298
 20
-204.20706
 40
4.8000002
 50
306.00832
 51
53.991676
  0
ARC
  8
0
  6
CONTINUOUS
 62
     7
 10
943.99298
 20
-204.20706
 40
7.1999998
 50
306.00832
 51
53.991676
  0
ARC
  8
0
  6
CONTINUOUS
 62
     7
 10
934.39301
 20
-204.20706
 40
4.8000002
 50
126.00833
 51
233.99168
  0
ARC
  8
0
  6
CONTINUOUS
 62
     7
 10
934.39301
 20
-204.20706
 40
7.1999998
 50
126.00833
 51
233.99168
  0
ARC
  8
0
  6
CONTINUOUS
 62
     7
 10
939.19299
 20
-210.81168
 40
15.364615
 50
53.991676
 51
85.520553
  0
ARC
  8
0
  6
CONTINUOUS
 62
     7
 10
939.19299
 20
-210.81168
 40
12.964616
 50
53.991676
 51
84.689121
  0
ARC
  8
0
  6
CONTINUOUS
 62
     7
 10
939.19299
 20
-197.60245
 40
15.364615
 50
233.99167
 51
265.52055
  0
ARC
  8
0
  6
CONTINUOUS
 62
     7
 10
939.19299
 20
-193.10706
 40
1.5
 50
36.869897
 51
143.1301
  0
ARC
  8
0
  6
CONTINUOUS
 62
     7
 10
939.19299
 20
-203.30707
 40
1.5
 50
216.8699
 51
323.1301
  0
ARC
  8
0
  6
CONTINUOUS
 62
     7
 10
939.19299
 20
-215.30707
 40
1.5
 50
216.8699
 51
323.1301
  0
ARC
  8
0
  6
CONTINUOUS
 62
     7
 10
939.19299
 20
-197.60245
 40
12.964616
 50
233.99167
 51
306.00832
  0
ARC
  8
0
  6
CONTINUOUS
 62
     7
 10
939.19299
 20
-197.60245
 40
15.364615
 50
274.47945
 51
306.00832
  0
ARC
  8
0
  6
CONTINUOUS
 62
     7
 10
939.19299
 20
-210.81168
 40
12.964616
 50
95.310878
 51
126.00833
  0
ARC
  8
0
  6
CONTINUOUS
 62
     7
 10
939.19299
 20
-210.81168
 40
15.364615
 50
94.479452
 51
126.00833
  0
ARC
  8
0
  6
CONTINUOUS
 62
     7
 10
1082.2312
 20
-204.90706
 40
4.8000002
 50
306.00832
 51
53.991676
  0
ARC
  8
0
  6
CONTINUOUS
 62
     7
 10
1082.2312
 20
-204.90706
 40
7.1999998
 50
306.00832
 51
53.991676
  0
ARC
  8
0
  6
CONTINUOUS
 62
     7
 10
1072.6311
 20
-204.90706
 40
4.8000002
 50
126.00833
 51
233.99168
  0
ARC
  8
0
  6
CONTINUOUS
 62
     7
 10
1072.6311
 20
-204.90706
 40
7.1999998
 50
126.00833
 51
233.99168
  0
ARC
  8
0
  6
CONTINUOUS
 62
     7
 10
1077.4312
 20
-211.51167
 40
15.364615
 50
53.991676
 51
85.520553
  0
ARC
  8
0
  6
CONTINUOUS
 62
     7
 10
1077.4312
 20
-211.51167
 40
12.964616
 50
53.991676
 51
84.689121
  0
ARC
  8
0
  6
CONTINUOUS
 62
     7
 10
1077.4312
 20
-198.30244
 40
15.364615
 50
233.99167
 51
265.52055
  0
ARC
  8
0
  6
CONTINUOUS
 62
     7
 10
1077.4312
 20
-193.80705
 40
1.5
 50
36.869897
 51
143.1301
  0
ARC
  8
0
  6
CONTINUOUS
 62
     7
 10
1077.4312
 20
-204.00706
 40
1.5
 50
216.8699
 51
323.1301
  0
ARC
  8
0
  6
CONTINUOUS
 62
     7
 10
1077.4312
 20
-216.00706
 40
1.5
 50
216.8699
 51
323.1301
  0
ARC
  8
0
  6
CONTINUOUS
 62
     7
 10
1077.4312
 20
-198.30244
 40
12.964616
 50
233.99167
 51
306.00832
  0
ARC
  8
0
  6
CONTINUOUS
 62
     7
 10
1077.4312
 20
-198.30244
 40
15.364615
 50
274.47945
 51
306.00832
  0
ARC
  8
0
  6
CONTINUOUS
 62
     7
 10
1077.4312
 20
-211.51167
 40
12.964616
 50
95.310878
 51
126.00833
  0
ARC
  8
0
  6
CONTINUOUS
 62
     7
 10
1077.4312
 20
-211.51167
 40
15.364615
 50
94.479452
 51
126.00833
  0
ARC
  8
0
  6
CONTINUOUS
 62
     7
 10
1218.761
 20
-204.20706
 40
4.8000002
 50
306.00832
 51
53.991676
  0
ARC
  8
0
  6
CONTINUOUS
 62
     7
 10
1218.761
 20
-204.20706
 40
7.1999998
 50
306.00832
 51
53.991676
  0
ARC
  8
0
  6
CONTINUOUS
 62
     7
 10
1209.1609
 20
-204.20706
 40
4.8000002
 50
126.00833
 51
233.99168
  0
ARC
  8
0
  6
CONTINUOUS
 62
     7
 10
1209.1609
 20
-204.20706
 40
7.1999998
 50
126.00833
 51
233.99168
  0
ARC
  8
0
  6
CONTINUOUS
 62
     7
 10
1213.9609
 20
-210.81168
 40
15.364615
 50
53.991676
 51
85.520553
  0
ARC
  8
0
  6
CONTINUOUS
 62
     7
 10
1213.9609
 20
-210.81168
 40
12.964616
 50
53.991676
 51
84.689121
  0
ARC
  8
0
  6
CONTINUOUS
 62
     7
 10
1213.9609
 20
-197.60245
 40
15.364615
 50
233.99167
 51
265.52055
  0
ARC
  8
0
  6
CONTINUOUS
 62
     7
 10
1213.9609
 20
-193.10706
 40
1.5
 50
36.869897
 51
143.1301
  0
ARC
  8
0
  6
CONTINUOUS
 62
     7
 10
1213.9609
 20
-203.30707
 40
1.5
 50
216.8699
 51
323.1301
  0
ARC
  8
0
  6
CONTINUOUS
 62
     7
 10
1213.9609
 20
-215.30707
 40
1.5
 50
216.8699
 51
323.1301
  0
ARC
  8
0
  6
CONTINUOUS
 62
     7
 10
1213.9609
 20
-197.60245
 40
12.964616
 50
233.99167
 51
306.00832
  0
ARC
  8
0
  6
CONTINUOUS
 62
     7
 10
1213.9609
 20
-197.60245
 40
15.364615
 50
274.47945
 51
306.00832
  0
ARC
  8
0
  6
CONTINUOUS
 62
     7
 10
1213.9609
 20
-210.81168
 40
12.964616
 50
95.310878
 51
126.00833
  0
ARC
  8
0
  6
CONTINUOUS
 62
     7
 10
1213.9609
 20
-210.81168
 40
15.364615
 50
94.479452
 51
126.00833
  0
TEXT
  8
0
  6
CONTINUOUS
 62
     7
 10
791.89994
 20
272.07016
 40
10
 41
0.84237086
  1
径違いソケット　ＲＳ　４×３／４～６×５
  0
TEXT
  8
0
  6
CONTINUOUS
 62
     7
 10
-96.008823
 20
266.58456
 40
10
 41
0.84195842
  1
径違いソケット　ＲＳ　１／４×１／８～３×２１／２
  0
TEXT
  8
0
  6
CONTINUOUS
 62
     7
 10
-360.26578
 20
230.37453
 40
3.2
 41
0.84633858
  1
１／４×１／８
  0
TEXT
  8
0
  6
CONTINUOUS
 62
     7
 10
-292.9011
 20
232.24105
 40
3.2
 41
0.84633858
  1
３／８×１／８
  0
TEXT
  8
0
  6
CONTINUOUS
 62
     7
 10
-224.00925
 20
232.41074
 40
3.2
 41
0.84633858
  1
３／８×１／４
  0
TEXT
  8
0
  6
CONTINUOUS
 62
     7
 10
-157.71334
 20
234.29861
 40
3.2
 41
0.84633858
  1
１／２×１／４
  0
TEXT
  8
0
  6
CONTINUOUS
 62
     7
 10
-89.499631
 20
233.78281
 40
3.2
 41
0.84633858
  1
１／２×３／８
  0
TEXT
  8
0
  6
CONTINUOUS
 62
     7
 10
-18.964858
 20
236.87757
 40
3.2
 41
0.84633858
  1
３／４×３／８
  0
TEXT
  8
0
  6
CONTINUOUS
 62
     7
 10
51.827815
 20
237.65127
 40
3.2
 41
0.84633858
  1
３／４×１／２
  0
TEXT
  8
0
  6
CONTINUOUS
 62
     7
 10
116.55991
 20
241.00391
 40
3.2
 41
0.84891105
  1
１×３／８
  0
TEXT
  8
0
  6
CONTINUOUS
 62
     7
 10
185.16046
 20
241.51971
 40
3.2
 41
0.84891105
  1
１×１／２
  0
TEXT
  8
0
  6
CONTINUOUS
 62
     7
 10
260.33737
 20
242.03551
 40
3.2
 41
0.84891105
  1
１×３／４
  0
TEXT
  8
0
  6
CONTINUOUS
 62
     7
 10
328.55108
 20
245.90395
 40
3.2
 41
0.84555565
  1
１１／４×１／２
  0
TEXT
  8
0
  6
CONTINUOUS
 62
     7
 10
-369.16474
 20
141.0299
 40
3.2
 41
0.84555565
  1
１１／４×３／４
  0
TEXT
  8
0
  6
CONTINUOUS
 62
     7
 10
-274.3509
 20
138.50419
 40
3.2
 41
0.84739783
  1
１１／４×１
  0
TEXT
  8
0
  6
CONTINUOUS
 62
     7
 10
-187.42579
 20
141.95057
 40
3.2
 41
0.84555565
  1
１１／２×１／２
  0
TEXT
  8
0
  6
CONTINUOUS
 62
     7
 10
-103.94706
 20
141.1847
 40
3.2
 41
0.84555565
  1
１１／２×３／４
  0
TEXT
  8
0
  6
CONTINUOUS
 62
     7
 10
-19.51102
 20
141.37617
 40
3.2
 41
0.84739783
  1
１１／２×１
  0
TEXT
  8
0
  6
CONTINUOUS
 62
     7
 10
68.371394
 20
141.56763
 40
3.2
 41
0.8449534
  1
１１／２×１１／４
  0
TEXT
  8
0
  6
CONTINUOUS
 62
     7
 10
156.06234
 20
147.31158
 40
3.2
 41
0.84891105
  1
２×１／２
  0
TEXT
  8
0
  6
CONTINUOUS
 62
     7
 10
243.46611
 20
147.69451
 40
3.2
 41
0.84891105
  1
２×３／４
  0
TEXT
  8
0
  6
CONTINUOUS
 62
     7
 10
327.61495
 20
147.12011
 40
3.2
 41
0.85534224
  1
２×１
  0
TEXT
  8
0
  6
CONTINUOUS
 62
     7
 10
-364.83552
 20
11.138563
 40
3.2
 41
0.84739783
  1
２×１１／４
  0
TEXT
  8
0
  6
CONTINUOUS
 62
     7
 10
-264.09134
 20
10.955224
 40
3.2
 41
0.84739783
  1
２×１１／２
  0
TEXT
  8
0
  6
CONTINUOUS
 62
     7
 10
-170.13064
 20
20.855473
 40
3.2
 41
0.84555565
  1
２１／２×１／２
  0
TEXT
  8
0
  6
CONTINUOUS
 62
     7
 10
-72.961522
 20
21.405487
 40
3.2
 41
0.84555565
  1
２１／２×３／４
  0
TEXT
  8
0
  6
CONTINUOUS
 62
     7
 10
26.865985
 20
21.222149
 40
3.2
 41
0.84739783
  1
２１／２×１
  0
TEXT
  8
0
  6
CONTINUOUS
 62
     7
 10
127.88519
 20
20.855473
 40
3.2
 41
0.8449534
  1
２１／２×１１／４
  0
TEXT
  8
0
  6
CONTINUOUS
 62
     7
 10
228.72106
 20
20.672135
 40
3.2
 41
0.8449534
  1
２１／２×１１／２
  0
TEXT
  8
0
  6
CONTINUOUS
 62
     7
 10
329.74026
 20
21.405487
 40
3.2
 41
0.84739783
  1
２１／２×２
  0
TEXT
  8
0
  6
CONTINUOUS
 62
     7
 10
-328.23829
 20
-139.50933
 40
3.2
 41
0.84891105
  1
３×１／２
  0
TEXT
  8
0
  6
CONTINUOUS
 62
     7
 10
-220.15731
 20
-140.24624
 40
3.2
 41
0.84891105
  1
３×３／４
  0
TEXT
  8
0
  6
CONTINUOUS
 62
     7
 10
-112.07634
 20
-139.50933
 40
3.2
 41
0.85534224
  1
３×１
  0
TEXT
  8
0
  6
CONTINUOUS
 62
     7
 10
-10.750425
 20
-139.50933
 40
3.2
 41
0.84739783
  1
３×１１／４
  0
TEXT
  8
0
  6
CONTINUOUS
 62
     7
 10
104.82252
 20
-139.2637
 40
3.2
 41
0.84739783
  1
３×１１／２
  0
TEXT
  8
0
  6
CONTINUOUS
 62
     7
 10
208.72764
 20
-138.77241
 40
3.2
 41
0.85534224
  1
３×２
  0
TEXT
  8
0
  6
CONTINUOUS
 62
     7
 10
333.38922
 20
-140.0006
 40
3.2
 41
0.84739783
  1
３×２１／２
  0
TEXT
  8
0
  6
CONTINUOUS
 62
     7
 10
505.37261
 20
259.74915
 40
3.2
 41
0.84891105
  1
４×３／４
  0
TEXT
  8
0
  6
CONTINUOUS
 62
     7
 10
613.68515
 20
260.00104
 40
3.2
 41
0.85534224
  1
４×１
  0
TEXT
  8
0
  6
CONTINUOUS
 62
     7
 10
729.55441
 20
260.00104
 40
3.2
 41
0.84739783
  1
４×１１／４
  0
TEXT
  8
0
  6
CONTINUOUS
 62
     7
 10
843.03073
 20
258.99348
 40
3.2
 41
0.84739783
  1
４×１１／２
  0
TEXT
  8
0
  6
CONTINUOUS
 62
     7
 10
971.24258
 20
260.00104
 40
3.2
 41
0.85534224
  1
４×２
  0
TEXT
  8
0
  6
CONTINUOUS
 62
     7
 10
1090.7642
 20
260.25294
 40
3.2
 41
0.84739783
  1
４×２１／２
  0
TEXT
  8
0
  6
CONTINUOUS
 62
     7
 10
1219.228
 20
261.2605
 40
3.2
 41
0.85534224
  1
４×３
  0
TEXT
  8
0
  6
CONTINUOUS
 62
     7
 10
509.69619
 20
99.049796
 40
3.2
 41
0.85534224
  1
５×１
  0
TEXT
  8
0
  6
CONTINUOUS
 62
     7
 10
611.00277
 20
97.716818
 40
3.2
 41
0.84739783
  1
５×１１／４
  0
TEXT
  8
0
  6
CONTINUOUS
 62
     7
 10
724.19509
 20
98.827635
 40
3.2
 41
0.84739783
  1
５×１１／２
  0
TEXT
  8
0
  6
CONTINUOUS
 62
     7
 10
852.82778
 20
98.161147
 40
3.2
 41
0.85534224
  1
５×２
  0
TEXT
  8
0
  6
CONTINUOUS
 62
     7
 10
966.46444
 20
97.49465
 40
3.2
 41
0.84739783
  1
５×２１／２
  0
TEXT
  8
0
  6
CONTINUOUS
 62
     7
 10
1099.2072
 20
97.716818
 40
3.2
 41
0.85534224
  1
５×３
  0
TEXT
  8
0
  6
CONTINUOUS
 62
     7
 10
1220.1753
 20
98.605467
 40
3.2
 41
0.85534224
  1
５×４
  0
TEXT
  8
0
  6
CONTINUOUS
 62
     7
 10
513.47451
 20
-86.125101
 40
3.2
 41
0.84739783
  1
６×１１／２
  0
TEXT
  8
0
  6
CONTINUOUS
 62
     7
 10
645.94662
 20
-85.956125
 40
3.2
 41
0.85534224
  1
６×２
  0
TEXT
  8
0
  6
CONTINUOUS
 62
     7
 10
785.3464
 20
-86.294069
 40
3.2
 41
0.84739783
  1
６×２１／２
  0
TEXT
  8
0
  6
CONTINUOUS
 62
     7
 10
912.49594
 20
-85.956125
 40
3.2
 41
0.85534224
  1
６×３
  0
TEXT
  8
0
  6
CONTINUOUS
 62
     7
 10
1060.0063
 20
-86.294069
 40
3.2
 41
0.85534224
  1
６×４
  0
TEXT
  8
0
  6
CONTINUOUS
 62
     7
 10
1200.7579
 20
-86.294069
 40
3.2
 41
0.85534224
  1
６×５
  0
ENDSEC
  0
EOF
