  0
SECTION
  2
HEADER
  9
$EXTMAX
 10
297.25922
 20
211.66544
  9
$EXTMIN
 10
-297.25922
 20
-210.82214
  0
ENDSEC
  0
SECTION
  2
TABLES
  0
TABLE
  2
LTYPE
 70
    22
  0
LTYPE
  2
CONTINUOUS
 70
    64
  3
Solid line
 72
    65
 73
     0
 40
0.000000
  0
LTYPE
  2
DASHED
 70
    64
  3
__ __ __ __ __ __ __ __ __ __ __ __ __ __ __
 72
    65
 73
     2
 40
3.500000
 49
2.000000
 49
-1.500000
  0
LTYPE
  2
CENTER
 70
    64
  3
____ _ ____ _ ____ _ ____ _ ____ _ ____ _ ____
 72
    65
 73
     4
 40
17.500000
 49
13.000000
 49
-1.500000
 49
1.500000
 49
-1.500000
  0
LTYPE
  2
PHANTOM
 70
    64
  3
_____ _ _ _____ _ _ _____ _ _ _____ _ _ ____  
 72
    65
 73
     6
 40
15.500000
 49
8.000000
 49
-1.500000
 49
1.500000
 49
-1.500000
 49
1.500000
 49
-1.500000
  0
LTYPE
  2
DOT
 70
    64
  3
. . . . . . . . . . . . . . . . . . . . . . . .
 72
    65
 73
     2
 40
0.25
 49
0.0
 49
-0.25
  0
ENDTAB
  0
TABLE
  2
LAYER
 70
     1
  0
LAYER
  2
0
 70
     0
 62
     7
  6
CONTINUOUS
  0
ENDTAB
  0
TABLE
  2
STYLE
 70
     1
  0
STYLE
  2
STANDARD
 70
     0
 40
0.000000
 41
1.000000
 50
0.000000
 71
     0
 42
0.200000
  3
txt
  4
BIGFONT
  0
ENDTAB
  0
TABLE
  2
VIEW
 70
     0
  0
ENDTAB
  0
ENDSEC
  0
SECTION
  2
BLOCKS
  0
ENDSEC
  0
SECTION
  2
ENTITIES
  0
POINT
  8
0
  6
CONTINUOUS
 62
     7
 10
0
 20
0
  0
POINT
  8
0
  6
CONTINUOUS
 62
     7
 10
-297
 20
-210
  0
POINT
  8
0
  6
CONTINUOUS
 62
     7
 10
297
 20
-210
  0
POINT
  8
0
  6
CONTINUOUS
 62
     7
 10
-297
 20
210
  0
POINT
  8
0
  6
CONTINUOUS
 62
     7
 10
297
 20
210
  0
POINT
  8
0
  6
CONTINUOUS
 62
     7
 10
-241.35158
 20
157.14948
  0
POINT
  8
0
  6
CONTINUOUS
 62
     7
 10
-241.37862
 20
142.94301
  0
POINT
  8
0
  6
CONTINUOUS
 62
     7
 10
-171.3221
 20
157.14948
  0
POINT
  8
0
  6
CONTINUOUS
 62
     7
 10
-171.32349
 20
139.10503
  0
POINT
  8
0
  6
CONTINUOUS
 62
     7
 10
-99.625259
 20
157.98315
  0
POINT
  8
0
  6
CONTINUOUS
 62
     7
 10
-99.736404
 20
139.09602
  0
POINT
  8
0
  6
CONTINUOUS
 62
     7
 10
-28.762106
 20
158.81685
  0
POINT
  8
0
  6
CONTINUOUS
 62
     7
 10
-28.748446
 20
138.30504
  0
POINT
  8
0
  6
CONTINUOUS
 62
     7
 10
45.435791
 20
155.4821
  0
POINT
  8
0
  6
CONTINUOUS
 62
     7
 10
45.303307
 20
134.50456
  0
POINT
  8
0
  6
CONTINUOUS
 62
     7
 10
135.47368
 20
157.14948
  0
POINT
  8
0
  6
CONTINUOUS
 62
     7
 10
135.39565
 20
137.00934
  0
POINT
  8
0
  6
CONTINUOUS
 62
     7
 10
219.6758
 20
156.3158
  0
POINT
  8
0
  6
CONTINUOUS
 62
     7
 10
219.79794
 20
134.35997
  0
POINT
  8
0
  6
CONTINUOUS
 62
     7
 10
-242.18526
 20
59.608421
  0
POINT
  8
0
  6
CONTINUOUS
 62
     7
 10
-241.99554
 20
36.457466
  0
POINT
  8
0
  6
CONTINUOUS
 62
     7
 10
-147.14526
 20
62.109474
  0
POINT
  8
0
  6
CONTINUOUS
 62
     7
 10
-147.03798
 20
37.888859
  0
POINT
  8
0
  6
CONTINUOUS
 62
     7
 10
-43.768421
 20
60.442104
  0
POINT
  8
0
  6
CONTINUOUS
 62
     7
 10
-43.806606
 20
32.330296
  0
POINT
  8
0
  6
CONTINUOUS
 62
     7
 10
57.107368
 20
62.109474
  0
POINT
  8
0
  6
CONTINUOUS
 62
     7
 10
57.459995
 20
33.453167
  0
POINT
  8
0
  6
CONTINUOUS
 62
     7
 10
161.3179
 20
61.275791
  0
POINT
  8
0
  6
CONTINUOUS
 62
     7
 10
161.64885
 20
36.057217
  0
POINT
  8
0
  6
CONTINUOUS
 62
     7
 10
-247.18736
 20
-33.76421
  0
POINT
  8
0
  6
CONTINUOUS
 62
     7
 10
-247.09023
 20
-62.032784
  0
POINT
  8
0
  6
CONTINUOUS
 62
     7
 10
-150.48
 20
-31.263159
  0
POINT
  8
0
  6
CONTINUOUS
 62
     7
 10
-150.40094
 20
-60.435715
  0
POINT
  8
0
  6
CONTINUOUS
 62
     7
 10
-51.27158
 20
-31.263159
  0
POINT
  8
0
  6
CONTINUOUS
 62
     7
 10
-51.22385
 20
-64.592705
  0
POINT
  8
0
  6
CONTINUOUS
 62
     7
 10
59.608421
 20
-32.930527
  0
POINT
  8
0
  6
CONTINUOUS
 62
     7
 10
59.871899
 20
-59.070839
  0
POINT
  8
0
  6
CONTINUOUS
 62
     7
 10
176.3242
 20
-29.595789
  0
POINT
  8
0
  6
CONTINUOUS
 62
     7
 10
176.35715
 20
-58.277649
  0
POINT
  8
0
  6
CONTINUOUS
 62
     7
 10
-230.51369
 20
-134.64
  0
POINT
  8
0
  6
CONTINUOUS
 62
     7
 10
-230.17494
 20
-164.94467
  0
POINT
  8
0
  6
CONTINUOUS
 62
     7
 10
-97.957893
 20
-135.47368
  0
POINT
  8
0
  6
CONTINUOUS
 62
     7
 10
-98.161362
 20
-170.8396
  0
POINT
  8
0
  6
CONTINUOUS
 62
     7
 10
37.932632
 20
-133.80632
  0
POINT
  8
0
  6
CONTINUOUS
 62
     7
 10
37.810383
 20
-172.78778
  0
LINE
  8
0
  6
CONTINUOUS
 62
     7
 10
287
 20
200
 11
287
 21
-200
  0
LINE
  8
0
  6
CONTINUOUS
 62
     7
 10
-287
 20
200
 11
287
 21
200
  0
LINE
  8
0
  6
CONTINUOUS
 62
     7
 10
-287
 20
200
 11
-287
 21
-200
  0
LINE
  8
0
  6
CONTINUOUS
 62
     7
 10
-287
 20
-200
 11
287
 21
-200
  0
LINE
  8
0
  6
CONTINUOUS
 62
     7
 10
-231.85159
 20
166.64948
 11
-219.35159
 21
166.64948
  0
LINE
  8
0
  6
CONTINUOUS
 62
     7
 10
-227.85159
 20
147.64948
 11
-219.35159
 21
147.64948
  0
LINE
  8
0
  6
CONTINUOUS
 62
     7
 10
-252.85158
 20
145.64948
 11
-252.85158
 21
137.14948
  0
LINE
  8
0
  6
CONTINUOUS
 62
     7
 10
-229.85159
 20
145.64948
 11
-229.85159
 21
137.14948
  0
LINE
  8
0
  6
CENTER
 62
     7
 10
-241.35158
 20
145.58241
 11
-241.35158
 21
133.14948
  0
LINE
  8
0
  6
CENTER
 62
     7
 10
-229.78453
 20
157.14948
 11
-215.35159
 21
157.14948
  0
LINE
  8
0
  6
CONTINUOUS
 62
     7
 10
-219.35159
 20
166.64948
 11
-219.35159
 21
147.64948
  0
LINE
  8
0
  6
CONTINUOUS
 62
     7
 10
-252.85158
 20
137.14948
 11
-229.85159
 21
137.14948
  0
LINE
  8
0
  6
CONTINUOUS
 62
     7
 10
-157.8221
 20
144.64948
 11
-157.8221
 21
133.14948
  0
LINE
  8
0
  6
CONTINUOUS
 62
     7
 10
-154.8221
 20
147.64948
 11
-147.3221
 21
147.64948
  0
LINE
  8
0
  6
CONTINUOUS
 62
     7
 10
-184.8221
 20
144.64948
 11
-184.8221
 21
133.14948
  0
LINE
  8
0
  6
CONTINUOUS
 62
     7
 10
-162.8221
 20
166.64948
 11
-147.3221
 21
166.64948
  0
LINE
  8
0
  6
CENTER
 62
     7
 10
-171.3221
 20
144.37032
 11
-171.3221
 21
128.94948
  0
LINE
  8
0
  6
CENTER
 62
     7
 10
-158.54294
 20
157.14948
 11
-143.3221
 21
157.14948
  0
LINE
  8
0
  6
CONTINUOUS
 62
     7
 10
-184.8221
 20
133.14948
 11
-157.8221
 21
133.14948
  0
LINE
  8
0
  6
CONTINUOUS
 62
     7
 10
-147.3221
 20
166.64948
 11
-147.3221
 21
147.64948
  0
LINE
  8
0
  6
CONTINUOUS
 62
     7
 10
-83.125244
 20
146.48315
 11
-74.625244
 21
146.48315
  0
LINE
  8
0
  6
CONTINUOUS
 62
     7
 10
-87.125244
 20
169.48315
 11
-74.625244
 21
169.48315
  0
LINE
  8
0
  6
CENTER
 62
     7
 10
-99.625259
 20
143.43156
 11
-99.625259
 21
127.78316
  0
LINE
  8
0
  6
CENTER
 62
     7
 10
-85.073685
 20
157.98315
 11
-70.625244
 21
157.98315
  0
LINE
  8
0
  6
CONTINUOUS
 62
     7
 10
-113.12526
 20
143.48315
 11
-113.12526
 21
131.98315
  0
LINE
  8
0
  6
CONTINUOUS
 62
     7
 10
-86.125244
 20
143.48315
 11
-86.125244
 21
131.98315
  0
LINE
  8
0
  6
CONTINUOUS
 62
     7
 10
-74.625244
 20
169.48315
 11
-74.625244
 21
146.48315
  0
LINE
  8
0
  6
CONTINUOUS
 62
     7
 10
-113.12526
 20
131.98315
 11
-86.125244
 21
131.98315
  0
LINE
  8
0
  6
CONTINUOUS
 62
     7
 10
-8.2620745
 20
147.31685
 11
-0.76207477
 21
147.31685
  0
LINE
  8
0
  6
CONTINUOUS
 62
     7
 10
-19.262075
 20
170.31685
 11
-0.76207477
 21
170.31685
  0
LINE
  8
0
  6
CENTER
 62
     7
 10
-14.490956
 20
158.81685
 11
3.2379253
 21
158.81685
  0
LINE
  8
0
  6
CENTER
 62
     7
 10
-28.762106
 20
144.54581
 11
-28.762106
 21
126.61686
  0
LINE
  8
0
  6
CONTINUOUS
 62
     7
 10
-12.262105
 20
143.31686
 11
-12.262105
 21
130.81686
  0
LINE
  8
0
  6
CONTINUOUS
 62
     7
 10
-45.262089
 20
144.31686
 11
-45.262089
 21
130.81686
  0
LINE
  8
0
  6
CONTINUOUS
 62
     7
 10
-45.262089
 20
130.81686
 11
-12.262105
 21
130.81686
  0
LINE
  8
0
  6
CONTINUOUS
 62
     7
 10
-0.76207477
 20
170.31685
 11
-0.76207477
 21
147.31685
  0
LINE
  8
0
  6
CONTINUOUS
 62
     7
 10
61.935791
 20
137.98212
 11
61.935791
 21
126.48212
  0
LINE
  8
0
  6
CONTINUOUS
 62
     7
 10
28.935804
 20
137.98212
 11
28.935804
 21
126.48212
  0
LINE
  8
0
  6
CONTINUOUS
 62
     7
 10
59.935791
 20
168.9821
 11
75.435791
 21
168.9821
  0
LINE
  8
0
  6
CONTINUOUS
 62
     7
 10
65.935791
 20
141.9821
 11
75.435791
 21
141.9821
  0
LINE
  8
0
  6
CENTER
 62
     7
 10
63.254028
 20
155.4821
 11
79.635788
 21
155.4821
  0
LINE
  8
0
  6
CENTER
 62
     7
 10
45.435791
 20
137.66388
 11
45.435791
 21
122.28213
  0
LINE
  8
0
  6
CONTINUOUS
 62
     7
 10
75.435791
 20
168.9821
 11
75.435791
 21
141.9821
  0
LINE
  8
0
  6
CONTINUOUS
 62
     7
 10
28.935804
 20
126.48212
 11
61.935791
 21
126.48212
  0
LINE
  8
0
  6
CONTINUOUS
 62
     7
 10
114.97369
 20
143.64948
 11
114.97369
 21
127.14948
  0
LINE
  8
0
  6
CONTINUOUS
 62
     7
 10
155.97368
 20
141.64948
 11
155.97368
 21
127.14948
  0
LINE
  8
0
  6
CENTER
 62
     7
 10
135.47368
 20
141.68622
 11
135.47368
 21
122.94948
  0
LINE
  8
0
  6
CENTER
 62
     7
 10
150.93694
 20
157.14948
 11
171.47368
 21
157.14948
  0
LINE
  8
0
  6
CONTINUOUS
 62
     7
 10
159.97368
 20
145.64948
 11
167.47368
 21
145.64948
  0
LINE
  8
0
  6
CONTINUOUS
 62
     7
 10
139.97368
 20
168.64948
 11
167.47368
 21
168.64948
  0
LINE
  8
0
  6
CONTINUOUS
 62
     7
 10
114.97369
 20
127.14948
 11
155.97368
 21
127.14948
  0
LINE
  8
0
  6
CONTINUOUS
 62
     7
 10
167.47368
 20
168.64948
 11
167.47368
 21
145.64948
  0
LINE
  8
0
  6
CONTINUOUS
 62
     7
 10
240.1758
 20
137.81581
 11
240.1758
 21
124.3158
  0
LINE
  8
0
  6
CENTER
 62
     7
 10
236.24638
 20
156.3158
 11
256.87579
 21
156.3158
  0
LINE
  8
0
  6
CENTER
 62
     7
 10
219.6758
 20
139.74516
 11
219.6758
 21
120.11581
  0
LINE
  8
0
  6
CONTINUOUS
 62
     7
 10
245.1758
 20
142.8158
 11
252.6758
 21
142.8158
  0
LINE
  8
0
  6
CONTINUOUS
 62
     7
 10
228.1758
 20
169.8158
 11
252.6758
 21
169.8158
  0
LINE
  8
0
  6
CONTINUOUS
 62
     7
 10
199.17581
 20
140.81581
 11
199.17581
 21
124.3158
  0
LINE
  8
0
  6
CONTINUOUS
 62
     7
 10
252.6758
 20
169.8158
 11
252.6758
 21
142.8158
  0
LINE
  8
0
  6
CONTINUOUS
 62
     7
 10
199.17581
 20
124.3158
 11
240.1758
 21
124.3158
  0
LINE
  8
0
  6
CENTER
 62
     7
 10
-242.18526
 20
40.958427
 11
-242.18526
 21
21.408424
  0
LINE
  8
0
  6
CENTER
 62
     7
 10
-223.5352
 20
59.608421
 11
-202.98526
 21
59.608421
  0
LINE
  8
0
  6
CONTINUOUS
 62
     7
 10
-216.68526
 20
43.108421
 11
-207.18526
 21
43.108421
  0
LINE
  8
0
  6
CONTINUOUS
 62
     7
 10
-228.68526
 20
76.108421
 11
-207.18526
 21
76.108421
  0
LINE
  8
0
  6
CONTINUOUS
 62
     7
 10
-221.68526
 20
38.108421
 11
-221.68526
 21
25.608421
  0
LINE
  8
0
  6
CONTINUOUS
 62
     7
 10
-262.68527
 20
42.108421
 11
-262.68527
 21
25.608421
  0
LINE
  8
0
  6
CONTINUOUS
 62
     7
 10
-262.68527
 20
25.608421
 11
-221.68526
 21
25.608421
  0
LINE
  8
0
  6
CONTINUOUS
 62
     7
 10
-207.18526
 20
76.108421
 11
-207.18526
 21
43.108421
  0
LINE
  8
0
  6
CONTINUOUS
 62
     7
 10
-122.14526
 20
43.609489
 11
-122.14526
 21
28.109489
  0
LINE
  8
0
  6
CENTER
 62
     7
 10
-127.42378
 20
62.109474
 11
-104.94527
 21
62.109474
  0
LINE
  8
0
  6
CENTER
 62
     7
 10
-147.14526
 20
42.388008
 11
-147.14526
 21
23.70948
  0
LINE
  8
0
  6
CONTINUOUS
 62
     7
 10
-140.14526
 20
75.609474
 11
-109.14526
 21
75.609474
  0
LINE
  8
0
  6
CONTINUOUS
 62
     7
 10
-172.14525
 20
43.609489
 11
-172.14525
 21
28.109489
  0
LINE
  8
0
  6
CONTINUOUS
 62
     7
 10
-117.14526
 20
48.609474
 11
-109.14526
 21
48.609474
  0
LINE
  8
0
  6
CONTINUOUS
 62
     7
 10
-109.14526
 20
75.609474
 11
-109.14526
 21
48.609474
  0
LINE
  8
0
  6
CONTINUOUS
 62
     7
 10
-172.14525
 20
28.109489
 11
-122.14526
 21
28.109489
  0
LINE
  8
0
  6
CONTINUOUS
 62
     7
 10
-13.768421
 20
43.942104
 11
-3.7684209
 21
43.942104
  0
LINE
  8
0
  6
CENTER
 62
     7
 10
-21.484898
 20
60.442104
 11
0.43157589
 21
60.442104
  0
LINE
  8
0
  6
CENTER
 62
     7
 10
-43.768421
 20
38.158596
 11
-43.768421
 21
18.04211
  0
LINE
  8
0
  6
CONTINUOUS
 62
     7
 10
-29.768421
 20
76.942093
 11
-3.7684209
 21
76.942093
  0
LINE
  8
0
  6
CONTINUOUS
 62
     7
 10
-68.768417
 20
37.94212
 11
-68.768417
 21
22.44212
  0
LINE
  8
0
  6
CONTINUOUS
 62
     7
 10
-18.768421
 20
38.94212
 11
-18.768421
 21
22.44212
  0
LINE
  8
0
  6
CONTINUOUS
 62
     7
 10
-68.768417
 20
22.44212
 11
-18.768421
 21
22.44212
  0
LINE
  8
0
  6
CONTINUOUS
 62
     7
 10
-3.7684209
 20
76.942093
 11
-3.7684209
 21
43.942104
  0
LINE
  8
0
  6
CENTER
 62
     7
 10
80.730858
 20
62.109474
 11
103.30737
 21
62.109474
  0
LINE
  8
0
  6
CENTER
 62
     7
 10
57.107368
 20
38.486076
 11
57.107368
 21
17.70948
  0
LINE
  8
0
  6
CONTINUOUS
 62
     7
 10
32.107368
 20
40.609489
 11
32.107368
 21
22.109489
  0
LINE
  8
0
  6
CONTINUOUS
 62
     7
 10
82.107368
 20
36.609489
 11
82.107368
 21
22.109489
  0
LINE
  8
0
  6
CONTINUOUS
 62
     7
 10
87.107368
 20
41.609474
 11
99.107368
 21
41.609474
  0
LINE
  8
0
  6
CONTINUOUS
 62
     7
 10
74.107368
 20
82.609459
 11
99.107368
 21
82.609459
  0
LINE
  8
0
  6
CONTINUOUS
 62
     7
 10
99.107368
 20
82.609459
 11
99.107368
 21
41.609474
  0
LINE
  8
0
  6
CONTINUOUS
 62
     7
 10
32.107368
 20
22.109489
 11
82.107368
 21
22.109489
  0
LINE
  8
0
  6
CONTINUOUS
 62
     7
 10
189.3179
 20
43.775791
 11
189.3179
 21
26.275789
  0
LINE
  8
0
  6
CONTINUOUS
 62
     7
 10
133.3179
 20
43.775791
 11
133.3179
 21
26.275789
  0
LINE
  8
0
  6
CONTINUOUS
 62
     7
 10
193.3179
 20
47.775791
 11
203.3179
 21
47.775791
  0
LINE
  8
0
  6
CONTINUOUS
 62
     7
 10
164.3179
 20
74.775787
 11
203.3179
 21
74.775787
  0
LINE
  8
0
  6
CENTER
 62
     7
 10
180.24649
 20
61.275791
 11
208.3179
 21
61.275791
  0
LINE
  8
0
  6
CENTER
 62
     7
 10
161.3179
 20
42.347141
 11
161.3179
 21
21.275789
  0
LINE
  8
0
  6
CONTINUOUS
 62
     7
 10
203.3179
 20
74.775787
 11
203.3179
 21
47.775791
  0
LINE
  8
0
  6
CONTINUOUS
 62
     7
 10
133.3179
 20
26.275789
 11
189.3179
 21
26.275789
  0
LINE
  8
0
  6
CENTER
 62
     7
 10
-226.67279
 20
-33.76421
 11
-199.98737
 21
-33.76421
  0
LINE
  8
0
  6
CENTER
 62
     7
 10
-247.18736
 20
-54.278767
 11
-247.18736
 21
-76.164207
  0
LINE
  8
0
  6
CONTINUOUS
 62
     7
 10
-214.18736
 20
-50.26421
 11
-204.18736
 21
-50.26421
  0
LINE
  8
0
  6
CONTINUOUS
 62
     7
 10
-239.18736
 20
-17.26421
 11
-204.18736
 21
-17.26421
  0
LINE
  8
0
  6
CONTINUOUS
 62
     7
 10
-219.18736
 20
-55.264194
 11
-219.18736
 21
-71.764198
  0
LINE
  8
0
  6
CONTINUOUS
 62
     7
 10
-275.18738
 20
-53.264194
 11
-275.18738
 21
-71.764198
  0
LINE
  8
0
  6
CONTINUOUS
 62
     7
 10
-275.18738
 20
-71.764198
 11
-219.18736
 21
-71.764198
  0
LINE
  8
0
  6
CONTINUOUS
 62
     7
 10
-204.18736
 20
-17.26421
 11
-204.18736
 21
-50.26421
  0
LINE
  8
0
  6
CENTER
 62
     7
 10
-126.57838
 20
-31.263159
 11
-101.28001
 21
-31.263159
  0
LINE
  8
0
  6
CENTER
 62
     7
 10
-150.48
 20
-55.164829
 11
-150.48
 21
-76.663155
  0
LINE
  8
0
  6
CONTINUOUS
 62
     7
 10
-122.48
 20
-56.763142
 11
-122.48
 21
-72.263145
  0
LINE
  8
0
  6
CONTINUOUS
 62
     7
 10
-117.48
 20
-51.763157
 11
-105.48
 21
-51.763157
  0
LINE
  8
0
  6
CONTINUOUS
 62
     7
 10
-135.98
 20
-10.763158
 11
-105.48
 21
-10.763158
  0
LINE
  8
0
  6
CONTINUOUS
 62
     7
 10
-178.47998
 20
-53.263142
 11
-178.47998
 21
-72.263145
  0
LINE
  8
0
  6
CONTINUOUS
 62
     7
 10
-105.48
 20
-10.763158
 11
-105.48
 21
-51.763157
  0
LINE
  8
0
  6
CONTINUOUS
 62
     7
 10
-178.47998
 20
-72.263145
 11
-122.48
 21
-72.263145
  0
LINE
  8
0
  6
CONTINUOUS
 62
     7
 10
-19.27158
 20
-56.263157
 11
-3.271579
 21
-56.263157
  0
LINE
  8
0
  6
CENTER
 62
     7
 10
-51.27158
 20
-60.05373
 11
-51.27158
 21
-80.663155
  0
LINE
  8
0
  6
CENTER
 62
     7
 10
-22.481007
 20
-31.263159
 11
1.9057435
 21
-31.263159
  0
LINE
  8
0
  6
CONTINUOUS
 62
     7
 10
-79.271576
 20
-60.263157
 11
-79.271576
 21
-76.263161
  0
LINE
  8
0
  6
CONTINUOUS
 62
     7
 10
-25.27158
 20
-6.2631578
 11
-3.271579
 21
-6.2631578
  0
LINE
  8
0
  6
CONTINUOUS
 62
     7
 10
-23.27158
 20
-60.263157
 11
-23.27158
 21
-76.263161
  0
LINE
  8
0
  6
CONTINUOUS
 62
     7
 10
-79.271576
 20
-76.263161
 11
-23.27158
 21
-76.263161
  0
LINE
  8
0
  6
CONTINUOUS
 62
     7
 10
-3.271579
 20
-6.2631578
 11
-3.271579
 21
-56.263157
  0
LINE
  8
0
  6
CENTER
 62
     7
 10
86.717537
 20
-32.930527
 11
111.80842
 21
-32.930527
  0
LINE
  8
0
  6
CENTER
 62
     7
 10
59.608421
 20
-60.039635
 11
59.608421
 21
-74.530525
  0
LINE
  8
0
  6
CONTINUOUS
 62
     7
 10
58.608421
 20
-19.430527
 11
107.60842
 21
-19.430527
  0
LINE
  8
0
  6
CONTINUOUS
 62
     7
 10
94.108421
 20
-51.430527
 11
94.108421
 21
-69.930527
  0
LINE
  8
0
  6
CONTINUOUS
 62
     7
 10
25.108421
 20
-52.930527
 11
25.108421
 21
-69.930527
  0
LINE
  8
0
  6
CONTINUOUS
 62
     7
 10
99.108421
 20
-46.430527
 11
107.60842
 21
-46.430527
  0
LINE
  8
0
  6
CONTINUOUS
 62
     7
 10
107.60842
 20
-19.430527
 11
107.60842
 21
-46.430527
  0
LINE
  8
0
  6
CONTINUOUS
 62
     7
 10
25.108421
 20
-69.930527
 11
94.108421
 21
-69.930527
  0
LINE
  8
0
  6
CENTER
 62
     7
 10
202.19257
 20
-29.595789
 11
229.5242
 21
-29.595789
  0
LINE
  8
0
  6
CENTER
 62
     7
 10
176.3242
 20
-55.464146
 11
176.3242
 21
-75.195786
  0
LINE
  8
0
  6
CONTINUOUS
 62
     7
 10
179.8242
 20
-13.09579
 11
225.3242
 21
-13.09579
  0
LINE
  8
0
  6
CONTINUOUS
 62
     7
 10
141.8242
 20
-51.095791
 11
141.8242
 21
-70.595787
  0
LINE
  8
0
  6
CONTINUOUS
 62
     7
 10
210.8242
 20
-51.095791
 11
210.8242
 21
-70.595787
  0
LINE
  8
0
  6
CONTINUOUS
 62
     7
 10
215.8242
 20
-46.095791
 11
225.3242
 21
-46.095791
  0
LINE
  8
0
  6
CONTINUOUS
 62
     7
 10
141.8242
 20
-70.595787
 11
210.8242
 21
-70.595787
  0
LINE
  8
0
  6
CONTINUOUS
 62
     7
 10
225.3242
 20
-13.09579
 11
225.3242
 21
-46.095791
  0
LINE
  8
0
  6
CENTER
 62
     7
 10
-203.17253
 20
-134.64
 11
-175.31369
 21
-134.64
  0
LINE
  8
0
  6
CENTER
 62
     7
 10
-230.51369
 20
-161.98116
 11
-230.51369
 21
-183.24001
  0
LINE
  8
0
  6
CONTINUOUS
 62
     7
 10
-191.01369
 20
-155.14
 11
-179.51369
 21
-155.14
  0
LINE
  8
0
  6
CONTINUOUS
 62
     7
 10
-219.01369
 20
-114.14
 11
-179.51369
 21
-114.14
  0
LINE
  8
0
  6
CONTINUOUS
 62
     7
 10
-196.01369
 20
-160.14
 11
-196.01369
 21
-178.64
  0
LINE
  8
0
  6
CONTINUOUS
 62
     7
 10
-265.01367
 20
-160.14
 11
-265.01367
 21
-178.64
  0
LINE
  8
0
  6
CONTINUOUS
 62
     7
 10
-179.51369
 20
-114.14
 11
-179.51369
 21
-155.14
  0
LINE
  8
0
  6
CONTINUOUS
 62
     7
 10
-265.01367
 20
-178.64
 11
-196.01369
 21
-178.64
  0
LINE
  8
0
  6
CENTER
 62
     7
 10
-67.274406
 20
-135.47368
 11
-39.557899
 21
-135.47368
  0
LINE
  8
0
  6
CENTER
 62
     7
 10
-97.957893
 20
-166.15717
 11
-97.957893
 21
-188.07368
  0
LINE
  8
0
  6
CONTINUOUS
 62
     7
 10
-58.457893
 20
-160.47368
 11
-43.957893
 21
-160.47368
  0
LINE
  8
0
  6
CONTINUOUS
 62
     7
 10
-77.457893
 20
-110.47369
 11
-43.957893
 21
-110.47369
  0
LINE
  8
0
  6
CONTINUOUS
 62
     7
 10
-63.457893
 20
-165.47368
 11
-63.457893
 21
-183.47368
  0
LINE
  8
0
  6
CONTINUOUS
 62
     7
 10
-132.4579
 20
-165.47368
 11
-132.4579
 21
-183.47368
  0
LINE
  8
0
  6
CONTINUOUS
 62
     7
 10
-132.4579
 20
-183.47368
 11
-63.457893
 21
-183.47368
  0
LINE
  8
0
  6
CONTINUOUS
 62
     7
 10
-43.957893
 20
-110.47369
 11
-43.957893
 21
-160.47368
  0
LINE
  8
0
  6
CENTER
 62
     7
 10
70.103958
 20
-133.80632
 11
97.332626
 21
-133.80632
  0
LINE
  8
0
  6
CENTER
 62
     7
 10
37.932632
 20
-165.97765
 11
37.932632
 21
-190.40631
  0
LINE
  8
0
  6
CONTINUOUS
 62
     7
 10
77.432632
 20
-161.80632
 11
92.932632
 21
-161.80632
  0
LINE
  8
0
  6
CONTINUOUS
 62
     7
 10
62.432632
 20
-105.80631
 11
92.932632
 21
-105.80631
  0
LINE
  8
0
  6
CONTINUOUS
 62
     7
 10
72.432632
 20
-166.80632
 11
72.432632
 21
-185.80632
  0
LINE
  8
0
  6
CONTINUOUS
 62
     7
 10
3.4326315
 20
-164.80632
 11
3.4326315
 21
-185.80632
  0
LINE
  8
0
  6
CONTINUOUS
 62
     7
 10
92.932632
 20
-105.80631
 11
92.932632
 21
-161.80632
  0
LINE
  8
0
  6
CONTINUOUS
 62
     7
 10
3.4326315
 20
-185.80632
 11
72.432632
 21
-185.80632
  0
LINE
  8
0
  6
CONTINUOUS
 62
     7
 10
-245.87862
 20
143.39302
 11
-244.64603
 21
143.39302
  0
LINE
  8
0
  6
CONTINUOUS
 62
     7
 10
-245.87862
 20
142.49301
 11
-244.64603
 21
142.49301
  0
LINE
  8
0
  6
CONTINUOUS
 62
     7
 10
-238.11122
 20
142.49301
 11
-236.87862
 21
142.49301
  0
LINE
  8
0
  6
CONTINUOUS
 62
     7
 10
-238.11122
 20
143.39302
 11
-236.87862
 21
143.39302
  0
LINE
  8
0
  6
CONTINUOUS
 62
     7
 10
-243.74275
 20
142.49301
 11
-241.37862
 21
142.49301
  0
LINE
  8
0
  6
CONTINUOUS
 62
     7
 10
-243.74275
 20
143.39302
 11
-241.37862
 21
143.39302
  0
LINE
  8
0
  6
CONTINUOUS
 62
     7
 10
-175.82349
 20
139.55502
 11
-174.59088
 21
139.55502
  0
LINE
  8
0
  6
CONTINUOUS
 62
     7
 10
-175.82349
 20
138.65503
 11
-174.59088
 21
138.65503
  0
LINE
  8
0
  6
CONTINUOUS
 62
     7
 10
-168.05609
 20
138.65503
 11
-166.82349
 21
138.65503
  0
LINE
  8
0
  6
CONTINUOUS
 62
     7
 10
-168.05609
 20
139.55502
 11
-166.82349
 21
139.55502
  0
LINE
  8
0
  6
CONTINUOUS
 62
     7
 10
-173.68762
 20
138.65503
 11
-171.32349
 21
138.65503
  0
LINE
  8
0
  6
CONTINUOUS
 62
     7
 10
-173.68762
 20
139.55502
 11
-171.32349
 21
139.55502
  0
LINE
  8
0
  6
CONTINUOUS
 62
     7
 10
-104.2364
 20
139.54604
 11
-103.00381
 21
139.54604
  0
LINE
  8
0
  6
CONTINUOUS
 62
     7
 10
-104.2364
 20
138.64603
 11
-103.00381
 21
138.64603
  0
LINE
  8
0
  6
CONTINUOUS
 62
     7
 10
-96.469002
 20
138.64603
 11
-95.236404
 21
138.64603
  0
LINE
  8
0
  6
CONTINUOUS
 62
     7
 10
-96.469002
 20
139.54604
 11
-95.236404
 21
139.54604
  0
LINE
  8
0
  6
CONTINUOUS
 62
     7
 10
-102.10053
 20
138.64603
 11
-99.736404
 21
138.64603
  0
LINE
  8
0
  6
CONTINUOUS
 62
     7
 10
-102.10053
 20
139.54604
 11
-99.736404
 21
139.54604
  0
LINE
  8
0
  6
CONTINUOUS
 62
     7
 10
-33.248444
 20
138.75504
 11
-32.015846
 21
138.75504
  0
LINE
  8
0
  6
CONTINUOUS
 62
     7
 10
-33.248444
 20
137.85504
 11
-32.015846
 21
137.85504
  0
LINE
  8
0
  6
CONTINUOUS
 62
     7
 10
-25.481045
 20
137.85504
 11
-24.248446
 21
137.85504
  0
LINE
  8
0
  6
CONTINUOUS
 62
     7
 10
-25.481045
 20
138.75504
 11
-24.248446
 21
138.75504
  0
LINE
  8
0
  6
CONTINUOUS
 62
     7
 10
-31.112576
 20
137.85504
 11
-28.748446
 21
137.85504
  0
LINE
  8
0
  6
CONTINUOUS
 62
     7
 10
-31.112576
 20
138.75504
 11
-28.748446
 21
138.75504
  0
LINE
  8
0
  6
CONTINUOUS
 62
     7
 10
40.803307
 20
134.95456
 11
42.035908
 21
134.95456
  0
LINE
  8
0
  6
CONTINUOUS
 62
     7
 10
40.803307
 20
134.05457
 11
42.035908
 21
134.05457
  0
LINE
  8
0
  6
CONTINUOUS
 62
     7
 10
48.570709
 20
134.05457
 11
49.803307
 21
134.05457
  0
LINE
  8
0
  6
CONTINUOUS
 62
     7
 10
48.570709
 20
134.95456
 11
49.803307
 21
134.95456
  0
LINE
  8
0
  6
CONTINUOUS
 62
     7
 10
42.939178
 20
134.05457
 11
45.303307
 21
134.05457
  0
LINE
  8
0
  6
CONTINUOUS
 62
     7
 10
42.939178
 20
134.95456
 11
45.303307
 21
134.95456
  0
LINE
  8
0
  6
CONTINUOUS
 62
     7
 10
129.39565
 20
137.60933
 11
131.03911
 21
137.60933
  0
LINE
  8
0
  6
CONTINUOUS
 62
     7
 10
129.39565
 20
136.40933
 11
131.03911
 21
136.40933
  0
LINE
  8
0
  6
CONTINUOUS
 62
     7
 10
139.75218
 20
136.40933
 11
141.39565
 21
136.40933
  0
LINE
  8
0
  6
CONTINUOUS
 62
     7
 10
139.75218
 20
137.60933
 11
141.39565
 21
137.60933
  0
LINE
  8
0
  6
CONTINUOUS
 62
     7
 10
132.24347
 20
136.40933
 11
135.39565
 21
136.40933
  0
LINE
  8
0
  6
CONTINUOUS
 62
     7
 10
132.24347
 20
137.60933
 11
135.39565
 21
137.60933
  0
LINE
  8
0
  6
CONTINUOUS
 62
     7
 10
213.79794
 20
134.95998
 11
215.44142
 21
134.95998
  0
LINE
  8
0
  6
CONTINUOUS
 62
     7
 10
213.79794
 20
133.75996
 11
215.44142
 21
133.75996
  0
LINE
  8
0
  6
CONTINUOUS
 62
     7
 10
224.15448
 20
133.75996
 11
225.79794
 21
133.75996
  0
LINE
  8
0
  6
CONTINUOUS
 62
     7
 10
224.15448
 20
134.95998
 11
225.79794
 21
134.95998
  0
LINE
  8
0
  6
CONTINUOUS
 62
     7
 10
216.64578
 20
133.75996
 11
219.79794
 21
133.75996
  0
LINE
  8
0
  6
CONTINUOUS
 62
     7
 10
216.64578
 20
134.95998
 11
219.79794
 21
134.95998
  0
LINE
  8
0
  6
CONTINUOUS
 62
     7
 10
-247.99554
 20
37.057465
 11
-246.35208
 21
37.057465
  0
LINE
  8
0
  6
CONTINUOUS
 62
     7
 10
-247.99554
 20
35.857468
 11
-246.35208
 21
35.857468
  0
LINE
  8
0
  6
CONTINUOUS
 62
     7
 10
-237.63902
 20
35.857468
 11
-235.99554
 21
35.857468
  0
LINE
  8
0
  6
CONTINUOUS
 62
     7
 10
-237.63902
 20
37.057465
 11
-235.99554
 21
37.057465
  0
LINE
  8
0
  6
CONTINUOUS
 62
     7
 10
-245.14772
 20
35.857468
 11
-241.99554
 21
35.857468
  0
LINE
  8
0
  6
CONTINUOUS
 62
     7
 10
-245.14772
 20
37.057465
 11
-241.99554
 21
37.057465
  0
LINE
  8
0
  6
CONTINUOUS
 62
     7
 10
-153.03798
 20
38.488861
 11
-151.39452
 21
38.488861
  0
LINE
  8
0
  6
CONTINUOUS
 62
     7
 10
-153.03798
 20
37.28886
 11
-151.39452
 21
37.28886
  0
LINE
  8
0
  6
CONTINUOUS
 62
     7
 10
-142.68146
 20
37.28886
 11
-141.03798
 21
37.28886
  0
LINE
  8
0
  6
CONTINUOUS
 62
     7
 10
-142.68146
 20
38.488861
 11
-141.03798
 21
38.488861
  0
LINE
  8
0
  6
CONTINUOUS
 62
     7
 10
-150.19016
 20
37.28886
 11
-147.03798
 21
37.28886
  0
LINE
  8
0
  6
CONTINUOUS
 62
     7
 10
-150.19016
 20
38.488861
 11
-147.03798
 21
38.488861
  0
LINE
  8
0
  6
CONTINUOUS
 62
     7
 10
-49.806606
 20
32.930294
 11
-48.163139
 21
32.930294
  0
LINE
  8
0
  6
CONTINUOUS
 62
     7
 10
-49.806606
 20
31.730295
 11
-48.163139
 21
31.730295
  0
LINE
  8
0
  6
CONTINUOUS
 62
     7
 10
-39.450073
 20
31.730295
 11
-37.806606
 21
31.730295
  0
LINE
  8
0
  6
CONTINUOUS
 62
     7
 10
-39.450073
 20
32.930294
 11
-37.806606
 21
32.930294
  0
LINE
  8
0
  6
CONTINUOUS
 62
     7
 10
-46.958778
 20
31.730295
 11
-43.806606
 21
31.730295
  0
LINE
  8
0
  6
CONTINUOUS
 62
     7
 10
-46.958778
 20
32.930294
 11
-43.806606
 21
32.930294
  0
LINE
  8
0
  6
CONTINUOUS
 62
     7
 10
51.459995
 20
34.053165
 11
53.103462
 21
34.053165
  0
LINE
  8
0
  6
CONTINUOUS
 62
     7
 10
51.459995
 20
32.853165
 11
53.103462
 21
32.853165
  0
LINE
  8
0
  6
CONTINUOUS
 62
     7
 10
61.816532
 20
32.853165
 11
63.459995
 21
32.853165
  0
LINE
  8
0
  6
CONTINUOUS
 62
     7
 10
61.816532
 20
34.053165
 11
63.459995
 21
34.053165
  0
LINE
  8
0
  6
CONTINUOUS
 62
     7
 10
54.307823
 20
32.853165
 11
57.459995
 21
32.853165
  0
LINE
  8
0
  6
CONTINUOUS
 62
     7
 10
54.307823
 20
34.053165
 11
57.459995
 21
34.053165
  0
LINE
  8
0
  6
CONTINUOUS
 62
     7
 10
155.64885
 20
36.657219
 11
157.29231
 21
36.657219
  0
LINE
  8
0
  6
CONTINUOUS
 62
     7
 10
155.64885
 20
35.457218
 11
157.29231
 21
35.457218
  0
LINE
  8
0
  6
CONTINUOUS
 62
     7
 10
166.00539
 20
35.457218
 11
167.64885
 21
35.457218
  0
LINE
  8
0
  6
CONTINUOUS
 62
     7
 10
166.00539
 20
36.657219
 11
167.64885
 21
36.657219
  0
LINE
  8
0
  6
CONTINUOUS
 62
     7
 10
158.49667
 20
35.457218
 11
161.64885
 21
35.457218
  0
LINE
  8
0
  6
CONTINUOUS
 62
     7
 10
158.49667
 20
36.657219
 11
161.64885
 21
36.657219
  0
LINE
  8
0
  6
CONTINUOUS
 62
     7
 10
-253.09023
 20
-61.432781
 11
-251.44676
 21
-61.432781
  0
LINE
  8
0
  6
CONTINUOUS
 62
     7
 10
-253.09023
 20
-62.632782
 11
-251.44676
 21
-62.632782
  0
LINE
  8
0
  6
CONTINUOUS
 62
     7
 10
-242.73369
 20
-62.632782
 11
-241.09023
 21
-62.632782
  0
LINE
  8
0
  6
CONTINUOUS
 62
     7
 10
-242.73369
 20
-61.432781
 11
-241.09023
 21
-61.432781
  0
LINE
  8
0
  6
CONTINUOUS
 62
     7
 10
-250.2424
 20
-62.632782
 11
-247.09023
 21
-62.632782
  0
LINE
  8
0
  6
CONTINUOUS
 62
     7
 10
-250.2424
 20
-61.432781
 11
-247.09023
 21
-61.432781
  0
LINE
  8
0
  6
CONTINUOUS
 62
     7
 10
-156.40094
 20
-59.835712
 11
-154.75748
 21
-59.835712
  0
LINE
  8
0
  6
CONTINUOUS
 62
     7
 10
-156.40094
 20
-61.035713
 11
-154.75748
 21
-61.035713
  0
LINE
  8
0
  6
CONTINUOUS
 62
     7
 10
-146.0444
 20
-61.035713
 11
-144.40094
 21
-61.035713
  0
LINE
  8
0
  6
CONTINUOUS
 62
     7
 10
-146.0444
 20
-59.835712
 11
-144.40094
 21
-59.835712
  0
LINE
  8
0
  6
CONTINUOUS
 62
     7
 10
-153.55312
 20
-61.035713
 11
-150.40094
 21
-61.035713
  0
LINE
  8
0
  6
CONTINUOUS
 62
     7
 10
-153.55312
 20
-59.835712
 11
-150.40094
 21
-59.835712
  0
LINE
  8
0
  6
CONTINUOUS
 62
     7
 10
-57.22385
 20
-63.992702
 11
-55.580383
 21
-63.992702
  0
LINE
  8
0
  6
CONTINUOUS
 62
     7
 10
-57.22385
 20
-65.192703
 11
-55.580383
 21
-65.192703
  0
LINE
  8
0
  6
CONTINUOUS
 62
     7
 10
-46.867317
 20
-65.192703
 11
-45.22385
 21
-65.192703
  0
LINE
  8
0
  6
CONTINUOUS
 62
     7
 10
-46.867317
 20
-63.992702
 11
-45.22385
 21
-63.992702
  0
LINE
  8
0
  6
CONTINUOUS
 62
     7
 10
-54.376022
 20
-65.192703
 11
-51.22385
 21
-65.192703
  0
LINE
  8
0
  6
CONTINUOUS
 62
     7
 10
-54.376022
 20
-63.992702
 11
-51.22385
 21
-63.992702
  0
LINE
  8
0
  6
CONTINUOUS
 62
     7
 10
52.371899
 20
-58.320839
 11
54.426231
 21
-58.320839
  0
LINE
  8
0
  6
CONTINUOUS
 62
     7
 10
52.371899
 20
-59.820839
 11
54.426231
 21
-59.820839
  0
LINE
  8
0
  6
CONTINUOUS
 62
     7
 10
65.317566
 20
-59.820839
 11
67.371895
 21
-59.820839
  0
LINE
  8
0
  6
CONTINUOUS
 62
     7
 10
65.317566
 20
-58.320839
 11
67.371895
 21
-58.320839
  0
LINE
  8
0
  6
CONTINUOUS
 62
     7
 10
55.931683
 20
-59.820839
 11
59.871899
 21
-59.820839
  0
LINE
  8
0
  6
CONTINUOUS
 62
     7
 10
55.931683
 20
-58.320839
 11
59.871899
 21
-58.320839
  0
LINE
  8
0
  6
CONTINUOUS
 62
     7
 10
168.85715
 20
-57.527649
 11
170.91148
 21
-57.527649
  0
LINE
  8
0
  6
CONTINUOUS
 62
     7
 10
168.85715
 20
-59.027649
 11
170.91148
 21
-59.027649
  0
LINE
  8
0
  6
CONTINUOUS
 62
     7
 10
181.80281
 20
-59.027649
 11
183.85715
 21
-59.027649
  0
LINE
  8
0
  6
CONTINUOUS
 62
     7
 10
181.80281
 20
-57.527649
 11
183.85715
 21
-57.527649
  0
LINE
  8
0
  6
CONTINUOUS
 62
     7
 10
172.41693
 20
-59.027649
 11
176.35715
 21
-59.027649
  0
LINE
  8
0
  6
CONTINUOUS
 62
     7
 10
172.41693
 20
-57.527649
 11
176.35715
 21
-57.527649
  0
LINE
  8
0
  6
CONTINUOUS
 62
     7
 10
-237.67494
 20
-164.19467
 11
-235.62061
 21
-164.19467
  0
LINE
  8
0
  6
CONTINUOUS
 62
     7
 10
-237.67494
 20
-165.69467
 11
-235.62061
 21
-165.69467
  0
LINE
  8
0
  6
CONTINUOUS
 62
     7
 10
-224.72928
 20
-165.69467
 11
-222.67494
 21
-165.69467
  0
LINE
  8
0
  6
CONTINUOUS
 62
     7
 10
-224.72928
 20
-164.19467
 11
-222.67494
 21
-164.19467
  0
LINE
  8
0
  6
CONTINUOUS
 62
     7
 10
-234.11516
 20
-165.69467
 11
-230.17494
 21
-165.69467
  0
LINE
  8
0
  6
CONTINUOUS
 62
     7
 10
-234.11516
 20
-164.19467
 11
-230.17494
 21
-164.19467
  0
LINE
  8
0
  6
CONTINUOUS
 62
     7
 10
-105.66136
 20
-170.0896
 11
-103.60703
 21
-170.0896
  0
LINE
  8
0
  6
CONTINUOUS
 62
     7
 10
-105.66136
 20
-171.5896
 11
-103.60703
 21
-171.5896
  0
LINE
  8
0
  6
CONTINUOUS
 62
     7
 10
-92.715698
 20
-171.5896
 11
-90.661362
 21
-171.5896
  0
LINE
  8
0
  6
CONTINUOUS
 62
     7
 10
-92.715698
 20
-170.0896
 11
-90.661362
 21
-170.0896
  0
LINE
  8
0
  6
CONTINUOUS
 62
     7
 10
-102.10158
 20
-171.5896
 11
-98.161362
 21
-171.5896
  0
LINE
  8
0
  6
CONTINUOUS
 62
     7
 10
-102.10158
 20
-170.0896
 11
-98.161362
 21
-170.0896
  0
LINE
  8
0
  6
CONTINUOUS
 62
     7
 10
30.310383
 20
-172.03778
 11
32.364716
 21
-172.03778
  0
LINE
  8
0
  6
CONTINUOUS
 62
     7
 10
30.310383
 20
-173.53778
 11
32.364716
 21
-173.53778
  0
LINE
  8
0
  6
CONTINUOUS
 62
     7
 10
43.25605
 20
-173.53778
 11
45.310383
 21
-173.53778
  0
LINE
  8
0
  6
CONTINUOUS
 62
     7
 10
43.25605
 20
-172.03778
 11
45.310383
 21
-172.03778
  0
LINE
  8
0
  6
CONTINUOUS
 62
     7
 10
33.870167
 20
-173.53778
 11
37.810383
 21
-173.53778
  0
LINE
  8
0
  6
CONTINUOUS
 62
     7
 10
33.870167
 20
-172.03778
 11
37.810383
 21
-172.03778
  0
ARC
  8
0
  6
CONTINUOUS
 62
     7
 10
-227.85159
 20
145.64948
 40
2
 50
89.999982
 51
179.99996
  0
ARC
  8
0
  6
CONTINUOUS
 62
     7
 10
-231.85159
 20
145.64948
 40
21
 50
89.999982
 51
179.99996
  0
ARC
  8
0
  6
CENTER
 62
     7
 10
-229.78453
 20
145.58241
 40
11.56707
 50
89.999982
 51
179.99996
  0
ARC
  8
0
  6
CONTINUOUS
 62
     7
 10
-154.8221
 20
144.64948
 40
3
 50
89.999982
 51
179.99996
  0
ARC
  8
0
  6
CONTINUOUS
 62
     7
 10
-162.8221
 20
144.64948
 40
22
 50
89.999982
 51
179.99996
  0
ARC
  8
0
  6
CENTER
 62
     7
 10
-158.54294
 20
144.37032
 40
12.779152
 50
89.999982
 51
179.99996
  0
ARC
  8
0
  6
CONTINUOUS
 62
     7
 10
-83.125244
 20
143.48315
 40
3
 50
89.999982
 51
179.99996
  0
ARC
  8
0
  6
CENTER
 62
     7
 10
-85.073685
 20
143.43156
 40
14.551559
 50
89.999982
 51
179.99996
  0
ARC
  8
0
  6
CONTINUOUS
 62
     7
 10
-87.125244
 20
143.48315
 40
26
 50
89.999982
 51
179.99996
  0
ARC
  8
0
  6
CONTINUOUS
 62
     7
 10
-19.262091
 20
144.31686
 40
26
 50
89.999996
 51
179.99998
  0
ARC
  8
0
  6
CONTINUOUS
 62
     7
 10
-8.2620897
 20
143.31686
 40
4
 50
89.999996
 51
179.99998
  0
ARC
  8
0
  6
CENTER
 62
     7
 10
-14.490972
 20
144.54581
 40
14.271057
 50
89.999996
 51
179.99998
  0
ARC
  8
0
  6
CONTINUOUS
 62
     7
 10
59.935806
 20
137.98212
 40
31
 50
89.999996
 51
179.99998
  0
ARC
  8
0
  6
CONTINUOUS
 62
     7
 10
65.935806
 20
137.98212
 40
4
 50
89.999996
 51
179.99998
  0
ARC
  8
0
  6
CENTER
 62
     7
 10
63.254044
 20
137.66388
 40
17.818237
 50
89.999996
 51
179.99998
  0
ARC
  8
0
  6
CONTINUOUS
 62
     7
 10
159.97368
 20
141.64948
 40
4
 50
89.999982
 51
179.99996
  0
ARC
  8
0
  6
CENTER
 62
     7
 10
150.93694
 20
141.68622
 40
15.463257
 50
89.999982
 51
179.99996
  0
ARC
  8
0
  6
CONTINUOUS
 62
     7
 10
139.97368
 20
143.64948
 40
25
 50
89.999982
 51
179.99996
  0
ARC
  8
0
  6
CONTINUOUS
 62
     7
 10
228.17581
 20
140.81581
 40
29
 50
89.999996
 51
179.99998
  0
ARC
  8
0
  6
CONTINUOUS
 62
     7
 10
245.17581
 20
137.81581
 40
5
 50
89.999996
 51
179.99998
  0
ARC
  8
0
  6
CENTER
 62
     7
 10
236.2464
 20
139.74516
 40
16.570648
 50
89.999996
 51
179.99998
  0
ARC
  8
0
  6
CONTINUOUS
 62
     7
 10
-228.68526
 20
42.108421
 40
34
 50
89.999982
 51
179.99996
  0
ARC
  8
0
  6
CENTER
 62
     7
 10
-223.5352
 20
40.958427
 40
18.649994
 50
89.999982
 51
179.99996
  0
ARC
  8
0
  6
CONTINUOUS
 62
     7
 10
-216.68526
 20
38.108421
 40
5
 50
89.999982
 51
179.99996
  0
ARC
  8
0
  6
CONTINUOUS
 62
     7
 10
-140.14525
 20
43.609489
 40
32
 50
89.999996
 51
179.99998
  0
ARC
  8
0
  6
CENTER
 62
     7
 10
-127.42377
 20
42.388008
 40
19.721481
 50
89.999996
 51
179.99998
  0
ARC
  8
0
  6
CONTINUOUS
 62
     7
 10
-117.14525
 20
43.609489
 40
5
 50
89.999996
 51
179.99998
  0
ARC
  8
0
  6
CONTINUOUS
 62
     7
 10
-13.768406
 20
38.94212
 40
5
 50
89.999996
 51
179.99998
  0
ARC
  8
0
  6
CONTINUOUS
 62
     7
 10
-29.768406
 20
37.94212
 40
39
 50
89.999996
 51
179.99998
  0
ARC
  8
0
  6
CENTER
 62
     7
 10
-21.484882
 20
38.158596
 40
22.283524
 50
89.999996
 51
179.99998
  0
ARC
  8
0
  6
CONTINUOUS
 62
     7
 10
87.107384
 20
36.609489
 40
5
 50
89.999996
 51
179.99998
  0
ARC
  8
0
  6
CONTINUOUS
 62
     7
 10
74.107384
 20
40.609489
 40
42
 50
89.999996
 51
179.99998
  0
ARC
  8
0
  6
CENTER
 62
     7
 10
80.730873
 20
38.486076
 40
23.623489
 50
89.999996
 51
179.99998
  0
ARC
  8
0
  6
CONTINUOUS
 62
     7
 10
193.3179
 20
43.775791
 40
4
 50
89.999982
 51
179.99996
  0
ARC
  8
0
  6
CONTINUOUS
 62
     7
 10
164.3179
 20
43.775791
 40
31
 50
89.999982
 51
179.99996
  0
ARC
  8
0
  6
CENTER
 62
     7
 10
180.24649
 20
42.347141
 40
18.92865
 50
89.999982
 51
179.99996
  0
ARC
  8
0
  6
CONTINUOUS
 62
     7
 10
-214.18735
 20
-55.264194
 40
5
 50
89.999996
 51
179.99998
  0
ARC
  8
0
  6
CONTINUOUS
 62
     7
 10
-239.18735
 20
-53.264194
 40
36
 50
89.999996
 51
179.99998
  0
ARC
  8
0
  6
CENTER
 62
     7
 10
-226.67278
 20
-54.278767
 40
20.514572
 50
89.999996
 51
179.99998
  0
ARC
  8
0
  6
CENTER
 62
     7
 10
-126.57836
 20
-55.164845
 40
23.901695
 50
89.999996
 51
179.99998
  0
ARC
  8
0
  6
CONTINUOUS
 62
     7
 10
-135.97998
 20
-53.263142
 40
42.5
 50
89.999996
 51
179.99998
  0
ARC
  8
0
  6
CONTINUOUS
 62
     7
 10
-117.47999
 20
-56.763142
 40
5
 50
89.999996
 51
179.99998
  0
ARC
  8
0
  6
CONTINUOUS
 62
     7
 10
-19.27158
 20
-60.263157
 40
4
 50
89.999982
 51
179.99996
  0
ARC
  8
0
  6
CONTINUOUS
 62
     7
 10
-25.27158
 20
-60.263157
 40
54
 50
89.999982
 51
179.99996
  0
ARC
  8
0
  6
CENTER
 62
     7
 10
-22.481007
 20
-60.05373
 40
28.790573
 50
89.999982
 51
179.99996
  0
ARC
  8
0
  6
CONTINUOUS
 62
     7
 10
58.608421
 20
-52.930527
 40
33.5
 50
90.000037
 51
180.00002
  0
ARC
  8
0
  6
CONTINUOUS
 62
     7
 10
99.108421
 20
-51.430527
 40
5
 50
90.000037
 51
180.00002
  0
ARC
  8
0
  6
CENTER
 62
     7
 10
86.717537
 20
-60.039635
 40
27.109108
 50
90.000037
 51
180.00002
  0
ARC
  8
0
  6
CONTINUOUS
 62
     7
 10
179.8242
 20
-51.095791
 40
38
 50
90.000037
 51
180.00002
  0
ARC
  8
0
  6
CONTINUOUS
 62
     7
 10
215.8242
 20
-51.095791
 40
5
 50
90.000037
 51
180.00002
  0
ARC
  8
0
  6
CENTER
 62
     7
 10
202.19257
 20
-55.464146
 40
25.868355
 50
90.000037
 51
180.00002
  0
ARC
  8
0
  6
CENTER
 62
     7
 10
-203.17253
 20
-161.98116
 40
27.341156
 50
90.000037
 51
180.00002
  0
ARC
  8
0
  6
CONTINUOUS
 62
     7
 10
-191.01369
 20
-160.14
 40
5
 50
90.000037
 51
180.00002
  0
ARC
  8
0
  6
CONTINUOUS
 62
     7
 10
-219.01369
 20
-160.14
 40
46
 50
90.000037
 51
180.00002
  0
ARC
  8
0
  6
CONTINUOUS
 62
     7
 10
-77.457893
 20
-165.47368
 40
55
 50
90.000037
 51
180.00002
  0
ARC
  8
0
  6
CONTINUOUS
 62
     7
 10
-58.457893
 20
-165.47368
 40
5
 50
90.000037
 51
180.00002
  0
ARC
  8
0
  6
CENTER
 62
     7
 10
-67.274406
 20
-166.15717
 40
30.683479
 50
90.000037
 51
180.00002
  0
ARC
  8
0
  6
CONTINUOUS
 62
     7
 10
62.432632
 20
-164.80632
 40
59
 50
90.000037
 51
180.00002
  0
ARC
  8
0
  6
CENTER
 62
     7
 10
70.103958
 20
-165.97765
 40
32.171333
 50
90.000037
 51
180.00002
  0
ARC
  8
0
  6
CONTINUOUS
 62
     7
 10
77.432632
 20
-166.80632
 40
5
 50
90.000037
 51
180.00002
  0
ARC
  8
0
  6
CONTINUOUS
 62
     7
 10
-241.37862
 20
144.74301
 40
1.8
 50
36.008324
 51
143.99167
  0
ARC
  8
0
  6
CONTINUOUS
 62
     7
 10
-241.37862
 20
144.74301
 40
2.7
 50
36.008324
 51
143.99167
  0
ARC
  8
0
  6
CONTINUOUS
 62
     7
 10
-241.37862
 20
141.14302
 40
1.8
 50
216.00833
 51
323.99168
  0
ARC
  8
0
  6
CONTINUOUS
 62
     7
 10
-241.37862
 20
141.14302
 40
2.7
 50
216.00833
 51
323.99168
  0
ARC
  8
0
  6
CONTINUOUS
 62
     7
 10
-238.90189
 20
142.94301
 40
5.7617307
 50
143.99167
 51
175.52055
  0
ARC
  8
0
  6
CONTINUOUS
 62
     7
 10
-238.90189
 20
142.94301
 40
4.8617306
 50
143.99167
 51
174.68912
  0
ARC
  8
0
  6
CONTINUOUS
 62
     7
 10
-243.85536
 20
142.94301
 40
4.8617306
 50
323.99167
 51
36.008324
  0
ARC
  8
0
  6
CONTINUOUS
 62
     7
 10
-243.85536
 20
142.94301
 40
5.7617307
 50
323.99167
 51
355.52055
  0
ARC
  8
0
  6
CONTINUOUS
 62
     7
 10
-245.54112
 20
142.94301
 40
0.5625
 50
126.8699
 51
233.13009
  0
ARC
  8
0
  6
CONTINUOUS
 62
     7
 10
-241.71613
 20
142.94301
 40
0.5625
 50
306.8699
 51
53.130102
  0
ARC
  8
0
  6
CONTINUOUS
 62
     7
 10
-237.21613
 20
142.94301
 40
0.5625
 50
306.8699
 51
53.130102
  0
ARC
  8
0
  6
CONTINUOUS
 62
     7
 10
-238.90189
 20
142.94301
 40
5.7617307
 50
184.47945
 51
216.00833
  0
ARC
  8
0
  6
CONTINUOUS
 62
     7
 10
-238.90189
 20
142.94301
 40
4.8617306
 50
185.31088
 51
216.00833
  0
ARC
  8
0
  6
CONTINUOUS
 62
     7
 10
-243.85536
 20
142.94301
 40
5.7617307
 50
4.4794472
 51
36.008324
  0
ARC
  8
0
  6
CONTINUOUS
 62
     7
 10
-171.32349
 20
140.90503
 40
1.8
 50
36.008324
 51
143.99167
  0
ARC
  8
0
  6
CONTINUOUS
 62
     7
 10
-171.32349
 20
140.90503
 40
2.7
 50
36.008324
 51
143.99167
  0
ARC
  8
0
  6
CONTINUOUS
 62
     7
 10
-171.32349
 20
137.30502
 40
1.8
 50
216.00833
 51
323.99168
  0
ARC
  8
0
  6
CONTINUOUS
 62
     7
 10
-171.32349
 20
137.30502
 40
2.7
 50
216.00833
 51
323.99168
  0
ARC
  8
0
  6
CONTINUOUS
 62
     7
 10
-168.84676
 20
139.10503
 40
5.7617307
 50
143.99167
 51
175.52055
  0
ARC
  8
0
  6
CONTINUOUS
 62
     7
 10
-168.84676
 20
139.10503
 40
4.8617306
 50
143.99167
 51
174.68912
  0
ARC
  8
0
  6
CONTINUOUS
 62
     7
 10
-173.80022
 20
139.10503
 40
4.8617306
 50
323.99167
 51
36.008324
  0
ARC
  8
0
  6
CONTINUOUS
 62
     7
 10
-173.80022
 20
139.10503
 40
5.7617307
 50
323.99167
 51
355.52055
  0
ARC
  8
0
  6
CONTINUOUS
 62
     7
 10
-175.48599
 20
139.10503
 40
0.5625
 50
126.8699
 51
233.13009
  0
ARC
  8
0
  6
CONTINUOUS
 62
     7
 10
-171.661
 20
139.10503
 40
0.5625
 50
306.8699
 51
53.130102
  0
ARC
  8
0
  6
CONTINUOUS
 62
     7
 10
-167.161
 20
139.10503
 40
0.5625
 50
306.8699
 51
53.130102
  0
ARC
  8
0
  6
CONTINUOUS
 62
     7
 10
-168.84676
 20
139.10503
 40
5.7617307
 50
184.47945
 51
216.00833
  0
ARC
  8
0
  6
CONTINUOUS
 62
     7
 10
-168.84676
 20
139.10503
 40
4.8617306
 50
185.31088
 51
216.00833
  0
ARC
  8
0
  6
CONTINUOUS
 62
     7
 10
-173.80022
 20
139.10503
 40
5.7617307
 50
4.4794472
 51
36.008324
  0
ARC
  8
0
  6
CONTINUOUS
 62
     7
 10
-99.736404
 20
140.89603
 40
1.8
 50
36.008324
 51
143.99167
  0
ARC
  8
0
  6
CONTINUOUS
 62
     7
 10
-99.736404
 20
140.89603
 40
2.7
 50
36.008324
 51
143.99167
  0
ARC
  8
0
  6
CONTINUOUS
 62
     7
 10
-99.736404
 20
137.29604
 40
1.8
 50
216.00833
 51
323.99168
  0
ARC
  8
0
  6
CONTINUOUS
 62
     7
 10
-99.736404
 20
137.29604
 40
2.7
 50
216.00833
 51
323.99168
  0
ARC
  8
0
  6
CONTINUOUS
 62
     7
 10
-97.259674
 20
139.09602
 40
5.7617307
 50
143.99167
 51
175.52055
  0
ARC
  8
0
  6
CONTINUOUS
 62
     7
 10
-97.259674
 20
139.09602
 40
4.8617306
 50
143.99167
 51
174.68912
  0
ARC
  8
0
  6
CONTINUOUS
 62
     7
 10
-102.21313
 20
139.09602
 40
4.8617306
 50
323.99167
 51
36.008324
  0
ARC
  8
0
  6
CONTINUOUS
 62
     7
 10
-102.21313
 20
139.09602
 40
5.7617307
 50
323.99167
 51
355.52055
  0
ARC
  8
0
  6
CONTINUOUS
 62
     7
 10
-103.8989
 20
139.09602
 40
0.5625
 50
126.8699
 51
233.13009
  0
ARC
  8
0
  6
CONTINUOUS
 62
     7
 10
-100.07391
 20
139.09602
 40
0.5625
 50
306.8699
 51
53.130102
  0
ARC
  8
0
  6
CONTINUOUS
 62
     7
 10
-95.573906
 20
139.09602
 40
0.5625
 50
306.8699
 51
53.130102
  0
ARC
  8
0
  6
CONTINUOUS
 62
     7
 10
-97.259674
 20
139.09602
 40
5.7617307
 50
184.47945
 51
216.00833
  0
ARC
  8
0
  6
CONTINUOUS
 62
     7
 10
-97.259674
 20
139.09602
 40
4.8617306
 50
185.31088
 51
216.00833
  0
ARC
  8
0
  6
CONTINUOUS
 62
     7
 10
-102.21313
 20
139.09602
 40
5.7617307
 50
4.4794472
 51
36.008324
  0
ARC
  8
0
  6
CONTINUOUS
 62
     7
 10
-28.748446
 20
140.10504
 40
1.8
 50
36.008324
 51
143.99167
  0
ARC
  8
0
  6
CONTINUOUS
 62
     7
 10
-28.748446
 20
140.10504
 40
2.7
 50
36.008324
 51
143.99167
  0
ARC
  8
0
  6
CONTINUOUS
 62
     7
 10
-28.748446
 20
136.50504
 40
1.8
 50
216.00833
 51
323.99168
  0
ARC
  8
0
  6
CONTINUOUS
 62
     7
 10
-28.748446
 20
136.50504
 40
2.7
 50
216.00833
 51
323.99168
  0
ARC
  8
0
  6
CONTINUOUS
 62
     7
 10
-26.271715
 20
138.30504
 40
5.7617307
 50
143.99167
 51
175.52055
  0
ARC
  8
0
  6
CONTINUOUS
 62
     7
 10
-26.271715
 20
138.30504
 40
4.8617306
 50
143.99167
 51
174.68912
  0
ARC
  8
0
  6
CONTINUOUS
 62
     7
 10
-31.225176
 20
138.30504
 40
4.8617306
 50
323.99167
 51
36.008324
  0
ARC
  8
0
  6
CONTINUOUS
 62
     7
 10
-31.225176
 20
138.30504
 40
5.7617307
 50
323.99167
 51
355.52055
  0
ARC
  8
0
  6
CONTINUOUS
 62
     7
 10
-32.910946
 20
138.30504
 40
0.5625
 50
126.8699
 51
233.13009
  0
ARC
  8
0
  6
CONTINUOUS
 62
     7
 10
-29.085945
 20
138.30504
 40
0.5625
 50
306.8699
 51
53.130102
  0
ARC
  8
0
  6
CONTINUOUS
 62
     7
 10
-24.585945
 20
138.30504
 40
0.5625
 50
306.8699
 51
53.130102
  0
ARC
  8
0
  6
CONTINUOUS
 62
     7
 10
-26.271715
 20
138.30504
 40
5.7617307
 50
184.47945
 51
216.00833
  0
ARC
  8
0
  6
CONTINUOUS
 62
     7
 10
-26.271715
 20
138.30504
 40
4.8617306
 50
185.31088
 51
216.00833
  0
ARC
  8
0
  6
CONTINUOUS
 62
     7
 10
-31.225176
 20
138.30504
 40
5.7617307
 50
4.4794472
 51
36.008324
  0
ARC
  8
0
  6
CONTINUOUS
 62
     7
 10
45.303307
 20
136.30457
 40
1.8
 50
36.008324
 51
143.99167
  0
ARC
  8
0
  6
CONTINUOUS
 62
     7
 10
45.303307
 20
136.30457
 40
2.7
 50
36.008324
 51
143.99167
  0
ARC
  8
0
  6
CONTINUOUS
 62
     7
 10
45.303307
 20
132.70456
 40
1.8
 50
216.00833
 51
323.99168
  0
ARC
  8
0
  6
CONTINUOUS
 62
     7
 10
45.303307
 20
132.70456
 40
2.7
 50
216.00833
 51
323.99168
  0
ARC
  8
0
  6
CONTINUOUS
 62
     7
 10
47.780041
 20
134.50456
 40
5.7617307
 50
143.99167
 51
175.52055
  0
ARC
  8
0
  6
CONTINUOUS
 62
     7
 10
47.780041
 20
134.50456
 40
4.8617306
 50
143.99167
 51
174.68912
  0
ARC
  8
0
  6
CONTINUOUS
 62
     7
 10
42.826576
 20
134.50456
 40
4.8617306
 50
323.99167
 51
36.008324
  0
ARC
  8
0
  6
CONTINUOUS
 62
     7
 10
42.826576
 20
134.50456
 40
5.7617307
 50
323.99167
 51
355.52055
  0
ARC
  8
0
  6
CONTINUOUS
 62
     7
 10
41.140808
 20
134.50456
 40
0.5625
 50
126.8699
 51
233.13009
  0
ARC
  8
0
  6
CONTINUOUS
 62
     7
 10
44.965809
 20
134.50456
 40
0.5625
 50
306.8699
 51
53.130102
  0
ARC
  8
0
  6
CONTINUOUS
 62
     7
 10
49.465809
 20
134.50456
 40
0.5625
 50
306.8699
 51
53.130102
  0
ARC
  8
0
  6
CONTINUOUS
 62
     7
 10
47.780041
 20
134.50456
 40
5.7617307
 50
184.47945
 51
216.00833
  0
ARC
  8
0
  6
CONTINUOUS
 62
     7
 10
47.780041
 20
134.50456
 40
4.8617306
 50
185.31088
 51
216.00833
  0
ARC
  8
0
  6
CONTINUOUS
 62
     7
 10
42.826576
 20
134.50456
 40
5.7617307
 50
4.4794472
 51
36.008324
  0
ARC
  8
0
  6
CONTINUOUS
 62
     7
 10
135.39565
 20
139.40933
 40
2.4000001
 50
36.008324
 51
143.99167
  0
ARC
  8
0
  6
CONTINUOUS
 62
     7
 10
135.39565
 20
139.40933
 40
3.5999999
 50
36.008324
 51
143.99167
  0
ARC
  8
0
  6
CONTINUOUS
 62
     7
 10
135.39565
 20
134.60933
 40
2.4000001
 50
216.00833
 51
323.99168
  0
ARC
  8
0
  6
CONTINUOUS
 62
     7
 10
135.39565
 20
134.60933
 40
3.5999999
 50
216.00833
 51
323.99168
  0
ARC
  8
0
  6
CONTINUOUS
 62
     7
 10
138.69795
 20
137.00934
 40
7.6823077
 50
143.99167
 51
175.52055
  0
ARC
  8
0
  6
CONTINUOUS
 62
     7
 10
138.69795
 20
137.00934
 40
6.4823079
 50
143.99167
 51
174.68912
  0
ARC
  8
0
  6
CONTINUOUS
 62
     7
 10
132.09334
 20
137.00934
 40
6.4823079
 50
323.99167
 51
36.008324
  0
ARC
  8
0
  6
CONTINUOUS
 62
     7
 10
132.09334
 20
137.00934
 40
7.6823077
 50
323.99167
 51
355.52055
  0
ARC
  8
0
  6
CONTINUOUS
 62
     7
 10
129.84564
 20
137.00934
 40
0.75
 50
126.8699
 51
233.13009
  0
ARC
  8
0
  6
CONTINUOUS
 62
     7
 10
134.94565
 20
137.00934
 40
0.75
 50
306.8699
 51
53.130102
  0
ARC
  8
0
  6
CONTINUOUS
 62
     7
 10
140.94565
 20
137.00934
 40
0.75
 50
306.8699
 51
53.130102
  0
ARC
  8
0
  6
CONTINUOUS
 62
     7
 10
138.69795
 20
137.00934
 40
6.4823079
 50
185.31088
 51
216.00833
  0
ARC
  8
0
  6
CONTINUOUS
 62
     7
 10
138.69795
 20
137.00934
 40
7.6823077
 50
184.47945
 51
216.00833
  0
ARC
  8
0
  6
CONTINUOUS
 62
     7
 10
132.09334
 20
137.00934
 40
7.6823077
 50
4.4794472
 51
36.008324
  0
ARC
  8
0
  6
CONTINUOUS
 62
     7
 10
219.79794
 20
136.75996
 40
2.4000001
 50
36.008324
 51
143.99167
  0
ARC
  8
0
  6
CONTINUOUS
 62
     7
 10
219.79794
 20
136.75996
 40
3.5999999
 50
36.008324
 51
143.99167
  0
ARC
  8
0
  6
CONTINUOUS
 62
     7
 10
219.79794
 20
131.95998
 40
2.4000001
 50
216.00833
 51
323.99168
  0
ARC
  8
0
  6
CONTINUOUS
 62
     7
 10
219.79794
 20
131.95998
 40
3.5999999
 50
216.00833
 51
323.99168
  0
ARC
  8
0
  6
CONTINUOUS
 62
     7
 10
223.10025
 20
134.35997
 40
7.6823077
 50
143.99167
 51
175.52055
  0
ARC
  8
0
  6
CONTINUOUS
 62
     7
 10
223.10025
 20
134.35997
 40
6.4823079
 50
143.99167
 51
174.68912
  0
ARC
  8
0
  6
CONTINUOUS
 62
     7
 10
216.49564
 20
134.35997
 40
6.4823079
 50
323.99167
 51
36.008324
  0
ARC
  8
0
  6
CONTINUOUS
 62
     7
 10
216.49564
 20
134.35997
 40
7.6823077
 50
323.99167
 51
355.52055
  0
ARC
  8
0
  6
CONTINUOUS
 62
     7
 10
214.24796
 20
134.35997
 40
0.75
 50
126.8699
 51
233.13009
  0
ARC
  8
0
  6
CONTINUOUS
 62
     7
 10
219.34795
 20
134.35997
 40
0.75
 50
306.8699
 51
53.130102
  0
ARC
  8
0
  6
CONTINUOUS
 62
     7
 10
225.34795
 20
134.35997
 40
0.75
 50
306.8699
 51
53.130102
  0
ARC
  8
0
  6
CONTINUOUS
 62
     7
 10
223.10025
 20
134.35997
 40
6.4823079
 50
185.31088
 51
216.00833
  0
ARC
  8
0
  6
CONTINUOUS
 62
     7
 10
223.10025
 20
134.35997
 40
7.6823077
 50
184.47945
 51
216.00833
  0
ARC
  8
0
  6
CONTINUOUS
 62
     7
 10
216.49564
 20
134.35997
 40
7.6823077
 50
4.4794472
 51
36.008324
  0
ARC
  8
0
  6
CONTINUOUS
 62
     7
 10
-241.99554
 20
38.857468
 40
2.4000001
 50
36.008324
 51
143.99167
  0
ARC
  8
0
  6
CONTINUOUS
 62
     7
 10
-241.99554
 20
38.857468
 40
3.5999999
 50
36.008324
 51
143.99167
  0
ARC
  8
0
  6
CONTINUOUS
 62
     7
 10
-241.99554
 20
34.057465
 40
2.4000001
 50
216.00833
 51
323.99168
  0
ARC
  8
0
  6
CONTINUOUS
 62
     7
 10
-241.99554
 20
34.057465
 40
3.5999999
 50
216.00833
 51
323.99168
  0
ARC
  8
0
  6
CONTINUOUS
 62
     7
 10
-238.69324
 20
36.457466
 40
7.6823077
 50
143.99167
 51
175.52055
  0
ARC
  8
0
  6
CONTINUOUS
 62
     7
 10
-238.69324
 20
36.457466
 40
6.4823079
 50
143.99167
 51
174.68912
  0
ARC
  8
0
  6
CONTINUOUS
 62
     7
 10
-245.29785
 20
36.457466
 40
6.4823079
 50
323.99167
 51
36.008324
  0
ARC
  8
0
  6
CONTINUOUS
 62
     7
 10
-245.29785
 20
36.457466
 40
7.6823077
 50
323.99167
 51
355.52055
  0
ARC
  8
0
  6
CONTINUOUS
 62
     7
 10
-247.54555
 20
36.457466
 40
0.75
 50
126.8699
 51
233.13009
  0
ARC
  8
0
  6
CONTINUOUS
 62
     7
 10
-242.44556
 20
36.457466
 40
0.75
 50
306.8699
 51
53.130102
  0
ARC
  8
0
  6
CONTINUOUS
 62
     7
 10
-236.44556
 20
36.457466
 40
0.75
 50
306.8699
 51
53.130102
  0
ARC
  8
0
  6
CONTINUOUS
 62
     7
 10
-238.69324
 20
36.457466
 40
6.4823079
 50
185.31088
 51
216.00833
  0
ARC
  8
0
  6
CONTINUOUS
 62
     7
 10
-238.69324
 20
36.457466
 40
7.6823077
 50
184.47945
 51
216.00833
  0
ARC
  8
0
  6
CONTINUOUS
 62
     7
 10
-245.29785
 20
36.457466
 40
7.6823077
 50
4.4794472
 51
36.008324
  0
ARC
  8
0
  6
CONTINUOUS
 62
     7
 10
-147.03798
 20
40.28886
 40
2.4000001
 50
36.008324
 51
143.99167
  0
ARC
  8
0
  6
CONTINUOUS
 62
     7
 10
-147.03798
 20
40.28886
 40
3.5999999
 50
36.008324
 51
143.99167
  0
ARC
  8
0
  6
CONTINUOUS
 62
     7
 10
-147.03798
 20
35.488861
 40
2.4000001
 50
216.00833
 51
323.99168
  0
ARC
  8
0
  6
CONTINUOUS
 62
     7
 10
-147.03798
 20
35.488861
 40
3.5999999
 50
216.00833
 51
323.99168
  0
ARC
  8
0
  6
CONTINUOUS
 62
     7
 10
-143.73567
 20
37.888859
 40
7.6823077
 50
143.99167
 51
175.52055
  0
ARC
  8
0
  6
CONTINUOUS
 62
     7
 10
-143.73567
 20
37.888859
 40
6.4823079
 50
143.99167
 51
174.68912
  0
ARC
  8
0
  6
CONTINUOUS
 62
     7
 10
-150.34029
 20
37.888859
 40
6.4823079
 50
323.99167
 51
36.008324
  0
ARC
  8
0
  6
CONTINUOUS
 62
     7
 10
-150.34029
 20
37.888859
 40
7.6823077
 50
323.99167
 51
355.52055
  0
ARC
  8
0
  6
CONTINUOUS
 62
     7
 10
-152.58798
 20
37.888859
 40
0.75
 50
126.8699
 51
233.13009
  0
ARC
  8
0
  6
CONTINUOUS
 62
     7
 10
-147.48799
 20
37.888859
 40
0.75
 50
306.8699
 51
53.130102
  0
ARC
  8
0
  6
CONTINUOUS
 62
     7
 10
-141.48799
 20
37.888859
 40
0.75
 50
306.8699
 51
53.130102
  0
ARC
  8
0
  6
CONTINUOUS
 62
     7
 10
-143.73567
 20
37.888859
 40
6.4823079
 50
185.31088
 51
216.00833
  0
ARC
  8
0
  6
CONTINUOUS
 62
     7
 10
-143.73567
 20
37.888859
 40
7.6823077
 50
184.47945
 51
216.00833
  0
ARC
  8
0
  6
CONTINUOUS
 62
     7
 10
-150.34029
 20
37.888859
 40
7.6823077
 50
4.4794472
 51
36.008324
  0
ARC
  8
0
  6
CONTINUOUS
 62
     7
 10
-43.806606
 20
34.730297
 40
2.4000001
 50
36.008324
 51
143.99167
  0
ARC
  8
0
  6
CONTINUOUS
 62
     7
 10
-43.806606
 20
34.730297
 40
3.5999999
 50
36.008324
 51
143.99167
  0
ARC
  8
0
  6
CONTINUOUS
 62
     7
 10
-43.806606
 20
29.930296
 40
2.4000001
 50
216.00833
 51
323.99168
  0
ARC
  8
0
  6
CONTINUOUS
 62
     7
 10
-43.806606
 20
29.930296
 40
3.5999999
 50
216.00833
 51
323.99168
  0
ARC
  8
0
  6
CONTINUOUS
 62
     7
 10
-40.504299
 20
32.330296
 40
7.6823077
 50
143.99167
 51
175.52055
  0
ARC
  8
0
  6
CONTINUOUS
 62
     7
 10
-40.504299
 20
32.330296
 40
6.4823079
 50
143.99167
 51
174.68912
  0
ARC
  8
0
  6
CONTINUOUS
 62
     7
 10
-47.108913
 20
32.330296
 40
6.4823079
 50
323.99167
 51
36.008324
  0
ARC
  8
0
  6
CONTINUOUS
 62
     7
 10
-47.108913
 20
32.330296
 40
7.6823077
 50
323.99167
 51
355.52055
  0
ARC
  8
0
  6
CONTINUOUS
 62
     7
 10
-49.356606
 20
32.330296
 40
0.75
 50
126.8699
 51
233.13009
  0
ARC
  8
0
  6
CONTINUOUS
 62
     7
 10
-44.256607
 20
32.330296
 40
0.75
 50
306.8699
 51
53.130102
  0
ARC
  8
0
  6
CONTINUOUS
 62
     7
 10
-38.256607
 20
32.330296
 40
0.75
 50
306.8699
 51
53.130102
  0
ARC
  8
0
  6
CONTINUOUS
 62
     7
 10
-40.504299
 20
32.330296
 40
6.4823079
 50
185.31088
 51
216.00833
  0
ARC
  8
0
  6
CONTINUOUS
 62
     7
 10
-40.504299
 20
32.330296
 40
7.6823077
 50
184.47945
 51
216.00833
  0
ARC
  8
0
  6
CONTINUOUS
 62
     7
 10
-47.108913
 20
32.330296
 40
7.6823077
 50
4.4794472
 51
36.008324
  0
ARC
  8
0
  6
CONTINUOUS
 62
     7
 10
57.459995
 20
35.853165
 40
2.4000001
 50
36.008324
 51
143.99167
  0
ARC
  8
0
  6
CONTINUOUS
 62
     7
 10
57.459995
 20
35.853165
 40
3.5999999
 50
36.008324
 51
143.99167
  0
ARC
  8
0
  6
CONTINUOUS
 62
     7
 10
57.459995
 20
31.053165
 40
2.4000001
 50
216.00833
 51
323.99168
  0
ARC
  8
0
  6
CONTINUOUS
 62
     7
 10
57.459995
 20
31.053165
 40
3.5999999
 50
216.00833
 51
323.99168
  0
ARC
  8
0
  6
CONTINUOUS
 62
     7
 10
60.762306
 20
33.453167
 40
7.6823077
 50
143.99167
 51
175.52055
  0
ARC
  8
0
  6
CONTINUOUS
 62
     7
 10
60.762306
 20
33.453167
 40
6.4823079
 50
143.99167
 51
174.68912
  0
ARC
  8
0
  6
CONTINUOUS
 62
     7
 10
54.157688
 20
33.453167
 40
6.4823079
 50
323.99167
 51
36.008324
  0
ARC
  8
0
  6
CONTINUOUS
 62
     7
 10
54.157688
 20
33.453167
 40
7.6823077
 50
323.99167
 51
355.52055
  0
ARC
  8
0
  6
CONTINUOUS
 62
     7
 10
51.909996
 20
33.453167
 40
0.75
 50
126.8699
 51
233.13009
  0
ARC
  8
0
  6
CONTINUOUS
 62
     7
 10
57.009998
 20
33.453167
 40
0.75
 50
306.8699
 51
53.130102
  0
ARC
  8
0
  6
CONTINUOUS
 62
     7
 10
63.009998
 20
33.453167
 40
0.75
 50
306.8699
 51
53.130102
  0
ARC
  8
0
  6
CONTINUOUS
 62
     7
 10
60.762306
 20
33.453167
 40
6.4823079
 50
185.31088
 51
216.00833
  0
ARC
  8
0
  6
CONTINUOUS
 62
     7
 10
60.762306
 20
33.453167
 40
7.6823077
 50
184.47945
 51
216.00833
  0
ARC
  8
0
  6
CONTINUOUS
 62
     7
 10
54.157688
 20
33.453167
 40
7.6823077
 50
4.4794472
 51
36.008324
  0
ARC
  8
0
  6
CONTINUOUS
 62
     7
 10
161.64885
 20
38.457218
 40
2.4000001
 50
36.008324
 51
143.99167
  0
ARC
  8
0
  6
CONTINUOUS
 62
     7
 10
161.64885
 20
38.457218
 40
3.5999999
 50
36.008324
 51
143.99167
  0
ARC
  8
0
  6
CONTINUOUS
 62
     7
 10
161.64885
 20
33.657219
 40
2.4000001
 50
216.00833
 51
323.99168
  0
ARC
  8
0
  6
CONTINUOUS
 62
     7
 10
161.64885
 20
33.657219
 40
3.5999999
 50
216.00833
 51
323.99168
  0
ARC
  8
0
  6
CONTINUOUS
 62
     7
 10
164.95116
 20
36.057217
 40
7.6823077
 50
143.99167
 51
175.52055
  0
ARC
  8
0
  6
CONTINUOUS
 62
     7
 10
164.95116
 20
36.057217
 40
6.4823079
 50
143.99167
 51
174.68912
  0
ARC
  8
0
  6
CONTINUOUS
 62
     7
 10
158.34654
 20
36.057217
 40
6.4823079
 50
323.99167
 51
36.008324
  0
ARC
  8
0
  6
CONTINUOUS
 62
     7
 10
158.34654
 20
36.057217
 40
7.6823077
 50
323.99167
 51
355.52055
  0
ARC
  8
0
  6
CONTINUOUS
 62
     7
 10
156.09885
 20
36.057217
 40
0.75
 50
126.8699
 51
233.13009
  0
ARC
  8
0
  6
CONTINUOUS
 62
     7
 10
161.19885
 20
36.057217
 40
0.75
 50
306.8699
 51
53.130102
  0
ARC
  8
0
  6
CONTINUOUS
 62
     7
 10
167.19885
 20
36.057217
 40
0.75
 50
306.8699
 51
53.130102
  0
ARC
  8
0
  6
CONTINUOUS
 62
     7
 10
164.95116
 20
36.057217
 40
6.4823079
 50
185.31088
 51
216.00833
  0
ARC
  8
0
  6
CONTINUOUS
 62
     7
 10
164.95116
 20
36.057217
 40
7.6823077
 50
184.47945
 51
216.00833
  0
ARC
  8
0
  6
CONTINUOUS
 62
     7
 10
158.34654
 20
36.057217
 40
7.6823077
 50
4.4794472
 51
36.008324
  0
ARC
  8
0
  6
CONTINUOUS
 62
     7
 10
-247.09023
 20
-59.632782
 40
2.4000001
 50
36.008324
 51
143.99167
  0
ARC
  8
0
  6
CONTINUOUS
 62
     7
 10
-247.09023
 20
-59.632782
 40
3.5999999
 50
36.008324
 51
143.99167
  0
ARC
  8
0
  6
CONTINUOUS
 62
     7
 10
-247.09023
 20
-64.432785
 40
2.4000001
 50
216.00833
 51
323.99168
  0
ARC
  8
0
  6
CONTINUOUS
 62
     7
 10
-247.09023
 20
-64.432785
 40
3.5999999
 50
216.00833
 51
323.99168
  0
ARC
  8
0
  6
CONTINUOUS
 62
     7
 10
-243.78792
 20
-62.032784
 40
7.6823077
 50
143.99167
 51
175.52055
  0
ARC
  8
0
  6
CONTINUOUS
 62
     7
 10
-243.78792
 20
-62.032784
 40
6.4823079
 50
143.99167
 51
174.68912
  0
ARC
  8
0
  6
CONTINUOUS
 62
     7
 10
-250.39253
 20
-62.032784
 40
6.4823079
 50
323.99167
 51
36.008324
  0
ARC
  8
0
  6
CONTINUOUS
 62
     7
 10
-250.39253
 20
-62.032784
 40
7.6823077
 50
323.99167
 51
355.52055
  0
ARC
  8
0
  6
CONTINUOUS
 62
     7
 10
-252.64023
 20
-62.032784
 40
0.75
 50
126.8699
 51
233.13009
  0
ARC
  8
0
  6
CONTINUOUS
 62
     7
 10
-247.54022
 20
-62.032784
 40
0.75
 50
306.8699
 51
53.130102
  0
ARC
  8
0
  6
CONTINUOUS
 62
     7
 10
-241.54022
 20
-62.032784
 40
0.75
 50
306.8699
 51
53.130102
  0
ARC
  8
0
  6
CONTINUOUS
 62
     7
 10
-243.78792
 20
-62.032784
 40
6.4823079
 50
185.31088
 51
216.00833
  0
ARC
  8
0
  6
CONTINUOUS
 62
     7
 10
-243.78792
 20
-62.032784
 40
7.6823077
 50
184.47945
 51
216.00833
  0
ARC
  8
0
  6
CONTINUOUS
 62
     7
 10
-250.39253
 20
-62.032784
 40
7.6823077
 50
4.4794472
 51
36.008324
  0
ARC
  8
0
  6
CONTINUOUS
 62
     7
 10
-150.40094
 20
-58.035713
 40
2.4000001
 50
36.008324
 51
143.99167
  0
ARC
  8
0
  6
CONTINUOUS
 62
     7
 10
-150.40094
 20
-58.035713
 40
3.5999999
 50
36.008324
 51
143.99167
  0
ARC
  8
0
  6
CONTINUOUS
 62
     7
 10
-150.40094
 20
-62.835712
 40
2.4000001
 50
216.00833
 51
323.99168
  0
ARC
  8
0
  6
CONTINUOUS
 62
     7
 10
-150.40094
 20
-62.835712
 40
3.5999999
 50
216.00833
 51
323.99168
  0
ARC
  8
0
  6
CONTINUOUS
 62
     7
 10
-147.09863
 20
-60.435715
 40
7.6823077
 50
143.99167
 51
175.52055
  0
ARC
  8
0
  6
CONTINUOUS
 62
     7
 10
-147.09863
 20
-60.435715
 40
6.4823079
 50
143.99167
 51
174.68912
  0
ARC
  8
0
  6
CONTINUOUS
 62
     7
 10
-153.70325
 20
-60.435715
 40
6.4823079
 50
323.99167
 51
36.008324
  0
ARC
  8
0
  6
CONTINUOUS
 62
     7
 10
-153.70325
 20
-60.435715
 40
7.6823077
 50
323.99167
 51
355.52055
  0
ARC
  8
0
  6
CONTINUOUS
 62
     7
 10
-155.95094
 20
-60.435715
 40
0.75
 50
126.8699
 51
233.13009
  0
ARC
  8
0
  6
CONTINUOUS
 62
     7
 10
-150.85094
 20
-60.435715
 40
0.75
 50
306.8699
 51
53.130102
  0
ARC
  8
0
  6
CONTINUOUS
 62
     7
 10
-144.85094
 20
-60.435715
 40
0.75
 50
306.8699
 51
53.130102
  0
ARC
  8
0
  6
CONTINUOUS
 62
     7
 10
-147.09863
 20
-60.435715
 40
6.4823079
 50
185.31088
 51
216.00833
  0
ARC
  8
0
  6
CONTINUOUS
 62
     7
 10
-147.09863
 20
-60.435715
 40
7.6823077
 50
184.47945
 51
216.00833
  0
ARC
  8
0
  6
CONTINUOUS
 62
     7
 10
-153.70325
 20
-60.435715
 40
7.6823077
 50
4.4794472
 51
36.008324
  0
ARC
  8
0
  6
CONTINUOUS
 62
     7
 10
-51.22385
 20
-62.192703
 40
2.4000001
 50
36.008324
 51
143.99167
  0
ARC
  8
0
  6
CONTINUOUS
 62
     7
 10
-51.22385
 20
-62.192703
 40
3.5999999
 50
36.008324
 51
143.99167
  0
ARC
  8
0
  6
CONTINUOUS
 62
     7
 10
-51.22385
 20
-66.992706
 40
2.4000001
 50
216.00833
 51
323.99168
  0
ARC
  8
0
  6
CONTINUOUS
 62
     7
 10
-51.22385
 20
-66.992706
 40
3.5999999
 50
216.00833
 51
323.99168
  0
ARC
  8
0
  6
CONTINUOUS
 62
     7
 10
-47.921543
 20
-64.592705
 40
7.6823077
 50
143.99167
 51
175.52055
  0
ARC
  8
0
  6
CONTINUOUS
 62
     7
 10
-47.921543
 20
-64.592705
 40
6.4823079
 50
143.99167
 51
174.68912
  0
ARC
  8
0
  6
CONTINUOUS
 62
     7
 10
-54.526157
 20
-64.592705
 40
6.4823079
 50
323.99167
 51
36.008324
  0
ARC
  8
0
  6
CONTINUOUS
 62
     7
 10
-54.526157
 20
-64.592705
 40
7.6823077
 50
323.99167
 51
355.52055
  0
ARC
  8
0
  6
CONTINUOUS
 62
     7
 10
-56.773853
 20
-64.592705
 40
0.75
 50
126.8699
 51
233.13009
  0
ARC
  8
0
  6
CONTINUOUS
 62
     7
 10
-51.673851
 20
-64.592705
 40
0.75
 50
306.8699
 51
53.130102
  0
ARC
  8
0
  6
CONTINUOUS
 62
     7
 10
-45.673851
 20
-64.592705
 40
0.75
 50
306.8699
 51
53.130102
  0
ARC
  8
0
  6
CONTINUOUS
 62
     7
 10
-47.921543
 20
-64.592705
 40
6.4823079
 50
185.31088
 51
216.00833
  0
ARC
  8
0
  6
CONTINUOUS
 62
     7
 10
-47.921543
 20
-64.592705
 40
7.6823077
 50
184.47945
 51
216.00833
  0
ARC
  8
0
  6
CONTINUOUS
 62
     7
 10
-54.526157
 20
-64.592705
 40
7.6823077
 50
4.4794472
 51
36.008324
  0
ARC
  8
0
  6
CONTINUOUS
 62
     7
 10
59.871899
 20
-56.070839
 40
3
 50
36.008324
 51
143.99167
  0
ARC
  8
0
  6
CONTINUOUS
 62
     7
 10
59.871899
 20
-56.070839
 40
4.5
 50
36.008324
 51
143.99167
  0
ARC
  8
0
  6
CONTINUOUS
 62
     7
 10
59.871899
 20
-62.070839
 40
3
 50
216.00833
 51
323.99168
  0
ARC
  8
0
  6
CONTINUOUS
 62
     7
 10
59.871899
 20
-62.070839
 40
4.5
 50
216.00833
 51
323.99168
  0
ARC
  8
0
  6
CONTINUOUS
 62
     7
 10
63.999783
 20
-59.070839
 40
9.6028843
 50
143.99167
 51
175.52055
  0
ARC
  8
0
  6
CONTINUOUS
 62
     7
 10
63.999783
 20
-59.070839
 40
8.1028843
 50
143.99167
 51
174.68912
  0
ARC
  8
0
  6
CONTINUOUS
 62
     7
 10
55.744015
 20
-59.070839
 40
8.1028843
 50
323.99167
 51
36.008324
  0
ARC
  8
0
  6
CONTINUOUS
 62
     7
 10
55.744015
 20
-59.070839
 40
9.6028843
 50
323.99167
 51
355.52055
  0
ARC
  8
0
  6
CONTINUOUS
 62
     7
 10
52.934399
 20
-59.070839
 40
0.9375
 50
126.8699
 51
233.13009
  0
ARC
  8
0
  6
CONTINUOUS
 62
     7
 10
59.309399
 20
-59.070839
 40
0.9375
 50
306.8699
 51
53.130102
  0
ARC
  8
0
  6
CONTINUOUS
 62
     7
 10
66.809395
 20
-59.070839
 40
0.9375
 50
306.8699
 51
53.130102
  0
ARC
  8
0
  6
CONTINUOUS
 62
     7
 10
63.999783
 20
-59.070839
 40
9.6028843
 50
184.47945
 51
216.00833
  0
ARC
  8
0
  6
CONTINUOUS
 62
     7
 10
63.999783
 20
-59.070839
 40
8.1028843
 50
185.31088
 51
216.00833
  0
ARC
  8
0
  6
CONTINUOUS
 62
     7
 10
55.744015
 20
-59.070839
 40
9.6028843
 50
4.4794472
 51
36.008324
  0
ARC
  8
0
  6
CONTINUOUS
 62
     7
 10
176.35715
 20
-55.277649
 40
3
 50
36.008324
 51
143.99167
  0
ARC
  8
0
  6
CONTINUOUS
 62
     7
 10
176.35715
 20
-55.277649
 40
4.5
 50
36.008324
 51
143.99167
  0
ARC
  8
0
  6
CONTINUOUS
 62
     7
 10
176.35715
 20
-61.277649
 40
3
 50
216.00833
 51
323.99168
  0
ARC
  8
0
  6
CONTINUOUS
 62
     7
 10
176.35715
 20
-61.277649
 40
4.5
 50
216.00833
 51
323.99168
  0
ARC
  8
0
  6
CONTINUOUS
 62
     7
 10
180.48503
 20
-58.277649
 40
9.6028843
 50
143.99167
 51
175.52055
  0
ARC
  8
0
  6
CONTINUOUS
 62
     7
 10
180.48503
 20
-58.277649
 40
8.1028843
 50
143.99167
 51
174.68912
  0
ARC
  8
0
  6
CONTINUOUS
 62
     7
 10
172.22926
 20
-58.277649
 40
8.1028843
 50
323.99167
 51
36.008324
  0
ARC
  8
0
  6
CONTINUOUS
 62
     7
 10
172.22926
 20
-58.277649
 40
9.6028843
 50
323.99167
 51
355.52055
  0
ARC
  8
0
  6
CONTINUOUS
 62
     7
 10
169.41965
 20
-58.277649
 40
0.9375
 50
126.8699
 51
233.13009
  0
ARC
  8
0
  6
CONTINUOUS
 62
     7
 10
175.79465
 20
-58.277649
 40
0.9375
 50
306.8699
 51
53.130102
  0
ARC
  8
0
  6
CONTINUOUS
 62
     7
 10
183.29465
 20
-58.277649
 40
0.9375
 50
306.8699
 51
53.130102
  0
ARC
  8
0
  6
CONTINUOUS
 62
     7
 10
180.48503
 20
-58.277649
 40
9.6028843
 50
184.47945
 51
216.00833
  0
ARC
  8
0
  6
CONTINUOUS
 62
     7
 10
180.48503
 20
-58.277649
 40
8.1028843
 50
185.31088
 51
216.00833
  0
ARC
  8
0
  6
CONTINUOUS
 62
     7
 10
172.22926
 20
-58.277649
 40
9.6028843
 50
4.4794472
 51
36.008324
  0
ARC
  8
0
  6
CONTINUOUS
 62
     7
 10
-230.17494
 20
-161.94467
 40
3
 50
36.008324
 51
143.99167
  0
ARC
  8
0
  6
CONTINUOUS
 62
     7
 10
-230.17494
 20
-161.94467
 40
4.5
 50
36.008324
 51
143.99167
  0
ARC
  8
0
  6
CONTINUOUS
 62
     7
 10
-230.17494
 20
-167.94467
 40
3
 50
216.00833
 51
323.99168
  0
ARC
  8
0
  6
CONTINUOUS
 62
     7
 10
-230.17494
 20
-167.94467
 40
4.5
 50
216.00833
 51
323.99168
  0
ARC
  8
0
  6
CONTINUOUS
 62
     7
 10
-226.04706
 20
-164.94467
 40
9.6028843
 50
143.99167
 51
175.52055
  0
ARC
  8
0
  6
CONTINUOUS
 62
     7
 10
-226.04706
 20
-164.94467
 40
8.1028843
 50
143.99167
 51
174.68912
  0
ARC
  8
0
  6
CONTINUOUS
 62
     7
 10
-234.30283
 20
-164.94467
 40
8.1028843
 50
323.99167
 51
36.008324
  0
ARC
  8
0
  6
CONTINUOUS
 62
     7
 10
-234.30283
 20
-164.94467
 40
9.6028843
 50
323.99167
 51
355.52055
  0
ARC
  8
0
  6
CONTINUOUS
 62
     7
 10
-237.11244
 20
-164.94467
 40
0.9375
 50
126.8699
 51
233.13009
  0
ARC
  8
0
  6
CONTINUOUS
 62
     7
 10
-230.73744
 20
-164.94467
 40
0.9375
 50
306.8699
 51
53.130102
  0
ARC
  8
0
  6
CONTINUOUS
 62
     7
 10
-223.23744
 20
-164.94467
 40
0.9375
 50
306.8699
 51
53.130102
  0
ARC
  8
0
  6
CONTINUOUS
 62
     7
 10
-226.04706
 20
-164.94467
 40
9.6028843
 50
184.47945
 51
216.00833
  0
ARC
  8
0
  6
CONTINUOUS
 62
     7
 10
-226.04706
 20
-164.94467
 40
8.1028843
 50
185.31088
 51
216.00833
  0
ARC
  8
0
  6
CONTINUOUS
 62
     7
 10
-234.30283
 20
-164.94467
 40
9.6028843
 50
4.4794472
 51
36.008324
  0
ARC
  8
0
  6
CONTINUOUS
 62
     7
 10
-98.161362
 20
-167.8396
 40
3
 50
36.008324
 51
143.99167
  0
ARC
  8
0
  6
CONTINUOUS
 62
     7
 10
-98.161362
 20
-167.8396
 40
4.5
 50
36.008324
 51
143.99167
  0
ARC
  8
0
  6
CONTINUOUS
 62
     7
 10
-98.161362
 20
-173.8396
 40
3
 50
216.00833
 51
323.99168
  0
ARC
  8
0
  6
CONTINUOUS
 62
     7
 10
-98.161362
 20
-173.8396
 40
4.5
 50
216.00833
 51
323.99168
  0
ARC
  8
0
  6
CONTINUOUS
 62
     7
 10
-94.033478
 20
-170.8396
 40
9.6028843
 50
143.99167
 51
175.52055
  0
ARC
  8
0
  6
CONTINUOUS
 62
     7
 10
-94.033478
 20
-170.8396
 40
8.1028843
 50
143.99167
 51
174.68912
  0
ARC
  8
0
  6
CONTINUOUS
 62
     7
 10
-102.28925
 20
-170.8396
 40
8.1028843
 50
323.99167
 51
36.008324
  0
ARC
  8
0
  6
CONTINUOUS
 62
     7
 10
-102.28925
 20
-170.8396
 40
9.6028843
 50
323.99167
 51
355.52055
  0
ARC
  8
0
  6
CONTINUOUS
 62
     7
 10
-105.09886
 20
-170.8396
 40
0.9375
 50
126.8699
 51
233.13009
  0
ARC
  8
0
  6
CONTINUOUS
 62
     7
 10
-98.723862
 20
-170.8396
 40
0.9375
 50
306.8699
 51
53.130102
  0
ARC
  8
0
  6
CONTINUOUS
 62
     7
 10
-91.223862
 20
-170.8396
 40
0.9375
 50
306.8699
 51
53.130102
  0
ARC
  8
0
  6
CONTINUOUS
 62
     7
 10
-94.033478
 20
-170.8396
 40
9.6028843
 50
184.47945
 51
216.00833
  0
ARC
  8
0
  6
CONTINUOUS
 62
     7
 10
-94.033478
 20
-170.8396
 40
8.1028843
 50
185.31088
 51
216.00833
  0
ARC
  8
0
  6
CONTINUOUS
 62
     7
 10
-102.28925
 20
-170.8396
 40
9.6028843
 50
4.4794472
 51
36.008324
  0
ARC
  8
0
  6
CONTINUOUS
 62
     7
 10
37.810383
 20
-169.78778
 40
3
 50
36.008324
 51
143.99167
  0
ARC
  8
0
  6
CONTINUOUS
 62
     7
 10
37.810383
 20
-169.78778
 40
4.5
 50
36.008324
 51
143.99167
  0
ARC
  8
0
  6
CONTINUOUS
 62
     7
 10
37.810383
 20
-175.78778
 40
3
 50
216.00833
 51
323.99168
  0
ARC
  8
0
  6
CONTINUOUS
 62
     7
 10
37.810383
 20
-175.78778
 40
4.5
 50
216.00833
 51
323.99168
  0
ARC
  8
0
  6
CONTINUOUS
 62
     7
 10
41.938267
 20
-172.78778
 40
9.6028843
 50
143.99167
 51
175.52055
  0
ARC
  8
0
  6
CONTINUOUS
 62
     7
 10
41.938267
 20
-172.78778
 40
8.1028843
 50
143.99167
 51
174.68912
  0
ARC
  8
0
  6
CONTINUOUS
 62
     7
 10
33.682499
 20
-172.78778
 40
8.1028843
 50
323.99167
 51
36.008324
  0
ARC
  8
0
  6
CONTINUOUS
 62
     7
 10
33.682499
 20
-172.78778
 40
9.6028843
 50
323.99167
 51
355.52055
  0
ARC
  8
0
  6
CONTINUOUS
 62
     7
 10
30.872883
 20
-172.78778
 40
0.9375
 50
126.8699
 51
233.13009
  0
ARC
  8
0
  6
CONTINUOUS
 62
     7
 10
37.247883
 20
-172.78778
 40
0.9375
 50
306.8699
 51
53.130102
  0
ARC
  8
0
  6
CONTINUOUS
 62
     7
 10
44.747883
 20
-172.78778
 40
0.9375
 50
306.8699
 51
53.130102
  0
ARC
  8
0
  6
CONTINUOUS
 62
     7
 10
41.938267
 20
-172.78778
 40
9.6028843
 50
184.47945
 51
216.00833
  0
ARC
  8
0
  6
CONTINUOUS
 62
     7
 10
41.938267
 20
-172.78778
 40
8.1028843
 50
185.31088
 51
216.00833
  0
ARC
  8
0
  6
CONTINUOUS
 62
     7
 10
33.682499
 20
-172.78778
 40
9.6028843
 50
4.4794472
 51
36.008324
  0
TEXT
  8
0
  6
CONTINUOUS
 62
     7
 10
-242.41299
 20
168.68265
 40
3.2
 41
0.84634979
  1
１／２×１／４
  0
TEXT
  8
0
  6
CONTINUOUS
 62
     7
 10
-170.6089
 20
168.36207
 40
3.2
 41
0.84634979
  1
１／２×１／４
  0
TEXT
  8
0
  6
CONTINUOUS
 62
     7
 10
-101.63094
 20
171.16418
 40
3.2
 41
0.84634979
  1
１／２×３／８
  0
TEXT
  8
0
  6
CONTINUOUS
 62
     7
 10
-30.248385
 20
172.41987
 40
3.2
 41
0.84634979
  1
３／４×３／８
  0
TEXT
  8
0
  6
CONTINUOUS
 62
     7
 10
51.620645
 20
171.67118
 40
3.2
 41
0.84634979
  1
３／４×１／２
  0
TEXT
  8
0
  6
CONTINUOUS
 62
     7
 10
135.67121
 20
171.84633
 40
3.2
 41
0.84892707
  1
１×３／８
  0
TEXT
  8
0
  6
CONTINUOUS
 62
     7
 10
222.44802
 20
172.32227
 40
3.2
 41
0.84892707
  1
１×１／２
  0
TEXT
  8
0
  6
CONTINUOUS
 62
     7
 10
-237.6128
 20
79.31008
 40
3.2
 41
0.84892707
  1
１×３／４
  0
TEXT
  8
0
  6
CONTINUOUS
 62
     7
 10
-142.32998
 20
80.320547
 40
3.2
 41
0.8455654
  1
１１／４×１／２
  0
TEXT
  8
0
  6
CONTINUOUS
 62
     7
 10
-38.946879
 20
81.654852
 40
3.2
 41
0.8455654
  1
１１／４×３／４
  0
TEXT
  8
0
  6
CONTINUOUS
 62
     7
 10
61.681688
 20
87.734473
 40
3.2
 41
0.84741102
  1
１１／４×１
  0
TEXT
  8
0
  6
CONTINUOUS
 62
     7
 10
160.7706
 20
78.540076
 40
3.2
 41
0.8455654
  1
１１／２×１／２
  0
TEXT
  8
0
  6
CONTINUOUS
 62
     7
 10
-236.57609
 20
-12.535639
 40
3.2
 41
0.8455654
  1
１１／２×３／４
  0
TEXT
  8
0
  6
CONTINUOUS
 62
     7
 10
-148.69784
 20
-5.9042379
 40
3.2
 41
0.84741102
  1
１１／２×１
  0
TEXT
  8
0
  6
CONTINUOUS
 62
     7
 10
-46.925944
 20
-0.49876404
 40
3.2
 41
0.84496202
  1
１１／２×１１／４
  0
TEXT
  8
0
  6
CONTINUOUS
 62
     7
 10
58.545805
 20
-15.446595
 40
3.2
 41
0.84892707
  1
２×１／２
  0
TEXT
  8
0
  6
CONTINUOUS
 62
     7
 10
182.05059
 20
-7.5880944
 40
3.2
 41
0.84892707
  1
２×３／４
  0
TEXT
  8
0
  6
CONTINUOUS
 62
     7
 10
-222.58227
 20
-109.16719
 40
3.2
 41
0.85537027
  1
２×１
  0
TEXT
  8
0
  6
CONTINUOUS
 62
     7
 10
-93.282351
 20
-106.19749
 40
3.2
 41
0.84741102
  1
２×１１／４
  0
TEXT
  8
0
  6
CONTINUOUS
 62
     7
 10
36.876714
 20
-100.70356
 40
3.2
 41
0.84741102
  1
２×１１／２
  0
TEXT
  8
0
  6
CONTINUOUS
 62
     7
 10
-64.013979
 20
183.82947
 40
10
 41
0.84741102
  1
径違いエルボ
  0
ENDSEC
  0
EOF
