  0
SECTION
  2
HEADER
  9
$EXTMAX
 10
297.25922
 20
211.66544
  9
$EXTMIN
 10
-297.25922
 20
-210.82214
  0
ENDSEC
  0
SECTION
  2
TABLES
  0
TABLE
  2
LTYPE
 70
    22
  0
LTYPE
  2
CONTINUOUS
 70
    64
  3
Solid line
 72
    65
 73
     0
 40
0.000000
  0
LTYPE
  2
DASHED
 70
    64
  3
__ __ __ __ __ __ __ __ __ __ __ __ __ __ __
 72
    65
 73
     2
 40
3.500000
 49
2.000000
 49
-1.500000
  0
LTYPE
  2
CENTER
 70
    64
  3
____ _ ____ _ ____ _ ____ _ ____ _ ____ _ ____
 72
    65
 73
     4
 40
17.500000
 49
13.000000
 49
-1.500000
 49
1.500000
 49
-1.500000
  0
LTYPE
  2
PHANTOM
 70
    64
  3
_____ _ _ _____ _ _ _____ _ _ _____ _ _ ____  
 72
    65
 73
     6
 40
15.500000
 49
8.000000
 49
-1.500000
 49
1.500000
 49
-1.500000
 49
1.500000
 49
-1.500000
  0
LTYPE
  2
DOT
 70
    64
  3
. . . . . . . . . . . . . . . . . . . . . . . .
 72
    65
 73
     2
 40
0.25
 49
0.0
 49
-0.25
  0
ENDTAB
  0
TABLE
  2
LAYER
 70
     1
  0
LAYER
  2
0
 70
     0
 62
     7
  6
CONTINUOUS
  0
ENDTAB
  0
TABLE
  2
STYLE
 70
     1
  0
STYLE
  2
STANDARD
 70
     0
 40
0.000000
 41
1.000000
 50
0.000000
 71
     0
 42
0.200000
  3
txt
  4
BIGFONT
  0
ENDTAB
  0
TABLE
  2
VIEW
 70
     0
  0
ENDTAB
  0
ENDSEC
  0
SECTION
  2
BLOCKS
  0
BLOCK
  8
0
  2
KOZU1
 70
    64
 10
0
 20
0
  0
POINT
  8
0
  6
CONTINUOUS
 62
     7
 10
0
 20
0
  0
LINE
  8
0
  6
CONTINUOUS
 62
     7
 10
-16.299988
 20
2.5
 11
-16.299988
 21
0
  0
LINE
  8
0
  6
CONTINUOUS
 62
     7
 10
-16.299986
 20
2.4999926
 11
-15.999997
 21
3.5306151
  0
LINE
  8
0
  6
CONTINUOUS
 62
     7
 10
-15.999994
 20
3.5306187
 11
-14.751623
 21
4.7790017
  0
LINE
  8
0
  6
CONTINUOUS
 62
     7
 10
-14.751689
 20
4.7789211
 11
-6.3006845
 21
5.043015
  0
LINE
  8
0
  6
CONTINUOUS
 62
     7
 10
-4.2305183
 20
8.0829163
 11
-5
 21
6.7501345
  0
LINE
  8
0
  6
CONTINUOUS
 62
     7
 10
-4.2304535
 20
8.0828857
 11
4.2304535
 21
8.0828857
  0
LINE
  8
0
  6
CONTINUOUS
 62
     7
 10
4.2304602
 20
8.0828753
 11
5
 21
6.7499914
  0
LINE
  8
0
  6
CONTINUOUS
 62
     7
 10
14.751721
 20
4.7789197
 11
6.3006849
 21
5.0430145
  0
LINE
  8
0
  6
CONTINUOUS
 62
     7
 10
16.000002
 20
3.5306273
 11
14.75163
 21
4.7790108
  0
LINE
  8
0
  6
CONTINUOUS
 62
     7
 10
16.299982
 20
2.5000086
 11
15.999995
 21
3.5306318
  0
LINE
  8
0
  6
CONTINUOUS
 62
     7
 10
16.299988
 20
2.5
 11
16.299988
 21
0
  0
LINE
  8
0
  6
CONTINUOUS
 62
     7
 10
5
 20
6.7501221
 11
5
 21
0
  0
LINE
  8
0
  6
CONTINUOUS
 62
     7
 10
-4.2304535
 20
4.0414429
 11
4.2304535
 21
4.0414429
  0
LINE
  8
0
  6
CONTINUOUS
 62
     7
 10
-5
 20
6.7501221
 11
-5
 21
0
  0
LINE
  8
0
  6
CENTER
 62
     7
 10
-21
 20
0
 11
21
 21
0
  0
LINE
  8
0
  6
CONTINUOUS
 62
     7
 10
-16.299988
 20
-2.5
 11
-16.299988
 21
0
  0
LINE
  8
0
  6
CONTINUOUS
 62
     7
 10
-16.299982
 20
-2.5000067
 11
-15.999997
 21
-3.5306144
  0
LINE
  8
0
  6
CONTINUOUS
 62
     7
 10
-16.000004
 20
-3.5306151
 11
-14.751632
 21
-4.7789989
  0
LINE
  8
0
  6
CONTINUOUS
 62
     7
 10
-14.75169
 20
-4.7789283
 11
-6.3006768
 21
-5.0430226
  0
LINE
  8
0
  6
CONTINUOUS
 62
     7
 10
-4.2305155
 20
-8.0829115
 11
-5
 21
-6.7501245
  0
LINE
  8
0
  6
CONTINUOUS
 62
     7
 10
-4.2304535
 20
-8.0828857
 11
4.2304535
 21
-8.0828857
  0
LINE
  8
0
  6
CONTINUOUS
 62
     7
 10
4.230453
 20
-8.0828772
 11
5
 21
-6.7499809
  0
LINE
  8
0
  6
CONTINUOUS
 62
     7
 10
14.751719
 20
-4.7789268
 11
7.6490388
 21
-5.0008855
  0
LINE
  8
0
  6
CONTINUOUS
 62
     7
 10
16.000008
 20
-3.5306268
 11
14.751636
 21
-4.7790108
  0
LINE
  8
0
  6
CONTINUOUS
 62
     7
 10
16.299974
 20
-2.5000048
 11
15.999989
 21
-3.530628
  0
LINE
  8
0
  6
CONTINUOUS
 62
     7
 10
16.299988
 20
-2.5
 11
16.299988
 21
0
  0
LINE
  8
0
  6
CONTINUOUS
 62
     7
 10
5
 20
-6.7501221
 11
5
 21
0
  0
LINE
  8
0
  6
CONTINUOUS
 62
     7
 10
-4.2304535
 20
-4.0414429
 11
4.2304535
 21
-4.0414429
  0
LINE
  8
0
  6
CONTINUOUS
 62
     7
 10
-5
 20
-6.7501221
 11
-5
 21
0
  0
LINE
  8
0
  6
CONTINUOUS
 62
     7
 10
6.8907228
 20
4.4529772
 11
15.341752
 21
4.1888824
  0
LINE
  8
0
  6
CONTINUOUS
 62
     7
 10
14.751721
 20
4.7789197
 11
14.751721
 21
0
  0
LINE
  8
0
  6
CONTINUOUS
 62
     7
 10
15.341753
 20
4.1888824
 11
15.341753
 21
0
  0
LINE
  8
0
  6
CONTINUOUS
 62
     7
 10
14.751721
 20
-4.7789197
 11
6.6617417
 21
-5.0317316
  0
LINE
  8
0
  6
CONTINUOUS
 62
     7
 10
14.751721
 20
-4.7789197
 11
14.751721
 21
0
  0
LINE
  8
0
  6
CONTINUOUS
 62
     7
 10
7.4155674
 20
-4.4365754
 11
15.341752
 21
-4.1888824
  0
LINE
  8
0
  6
CONTINUOUS
 62
     7
 10
15.341753
 20
-4.1888824
 11
15.341753
 21
0
  0
LINE
  8
0
  6
CONTINUOUS
 62
     7
 10
-15.341753
 20
-4.1888824
 11
-15.341753
 21
0
  0
LINE
  8
0
  6
CONTINUOUS
 62
     7
 10
-6.8907228
 20
-4.4529772
 11
-15.341752
 21
-4.1888824
  0
LINE
  8
0
  6
CONTINUOUS
 62
     7
 10
-14.751721
 20
4.7789197
 11
-14.751721
 21
0
  0
LINE
  8
0
  6
CONTINUOUS
 62
     7
 10
-6.8907228
 20
4.4529772
 11
-15.341752
 21
4.1888824
  0
LINE
  8
0
  6
CONTINUOUS
 62
     7
 10
-15.341753
 20
4.1888824
 11
-15.341753
 21
0
  0
LINE
  8
0
  6
CONTINUOUS
 62
     7
 10
-14.751721
 20
-4.7789197
 11
-14.751721
 21
0
  0
LINE
  8
0
  6
CONTINUOUS
 62
     7
 10
5
 20
6.3436995
 11
6.8907228
 21
4.4529767
  0
LINE
  8
0
  6
CONTINUOUS
 62
     7
 10
6.8907228
 20
5.0245757
 11
6.8907228
 21
0
  0
LINE
  8
0
  6
CONTINUOUS
 62
     7
 10
14.751721
 20
-4.7789197
 11
6.3006849
 21
-5.0430145
  0
LINE
  8
0
  6
CONTINUOUS
 62
     7
 10
6.8907228
 20
-4.4529772
 11
15.341752
 21
-4.1888824
  0
LINE
  8
0
  6
CONTINUOUS
 62
     7
 10
5
 20
-6.3436995
 11
6.8907228
 21
-4.4529767
  0
LINE
  8
0
  6
CONTINUOUS
 62
     7
 10
6.8907228
 20
-5.0245757
 11
6.8907228
 21
0
  0
LINE
  8
0
  6
CONTINUOUS
 62
     7
 10
-5
 20
-6.3436995
 11
-6.8907228
 21
-4.4529767
  0
LINE
  8
0
  6
CONTINUOUS
 62
     7
 10
-5
 20
6.3436995
 11
-6.8907228
 21
4.4529767
  0
LINE
  8
0
  6
CONTINUOUS
 62
     7
 10
-6.8907228
 20
5.0245757
 11
-6.8907228
 21
0
  0
LINE
  8
0
  6
CONTINUOUS
 62
     7
 10
-6.8907228
 20
-5.0245757
 11
-6.8907228
 21
0
  0
POLYLINE
  8
0
  6
CONTINUOUS
 62
     7
 66
     1
 10
0
 20
0
  0
VERTEX
  8
0
  6
CONTINUOUS
 62
     7
 10
4.2304535
 20
4.0414429
 42
0.042553069
  0
VERTEX
  8
0
  6
CONTINUOUS
 62
     7
 10
4.6239422
 20
4.6591231
 42
0.051699991
  0
VERTEX
  8
0
  6
CONTINUOUS
 62
     7
 10
4.8960255
 20
5.3386433
 42
0.068283366
  0
VERTEX
  8
0
  6
CONTINUOUS
 62
     7
 10
5
 20
6.0621796
 42
0
  0
SEQEND
  8
0
  0
POLYLINE
  8
0
  6
CONTINUOUS
 62
     7
 66
     1
 10
0
 20
0
  0
VERTEX
  8
0
  6
CONTINUOUS
 62
     7
 10
5
 20
0
 42
0.032567273
  0
VERTEX
  8
0
  6
CONTINUOUS
 62
     7
 10
4.9089295
 20
1.3764112
 42
0.030041905
  0
VERTEX
  8
0
  6
CONTINUOUS
 62
     7
 10
4.6472205
 20
2.7293955
 42
0.028337298
  0
VERTEX
  8
0
  6
CONTINUOUS
 62
     7
 10
4.2304535
 20
4.0414429
 42
0
  0
SEQEND
  8
0
  0
POLYLINE
  8
0
  6
CONTINUOUS
 62
     7
 66
     1
 10
0
 20
0
  0
VERTEX
  8
0
  6
CONTINUOUS
 62
     7
 10
-4.2304535
 20
4.0414429
 42
-0.042553069
  0
VERTEX
  8
0
  6
CONTINUOUS
 62
     7
 10
-4.6239422
 20
4.6591231
 42
-0.051699991
  0
VERTEX
  8
0
  6
CONTINUOUS
 62
     7
 10
-4.8960255
 20
5.3386433
 42
-0.068283366
  0
VERTEX
  8
0
  6
CONTINUOUS
 62
     7
 10
-5
 20
6.0621796
 42
0
  0
SEQEND
  8
0
  0
POLYLINE
  8
0
  6
CONTINUOUS
 62
     7
 66
     1
 10
0
 20
0
  0
VERTEX
  8
0
  6
CONTINUOUS
 62
     7
 10
-5
 20
0
 42
-0.032567273
  0
VERTEX
  8
0
  6
CONTINUOUS
 62
     7
 10
-4.9089295
 20
1.3764112
 42
-0.030041905
  0
VERTEX
  8
0
  6
CONTINUOUS
 62
     7
 10
-4.6472205
 20
2.7293955
 42
-0.028337298
  0
VERTEX
  8
0
  6
CONTINUOUS
 62
     7
 10
-4.2304535
 20
4.0414429
 42
0
  0
SEQEND
  8
0
  0
POLYLINE
  8
0
  6
CONTINUOUS
 62
     7
 66
     1
 10
0
 20
0
  0
VERTEX
  8
0
  6
CONTINUOUS
 62
     7
 10
4.2304535
 20
-4.0414429
 42
-0.042553069
  0
VERTEX
  8
0
  6
CONTINUOUS
 62
     7
 10
4.6239422
 20
-4.6591231
 42
-0.051699991
  0
VERTEX
  8
0
  6
CONTINUOUS
 62
     7
 10
4.8960255
 20
-5.3386433
 42
-0.068283366
  0
VERTEX
  8
0
  6
CONTINUOUS
 62
     7
 10
5
 20
-6.0621796
 42
0
  0
SEQEND
  8
0
  0
POLYLINE
  8
0
  6
CONTINUOUS
 62
     7
 66
     1
 10
0
 20
0
  0
VERTEX
  8
0
  6
CONTINUOUS
 62
     7
 10
5
 20
0
 42
-0.032567273
  0
VERTEX
  8
0
  6
CONTINUOUS
 62
     7
 10
4.9089295
 20
-1.3764112
 42
-0.030041905
  0
VERTEX
  8
0
  6
CONTINUOUS
 62
     7
 10
4.6472205
 20
-2.7293955
 42
-0.028337298
  0
VERTEX
  8
0
  6
CONTINUOUS
 62
     7
 10
4.2304535
 20
-4.0414429
 42
0
  0
SEQEND
  8
0
  0
POLYLINE
  8
0
  6
CONTINUOUS
 62
     7
 66
     1
 10
0
 20
0
  0
VERTEX
  8
0
  6
CONTINUOUS
 62
     7
 10
-4.2304535
 20
-4.0414429
 42
0.042553069
  0
VERTEX
  8
0
  6
CONTINUOUS
 62
     7
 10
-4.6239422
 20
-4.6591231
 42
0.051699991
  0
VERTEX
  8
0
  6
CONTINUOUS
 62
     7
 10
-4.8960255
 20
-5.3386433
 42
0.068283366
  0
VERTEX
  8
0
  6
CONTINUOUS
 62
     7
 10
-5
 20
-6.0621796
 42
0
  0
SEQEND
  8
0
  0
POLYLINE
  8
0
  6
CONTINUOUS
 62
     7
 66
     1
 10
0
 20
0
  0
VERTEX
  8
0
  6
CONTINUOUS
 62
     7
 10
-5
 20
0
 42
0.032567273
  0
VERTEX
  8
0
  6
CONTINUOUS
 62
     7
 10
-4.9089295
 20
-1.3764112
 42
0.030041905
  0
VERTEX
  8
0
  6
CONTINUOUS
 62
     7
 10
-4.6472205
 20
-2.7293955
 42
0.028337298
  0
VERTEX
  8
0
  6
CONTINUOUS
 62
     7
 10
-4.2304535
 20
-4.0414429
 42
0
  0
SEQEND
  8
0
  0
TEXT
  8
0
  6
CONTINUOUS
 62
     7
 10
-4.8861579
 20
9.0989498
 40
3.2
 41
1.0178906
  1
1/8
  0
LINE
  8
0
  6
CONTINUOUS
 62
     7
 10
-2.5
 20
0.24999989
 11
-1.8152224
 21
0.24999992
  0
LINE
  8
0
  6
CONTINUOUS
 62
     7
 10
-2.5
 20
-0.25000011
 11
-1.8152224
 21
-0.25000008
  0
LINE
  8
0
  6
CONTINUOUS
 62
     7
 10
1.8152224
 20
-0.24999992
 11
2.5
 21
-0.24999989
  0
LINE
  8
0
  6
CONTINUOUS
 62
     7
 10
1.8152224
 20
0.25000008
 11
2.5
 21
0.25000011
  0
LINE
  8
0
  6
CONTINUOUS
 62
     7
 10
-1.3134051
 20
-0.25000006
 11
1.0927848E-008
 21
-0.25
  0
LINE
  8
0
  6
CONTINUOUS
 62
     7
 10
-1.3134052
 20
0.24999994
 11
-1.0927848E-008
 21
0.25
  0
ARC
  8
0
  6
CONTINUOUS
 62
     7
 10
-4.371139E-008
 20
1
 40
1
 50
36.008327
 51
143.99168
  0
ARC
  8
0
  6
CONTINUOUS
 62
     7
 10
-4.371139E-008
 20
1
 40
1.5
 50
36.008327
 51
143.99168
  0
ARC
  8
0
  6
CONTINUOUS
 62
     7
 10
4.371139E-008
 20
-1
 40
1
 50
216.00833
 51
323.99168
  0
ARC
  8
0
  6
CONTINUOUS
 62
     7
 10
4.371139E-008
 20
-1
 40
1.5
 50
216.00833
 51
323.99168
  0
ARC
  8
0
  6
CONTINUOUS
 62
     7
 10
1.3759615
 20
6.0145192E-008
 40
3.2009616
 50
143.99168
 51
175.52056
  0
ARC
  8
0
  6
CONTINUOUS
 62
     7
 10
1.3759615
 20
6.0145192E-008
 40
2.7009616
 50
143.99168
 51
174.68912
  0
ARC
  8
0
  6
CONTINUOUS
 62
     7
 10
-1.3759615
 20
-6.0145192E-008
 40
2.7009616
 50
323.99167
 51
36.008327
  0
ARC
  8
0
  6
CONTINUOUS
 62
     7
 10
-1.3759615
 20
-6.0145192E-008
 40
3.2009616
 50
323.99167
 51
355.52055
  0
ARC
  8
0
  6
CONTINUOUS
 62
     7
 10
-2.3125
 20
-1.0108259E-007
 40
0.3125
 50
126.8699
 51
233.1301
  0
ARC
  8
0
  6
CONTINUOUS
 62
     7
 10
-0.1875
 20
-8.1958856E-009
 40
0.3125
 50
306.86991
 51
53.130105
  0
ARC
  8
0
  6
CONTINUOUS
 62
     7
 10
2.3125
 20
1.0108259E-007
 40
0.3125
 50
306.86991
 51
53.130105
  0
ARC
  8
0
  6
CONTINUOUS
 62
     7
 10
-1.3759615
 20
-6.0145192E-008
 40
3.2009616
 50
4.4794498
 51
36.008327
  0
ARC
  8
0
  6
CONTINUOUS
 62
     7
 10
1.3759615
 20
6.0145192E-008
 40
2.7009616
 50
185.31088
 51
216.00833
  0
ARC
  8
0
  6
CONTINUOUS
 62
     7
 10
1.3759615
 20
6.0145192E-008
 40
3.2009616
 50
184.47945
 51
216.00833
  0
ENDBLK
  8
0
  0
BLOCK
  8
0
  2
KOZU2
 70
    64
 10
0
 20
0
  0
POINT
  8
0
  6
CONTINUOUS
 62
     7
 10
0
 20
0
  0
LINE
  8
0
  6
CONTINUOUS
 62
     7
 10
-17.299988
 20
3.5
 11
-17.299988
 21
0
  0
LINE
  8
0
  6
CONTINUOUS
 62
     7
 10
-17.000011
 20
4.6812778
 11
-17.299997
 21
3.5000083
  0
LINE
  8
0
  6
CONTINUOUS
 62
     7
 10
-16.99999
 20
4.6812944
 11
-15.235436
 21
6.4458222
  0
LINE
  8
0
  6
CONTINUOUS
 62
     7
 10
-4.0965009
 20
9.8149757
 11
-5.0376892
 21
8.1847887
  0
LINE
  8
0
  6
CONTINUOUS
 62
     7
 10
-4.0964813
 20
9.8149567
 11
4.0964813
 21
9.8149567
  0
LINE
  8
0
  6
CONTINUOUS
 62
     7
 10
4.096489
 20
9.8149433
 11
4.9999995
 21
8.2500153
  0
LINE
  8
0
  6
CONTINUOUS
 62
     7
 10
15.23539
 20
6.4458718
 11
5.8611822
 21
6.7388177
  0
LINE
  8
0
  6
CONTINUOUS
 62
     7
 10
16.999989
 20
4.6813059
 11
15.235435
 21
6.4458332
  0
LINE
  8
0
  6
CONTINUOUS
 62
     7
 10
17.299982
 20
3.5000076
 11
16.999996
 21
4.6812925
  0
LINE
  8
0
  6
CONTINUOUS
 62
     7
 10
17.299988
 20
3.5
 11
17.299988
 21
0
  0
LINE
  8
0
  6
CONTINUOUS
 62
     7
 10
5
 20
8.2500153
 11
5
 21
0
  0
LINE
  8
0
  6
CONTINUOUS
 62
     7
 10
-4.0964813
 20
4.907486
 11
4.0964813
 21
4.907486
  0
LINE
  8
0
  6
CONTINUOUS
 62
     7
 10
-5
 20
8.2500153
 11
-5
 21
0
  0
LINE
  8
0
  6
CENTER
 62
     7
 10
-20
 20
0
 11
20
 21
0
  0
LINE
  8
0
  6
CONTINUOUS
 62
     7
 10
-17.299988
 20
-3.5
 11
-17.299988
 21
0
  0
LINE
  8
0
  6
CONTINUOUS
 62
     7
 10
-17.000006
 20
-4.6812787
 11
-17.299992
 21
-3.5000093
  0
LINE
  8
0
  6
CONTINUOUS
 62
     7
 10
-16.999985
 20
-4.6812963
 11
-15.235431
 21
-6.4458246
  0
LINE
  8
0
  6
CONTINUOUS
 62
     7
 10
-4.096498
 20
-9.8149719
 11
-5.0376821
 21
-8.1847906
  0
LINE
  8
0
  6
CONTINUOUS
 62
     7
 10
-4.0964813
 20
-9.8149567
 11
4.0964813
 21
-9.8149567
  0
LINE
  8
0
  6
CONTINUOUS
 62
     7
 10
4.096488
 20
-9.814949
 11
5.0376344
 21
-8.1848345
  0
LINE
  8
0
  6
CONTINUOUS
 62
     7
 10
16.999979
 20
-4.6812997
 11
15.235426
 21
-6.4458275
  0
LINE
  8
0
  6
CONTINUOUS
 62
     7
 10
17.29998
 20
-3.5000119
 11
16.999994
 21
-4.6812968
  0
LINE
  8
0
  6
CONTINUOUS
 62
     7
 10
17.299988
 20
-3.5
 11
17.299988
 21
0
  0
LINE
  8
0
  6
CONTINUOUS
 62
     7
 10
5
 20
-8.2500153
 11
5
 21
0
  0
LINE
  8
0
  6
CONTINUOUS
 62
     7
 10
-4.0964813
 20
-4.907486
 11
4.0964813
 21
-4.907486
  0
LINE
  8
0
  6
CONTINUOUS
 62
     7
 10
-5
 20
-8.2500153
 11
-5
 21
0
  0
LINE
  8
0
  6
CONTINUOUS
 62
     7
 10
16.109388
 20
5.5718927
 11
6.7351608
 21
5.8648391
  0
LINE
  8
0
  6
CONTINUOUS
 62
     7
 10
5.0000005
 20
7.6000004
 11
6.7351613
 21
5.8648396
  0
LINE
  8
0
  6
CONTINUOUS
 62
     7
 10
15.235396
 20
6.4458718
 11
15.235396
 21
0
  0
LINE
  8
0
  6
CONTINUOUS
 62
     7
 10
16.109388
 20
5.5718927
 11
16.109388
 21
0
  0
LINE
  8
0
  6
CONTINUOUS
 62
     7
 10
6.7351608
 20
6.7115054
 11
6.7351608
 21
0
  0
LINE
  8
0
  6
CONTINUOUS
 62
     7
 10
16.109388
 20
-5.5718927
 11
6.7351608
 21
-5.8648391
  0
LINE
  8
0
  6
CONTINUOUS
 62
     7
 10
5.0000005
 20
-7.6000004
 11
6.7351613
 21
-5.8648396
  0
LINE
  8
0
  6
CONTINUOUS
 62
     7
 10
15.235396
 20
-6.4458718
 11
15.235396
 21
0
  0
LINE
  8
0
  6
CONTINUOUS
 62
     7
 10
16.109388
 20
-5.5718927
 11
16.109388
 21
0
  0
LINE
  8
0
  6
CONTINUOUS
 62
     7
 10
6.7351608
 20
-6.7115054
 11
6.7351608
 21
0
  0
LINE
  8
0
  6
CONTINUOUS
 62
     7
 10
15.235396
 20
-6.4458718
 11
5.8611822
 21
-6.7388177
  0
LINE
  8
0
  6
CONTINUOUS
 62
     7
 10
-15.23539
 20
6.4458718
 11
-5.8611822
 21
6.7388177
  0
LINE
  8
0
  6
CONTINUOUS
 62
     7
 10
-15.235396
 20
-6.4458718
 11
-5.8611822
 21
-6.7388177
  0
LINE
  8
0
  6
CONTINUOUS
 62
     7
 10
-16.109388
 20
-5.5718927
 11
-16.109388
 21
0
  0
LINE
  8
0
  6
CONTINUOUS
 62
     7
 10
-16.109388
 20
5.5718927
 11
-6.7351608
 21
5.8648391
  0
LINE
  8
0
  6
CONTINUOUS
 62
     7
 10
-15.235396
 20
-6.4458718
 11
-15.235396
 21
0
  0
LINE
  8
0
  6
CONTINUOUS
 62
     7
 10
-5.0000005
 20
7.6000004
 11
-6.7351613
 21
5.8648396
  0
LINE
  8
0
  6
CONTINUOUS
 62
     7
 10
-15.235396
 20
6.4458718
 11
-15.235396
 21
0
  0
LINE
  8
0
  6
CONTINUOUS
 62
     7
 10
-16.109388
 20
5.5718927
 11
-16.109388
 21
0
  0
LINE
  8
0
  6
CONTINUOUS
 62
     7
 10
-6.7351608
 20
-6.7115054
 11
-6.7351608
 21
0
  0
LINE
  8
0
  6
CONTINUOUS
 62
     7
 10
-16.109388
 20
-5.5718927
 11
-6.7351608
 21
-5.8648391
  0
LINE
  8
0
  6
CONTINUOUS
 62
     7
 10
-5.0000005
 20
-7.6000004
 11
-6.7351613
 21
-5.8648396
  0
LINE
  8
0
  6
CONTINUOUS
 62
     7
 10
-6.7351608
 20
6.7115054
 11
-6.7351608
 21
0
  0
POLYLINE
  8
0
  6
CONTINUOUS
 62
     7
 66
     1
 10
0
 20
0
  0
VERTEX
  8
0
  6
CONTINUOUS
 62
     7
 10
4.0964813
 20
4.907486
 42
0.04208224
  0
VERTEX
  8
0
  6
CONTINUOUS
 62
     7
 10
4.560492
 20
5.6610092
 42
0.050615222
  0
VERTEX
  8
0
  6
CONTINUOUS
 62
     7
 10
4.8791071
 20
6.4861147
 42
0.065819326
  0
VERTEX
  8
0
  6
CONTINUOUS
 62
     7
 10
5
 20
7.3612213
 42
0
  0
SEQEND
  8
0
  0
POLYLINE
  8
0
  6
CONTINUOUS
 62
     7
 66
     1
 10
0
 20
0
  0
VERTEX
  8
0
  6
CONTINUOUS
 62
     7
 10
5
 20
0
 42
0.031424271
  0
VERTEX
  8
0
  6
CONTINUOUS
 62
     7
 10
4.8935967
 20
1.6681838
 42
0.029149748
  0
VERTEX
  8
0
  6
CONTINUOUS
 62
     7
 10
4.5867987
 20
3.3107536
 42
0.027610701
  0
VERTEX
  8
0
  6
CONTINUOUS
 62
     7
 10
4.0964813
 20
4.907486
 42
0
  0
SEQEND
  8
0
  0
POLYLINE
  8
0
  6
CONTINUOUS
 62
     7
 66
     1
 10
0
 20
0
  0
VERTEX
  8
0
  6
CONTINUOUS
 62
     7
 10
-4.0964813
 20
4.907486
 42
-0.04208224
  0
VERTEX
  8
0
  6
CONTINUOUS
 62
     7
 10
-4.560492
 20
5.6610092
 42
-0.050615222
  0
VERTEX
  8
0
  6
CONTINUOUS
 62
     7
 10
-4.8791071
 20
6.4861147
 42
-0.065819326
  0
VERTEX
  8
0
  6
CONTINUOUS
 62
     7
 10
-5
 20
7.3612213
 42
0
  0
SEQEND
  8
0
  0
POLYLINE
  8
0
  6
CONTINUOUS
 62
     7
 66
     1
 10
0
 20
0
  0
VERTEX
  8
0
  6
CONTINUOUS
 62
     7
 10
-5
 20
0
 42
-0.031424271
  0
VERTEX
  8
0
  6
CONTINUOUS
 62
     7
 10
-4.8935967
 20
1.6681838
 42
-0.029149748
  0
VERTEX
  8
0
  6
CONTINUOUS
 62
     7
 10
-4.5867987
 20
3.3107536
 42
-0.027610701
  0
VERTEX
  8
0
  6
CONTINUOUS
 62
     7
 10
-4.0964813
 20
4.907486
 42
0
  0
SEQEND
  8
0
  0
POLYLINE
  8
0
  6
CONTINUOUS
 62
     7
 66
     1
 10
0
 20
0
  0
VERTEX
  8
0
  6
CONTINUOUS
 62
     7
 10
4.0964813
 20
-4.907486
 42
-0.04208224
  0
VERTEX
  8
0
  6
CONTINUOUS
 62
     7
 10
4.560492
 20
-5.6610092
 42
-0.050615222
  0
VERTEX
  8
0
  6
CONTINUOUS
 62
     7
 10
4.8791071
 20
-6.4861147
 42
-0.065819326
  0
VERTEX
  8
0
  6
CONTINUOUS
 62
     7
 10
5
 20
-7.3612213
 42
0
  0
SEQEND
  8
0
  0
POLYLINE
  8
0
  6
CONTINUOUS
 62
     7
 66
     1
 10
0
 20
0
  0
VERTEX
  8
0
  6
CONTINUOUS
 62
     7
 10
5
 20
0
 42
-0.031424271
  0
VERTEX
  8
0
  6
CONTINUOUS
 62
     7
 10
4.8935967
 20
-1.6681838
 42
-0.029149748
  0
VERTEX
  8
0
  6
CONTINUOUS
 62
     7
 10
4.5867987
 20
-3.3107536
 42
-0.027610701
  0
VERTEX
  8
0
  6
CONTINUOUS
 62
     7
 10
4.0964813
 20
-4.907486
 42
0
  0
SEQEND
  8
0
  0
POLYLINE
  8
0
  6
CONTINUOUS
 62
     7
 66
     1
 10
0
 20
0
  0
VERTEX
  8
0
  6
CONTINUOUS
 62
     7
 10
-4.0964813
 20
-4.907486
 42
0.04208224
  0
VERTEX
  8
0
  6
CONTINUOUS
 62
     7
 10
-4.560492
 20
-5.6610092
 42
0.050615222
  0
VERTEX
  8
0
  6
CONTINUOUS
 62
     7
 10
-4.8791071
 20
-6.4861147
 42
0.065819326
  0
VERTEX
  8
0
  6
CONTINUOUS
 62
     7
 10
-5
 20
-7.3612213
 42
0
  0
SEQEND
  8
0
  0
POLYLINE
  8
0
  6
CONTINUOUS
 62
     7
 66
     1
 10
0
 20
0
  0
VERTEX
  8
0
  6
CONTINUOUS
 62
     7
 10
-5
 20
0
 42
0.031424271
  0
VERTEX
  8
0
  6
CONTINUOUS
 62
     7
 10
-4.8935967
 20
-1.6681838
 42
0.029149748
  0
VERTEX
  8
0
  6
CONTINUOUS
 62
     7
 10
-4.5867987
 20
-3.3107536
 42
0.027610701
  0
VERTEX
  8
0
  6
CONTINUOUS
 62
     7
 10
-4.0964813
 20
-4.907486
 42
0
  0
SEQEND
  8
0
  0
TEXT
  8
0
  6
CONTINUOUS
 62
     7
 10
-5.2131757
 20
10.83509
 40
3.2
 41
1.0178906
  1
1/4
  0
LINE
  8
0
  6
CONTINUOUS
 62
     7
 10
-3
 20
0.29999988
 11
-2.1782668
 21
0.29999992
  0
LINE
  8
0
  6
CONTINUOUS
 62
     7
 10
-3
 20
-0.30000014
 11
-2.1782668
 21
-0.30000011
  0
LINE
  8
0
  6
CONTINUOUS
 62
     7
 10
2.1782668
 20
-0.29999992
 11
3
 21
-0.29999988
  0
LINE
  8
0
  6
CONTINUOUS
 62
     7
 10
2.1782668
 20
0.30000011
 11
3
 21
0.30000014
  0
LINE
  8
0
  6
CONTINUOUS
 62
     7
 10
-1.5760862
 20
-0.30000008
 11
1.3113418E-008
 21
-0.30000001
  0
LINE
  8
0
  6
CONTINUOUS
 62
     7
 10
-1.5760862
 20
0.29999994
 11
-1.3113418E-008
 21
0.30000001
  0
ARC
  8
0
  6
CONTINUOUS
 62
     7
 10
-5.245367E-008
 20
1.2
 40
1.2
 50
36.008327
 51
143.99168
  0
ARC
  8
0
  6
CONTINUOUS
 62
     7
 10
-5.245367E-008
 20
1.2
 40
1.8
 50
36.008327
 51
143.99168
  0
ARC
  8
0
  6
CONTINUOUS
 62
     7
 10
5.245367E-008
 20
-1.2
 40
1.2
 50
216.00833
 51
323.99168
  0
ARC
  8
0
  6
CONTINUOUS
 62
     7
 10
5.245367E-008
 20
-1.2
 40
1.8
 50
216.00833
 51
323.99168
  0
ARC
  8
0
  6
CONTINUOUS
 62
     7
 10
1.6511538
 20
7.2174228E-008
 40
3.8411539
 50
143.99168
 51
175.52056
  0
ARC
  8
0
  6
CONTINUOUS
 62
     7
 10
1.6511538
 20
7.2174228E-008
 40
3.241154
 50
143.99168
 51
174.68912
  0
ARC
  8
0
  6
CONTINUOUS
 62
     7
 10
-1.6511538
 20
-7.2174228E-008
 40
3.241154
 50
323.99167
 51
36.008327
  0
ARC
  8
0
  6
CONTINUOUS
 62
     7
 10
-1.6511538
 20
-7.2174228E-008
 40
3.8411539
 50
323.99167
 51
355.52055
  0
ARC
  8
0
  6
CONTINUOUS
 62
     7
 10
-2.7750001
 20
-1.2129911E-007
 40
0.375
 50
126.8699
 51
233.1301
  0
ARC
  8
0
  6
CONTINUOUS
 62
     7
 10
-0.22499999
 20
-9.8350625E-009
 40
0.375
 50
306.86991
 51
53.130105
  0
ARC
  8
0
  6
CONTINUOUS
 62
     7
 10
2.7750001
 20
1.2129911E-007
 40
0.375
 50
306.86991
 51
53.130105
  0
ARC
  8
0
  6
CONTINUOUS
 62
     7
 10
-1.6511538
 20
-7.2174228E-008
 40
3.8411539
 50
4.4794498
 51
36.008327
  0
ARC
  8
0
  6
CONTINUOUS
 62
     7
 10
1.6511538
 20
7.2174228E-008
 40
3.241154
 50
185.31088
 51
216.00833
  0
ARC
  8
0
  6
CONTINUOUS
 62
     7
 10
1.6511538
 20
7.2174228E-008
 40
3.8411539
 50
184.47945
 51
216.00833
  0
ENDBLK
  8
0
  0
BLOCK
  8
0
  2
KOZU3
 70
    64
 10
0
 20
0
  0
POINT
  8
0
  6
CONTINUOUS
 62
     7
 10
0
 20
0
  0
LINE
  8
0
  6
CONTINUOUS
 62
     7
 10
-18.299988
 20
4.5
 11
-18.299988
 21
0
  0
LINE
  8
0
  6
CONTINUOUS
 62
     7
 10
-18
 20
5.6325607
 11
-18.299992
 21
4.4999866
  0
LINE
  8
0
  6
CONTINUOUS
 62
     7
 10
-17.999979
 20
5.6325898
 11
-15.419354
 21
8.2131996
  0
LINE
  8
0
  6
CONTINUOUS
 62
     7
 10
-15.419361
 20
8.213192
 11
-5.6980157
 21
8.516984
  0
LINE
  8
0
  6
CONTINUOUS
 62
     7
 10
-3.9179201
 20
12.124359
 11
-5
 21
10.25014
  0
LINE
  8
0
  6
CONTINUOUS
 62
     7
 10
-3.9178314
 20
12.124359
 11
3.9178314
 21
12.124359
  0
LINE
  8
0
  6
CONTINUOUS
 62
     7
 10
18.000017
 20
5.632515
 11
15.419374
 21
8.2131586
  0
LINE
  8
0
  6
CONTINUOUS
 62
     7
 10
17.999998
 20
5.6325397
 11
18.299988
 21
4.4999971
  0
LINE
  8
0
  6
CONTINUOUS
 62
     7
 10
18.299988
 20
4.5
 11
18.299988
 21
0
  0
LINE
  8
0
  6
CONTINUOUS
 62
     7
 10
5
 20
10.249985
 11
5
 21
0
  0
LINE
  8
0
  6
CONTINUOUS
 62
     7
 10
-3.9178314
 20
6.0621796
 11
3.9178314
 21
6.0621796
  0
LINE
  8
0
  6
CONTINUOUS
 62
     7
 10
-5
 20
10.249985
 11
-5
 21
0
  0
LINE
  8
0
  6
CENTER
 62
     7
 10
-21
 20
0
 11
21
 21
0
  0
LINE
  8
0
  6
CONTINUOUS
 62
     7
 10
-18.299988
 20
-4.5
 11
-18.299988
 21
0
  0
LINE
  8
0
  6
CONTINUOUS
 62
     7
 10
-17.999996
 20
-5.6325684
 11
-18.299988
 21
-4.4999943
  0
LINE
  8
0
  6
CONTINUOUS
 62
     7
 10
-17.999973
 20
-5.6325932
 11
-15.419354
 21
-8.2131968
  0
LINE
  8
0
  6
CONTINUOUS
 62
     7
 10
-3.9178314
 20
-12.124359
 11
3.9178314
 21
-12.124359
  0
LINE
  8
0
  6
CONTINUOUS
 62
     7
 10
18.000011
 20
-5.632515
 11
15.419368
 21
-8.2131586
  0
LINE
  8
0
  6
CONTINUOUS
 62
     7
 10
18.000004
 20
-5.6325331
 11
18.299994
 21
-4.4999905
  0
LINE
  8
0
  6
CONTINUOUS
 62
     7
 10
18.299988
 20
-4.5
 11
18.299988
 21
0
  0
LINE
  8
0
  6
CONTINUOUS
 62
     7
 10
5
 20
-10.249985
 11
5
 21
0
  0
LINE
  8
0
  6
CONTINUOUS
 62
     7
 10
-3.9178314
 20
-6.0621796
 11
3.9178314
 21
-6.0621796
  0
LINE
  8
0
  6
CONTINUOUS
 62
     7
 10
-5
 20
-10.249985
 11
-5
 21
0
  0
LINE
  8
0
  6
CONTINUOUS
 62
     7
 10
-16.293287
 20
7.3392715
 11
-6.5719361
 21
7.643064
  0
LINE
  8
0
  6
CONTINUOUS
 62
     7
 10
-6.5719361
 20
7.6430645
 11
-5
 21
9.2150002
  0
LINE
  8
0
  6
CONTINUOUS
 62
     7
 10
-16.293287
 20
7.339272
 11
-16.293287
 21
0
  0
LINE
  8
0
  6
CONTINUOUS
 62
     7
 10
-15.419361
 20
8.213192
 11
-15.419361
 21
0
  0
LINE
  8
0
  6
CONTINUOUS
 62
     7
 10
-6.5719361
 20
8.4896746
 11
-6.5719361
 21
0
  0
LINE
  8
0
  6
CONTINUOUS
 62
     7
 10
-15.419361
 20
-8.213192
 11
-5.6980157
 21
-8.516984
  0
LINE
  8
0
  6
CONTINUOUS
 62
     7
 10
-16.293287
 20
-7.339272
 11
-16.293287
 21
0
  0
LINE
  8
0
  6
CONTINUOUS
 62
     7
 10
-6.5719361
 20
-7.6430645
 11
-5
 21
-9.2150002
  0
LINE
  8
0
  6
CONTINUOUS
 62
     7
 10
-16.293287
 20
-7.3392715
 11
-6.5719361
 21
-7.643064
  0
LINE
  8
0
  6
CONTINUOUS
 62
     7
 10
-15.419361
 20
-8.213192
 11
-15.419361
 21
0
  0
LINE
  8
0
  6
CONTINUOUS
 62
     7
 10
-6.5719361
 20
-8.4896746
 11
-6.5719361
 21
0
  0
LINE
  8
0
  6
CONTINUOUS
 62
     7
 10
-3.9179201
 20
-12.124359
 11
-5
 21
-10.25014
  0
LINE
  8
0
  6
CONTINUOUS
 62
     7
 10
15.419361
 20
8.213192
 11
5.6980157
 21
8.516984
  0
LINE
  8
0
  6
CONTINUOUS
 62
     7
 10
3.9179201
 20
12.124359
 11
5
 21
10.25014
  0
LINE
  8
0
  6
CONTINUOUS
 62
     7
 10
16.293287
 20
-7.3392715
 11
6.5719361
 21
-7.643064
  0
LINE
  8
0
  6
CONTINUOUS
 62
     7
 10
6.5719361
 20
-8.4896746
 11
6.5719361
 21
0
  0
LINE
  8
0
  6
CONTINUOUS
 62
     7
 10
3.9179201
 20
-12.124359
 11
5
 21
-10.25014
  0
LINE
  8
0
  6
CONTINUOUS
 62
     7
 10
16.293287
 20
-7.339272
 11
16.293287
 21
0
  0
LINE
  8
0
  6
CONTINUOUS
 62
     7
 10
15.419361
 20
-8.213192
 11
5.6980157
 21
-8.516984
  0
LINE
  8
0
  6
CONTINUOUS
 62
     7
 10
15.419361
 20
-8.213192
 11
15.419361
 21
0
  0
LINE
  8
0
  6
CONTINUOUS
 62
     7
 10
6.5719361
 20
-7.6430645
 11
5
 21
-9.2150002
  0
LINE
  8
0
  6
CONTINUOUS
 62
     7
 10
16.293287
 20
7.339272
 11
16.293287
 21
0
  0
LINE
  8
0
  6
CONTINUOUS
 62
     7
 10
6.5719361
 20
7.6430645
 11
5
 21
9.2150002
  0
LINE
  8
0
  6
CONTINUOUS
 62
     7
 10
16.293287
 20
7.3392715
 11
6.5719361
 21
7.643064
  0
LINE
  8
0
  6
CONTINUOUS
 62
     7
 10
15.419361
 20
8.213192
 11
15.419361
 21
0
  0
LINE
  8
0
  6
CONTINUOUS
 62
     7
 10
6.5719361
 20
8.4896746
 11
6.5719361
 21
0
  0
POLYLINE
  8
0
  6
CONTINUOUS
 62
     7
 66
     1
 10
0
 20
0
  0
VERTEX
  8
0
  6
CONTINUOUS
 62
     7
 10
3.9178314
 20
6.0621796
 42
0.041615027
  0
VERTEX
  8
0
  6
CONTINUOUS
 62
     7
 10
4.4757312
 20
6.9968124
 42
0.049608603
  0
VERTEX
  8
0
  6
CONTINUOUS
 62
     7
 10
4.8564477
 20
8.0159992
 42
0.06363991
  0
VERTEX
  8
0
  6
CONTINUOUS
 62
     7
 10
5
 20
9.093277
 42
0
  0
SEQEND
  8
0
  0
POLYLINE
  8
0
  6
CONTINUOUS
 62
     7
 66
     1
 10
0
 20
0
  0
VERTEX
  8
0
  6
CONTINUOUS
 62
     7
 10
5
 20
0
 42
0.030430963
  0
VERTEX
  8
0
  6
CONTINUOUS
 62
     7
 10
4.8729548
 20
2.0584748
 42
0.028348064
  0
VERTEX
  8
0
  6
CONTINUOUS
 62
     7
 10
4.5058553
 20
4.0871224
 42
0.026933436
  0
VERTEX
  8
0
  6
CONTINUOUS
 62
     7
 10
3.9178314
 20
6.0621796
 42
0
  0
SEQEND
  8
0
  0
POLYLINE
  8
0
  6
CONTINUOUS
 62
     7
 66
     1
 10
0
 20
0
  0
VERTEX
  8
0
  6
CONTINUOUS
 62
     7
 10
-3.9178314
 20
6.0621796
 42
-0.041615027
  0
VERTEX
  8
0
  6
CONTINUOUS
 62
     7
 10
-4.4757312
 20
6.9968124
 42
-0.049608603
  0
VERTEX
  8
0
  6
CONTINUOUS
 62
     7
 10
-4.8564477
 20
8.0159992
 42
-0.06363991
  0
VERTEX
  8
0
  6
CONTINUOUS
 62
     7
 10
-5
 20
9.093277
 42
0
  0
SEQEND
  8
0
  0
POLYLINE
  8
0
  6
CONTINUOUS
 62
     7
 66
     1
 10
0
 20
0
  0
VERTEX
  8
0
  6
CONTINUOUS
 62
     7
 10
-5
 20
0
 42
-0.030430963
  0
VERTEX
  8
0
  6
CONTINUOUS
 62
     7
 10
-4.8729548
 20
2.0584748
 42
-0.028348064
  0
VERTEX
  8
0
  6
CONTINUOUS
 62
     7
 10
-4.5058553
 20
4.0871224
 42
-0.026933436
  0
VERTEX
  8
0
  6
CONTINUOUS
 62
     7
 10
-3.9178314
 20
6.0621796
 42
0
  0
SEQEND
  8
0
  0
POLYLINE
  8
0
  6
CONTINUOUS
 62
     7
 66
     1
 10
0
 20
0
  0
VERTEX
  8
0
  6
CONTINUOUS
 62
     7
 10
3.9178314
 20
-6.0621796
 42
-0.041615027
  0
VERTEX
  8
0
  6
CONTINUOUS
 62
     7
 10
4.4757312
 20
-6.9968124
 42
-0.049608603
  0
VERTEX
  8
0
  6
CONTINUOUS
 62
     7
 10
4.8564477
 20
-8.0159992
 42
-0.06363991
  0
VERTEX
  8
0
  6
CONTINUOUS
 62
     7
 10
5
 20
-9.093277
 42
0
  0
SEQEND
  8
0
  0
POLYLINE
  8
0
  6
CONTINUOUS
 62
     7
 66
     1
 10
0
 20
0
  0
VERTEX
  8
0
  6
CONTINUOUS
 62
     7
 10
5
 20
0
 42
-0.030430963
  0
VERTEX
  8
0
  6
CONTINUOUS
 62
     7
 10
4.8729548
 20
-2.0584748
 42
-0.028348064
  0
VERTEX
  8
0
  6
CONTINUOUS
 62
     7
 10
4.5058553
 20
-4.0871224
 42
-0.026933436
  0
VERTEX
  8
0
  6
CONTINUOUS
 62
     7
 10
3.9178314
 20
-6.0621796
 42
0
  0
SEQEND
  8
0
  0
POLYLINE
  8
0
  6
CONTINUOUS
 62
     7
 66
     1
 10
0
 20
0
  0
VERTEX
  8
0
  6
CONTINUOUS
 62
     7
 10
-3.9178314
 20
-6.0621796
 42
0.041615027
  0
VERTEX
  8
0
  6
CONTINUOUS
 62
     7
 10
-4.4757312
 20
-6.9968124
 42
0.049608603
  0
VERTEX
  8
0
  6
CONTINUOUS
 62
     7
 10
-4.8564477
 20
-8.0159992
 42
0.06363991
  0
VERTEX
  8
0
  6
CONTINUOUS
 62
     7
 10
-5
 20
-9.093277
 42
0
  0
SEQEND
  8
0
  0
POLYLINE
  8
0
  6
CONTINUOUS
 62
     7
 66
     1
 10
0
 20
0
  0
VERTEX
  8
0
  6
CONTINUOUS
 62
     7
 10
-5
 20
0
 42
0.030430963
  0
VERTEX
  8
0
  6
CONTINUOUS
 62
     7
 10
-4.8729548
 20
-2.0584748
 42
0.028348064
  0
VERTEX
  8
0
  6
CONTINUOUS
 62
     7
 10
-4.5058553
 20
-4.0871224
 42
0.026933436
  0
VERTEX
  8
0
  6
CONTINUOUS
 62
     7
 10
-3.9178314
 20
-6.0621796
 42
0
  0
SEQEND
  8
0
  0
TEXT
  8
0
  6
CONTINUOUS
 62
     7
 10
-4.0019473
 20
13.284211
 40
3.2
 41
1.0178906
  1
3/8
  0
LINE
  8
0
  6
CONTINUOUS
 62
     7
 10
-3
 20
0.29999988
 11
-2.1782668
 21
0.29999992
  0
LINE
  8
0
  6
CONTINUOUS
 62
     7
 10
-3
 20
-0.30000014
 11
-2.1782668
 21
-0.30000011
  0
LINE
  8
0
  6
CONTINUOUS
 62
     7
 10
2.1782668
 20
-0.29999992
 11
3
 21
-0.29999988
  0
LINE
  8
0
  6
CONTINUOUS
 62
     7
 10
2.1782668
 20
0.30000011
 11
3
 21
0.30000014
  0
LINE
  8
0
  6
CONTINUOUS
 62
     7
 10
-1.5760862
 20
-0.30000008
 11
1.3113418E-008
 21
-0.30000001
  0
LINE
  8
0
  6
CONTINUOUS
 62
     7
 10
-1.5760862
 20
0.29999994
 11
-1.3113418E-008
 21
0.30000001
  0
ARC
  8
0
  6
CONTINUOUS
 62
     7
 10
-5.245367E-008
 20
1.2
 40
1.2
 50
36.008327
 51
143.99168
  0
ARC
  8
0
  6
CONTINUOUS
 62
     7
 10
-5.245367E-008
 20
1.2
 40
1.8
 50
36.008327
 51
143.99168
  0
ARC
  8
0
  6
CONTINUOUS
 62
     7
 10
5.245367E-008
 20
-1.2
 40
1.2
 50
216.00833
 51
323.99168
  0
ARC
  8
0
  6
CONTINUOUS
 62
     7
 10
5.245367E-008
 20
-1.2
 40
1.8
 50
216.00833
 51
323.99168
  0
ARC
  8
0
  6
CONTINUOUS
 62
     7
 10
1.6511538
 20
7.2174228E-008
 40
3.8411539
 50
143.99168
 51
175.52056
  0
ARC
  8
0
  6
CONTINUOUS
 62
     7
 10
1.6511538
 20
7.2174228E-008
 40
3.241154
 50
143.99168
 51
174.68912
  0
ARC
  8
0
  6
CONTINUOUS
 62
     7
 10
-1.6511538
 20
-7.2174228E-008
 40
3.241154
 50
323.99167
 51
36.008327
  0
ARC
  8
0
  6
CONTINUOUS
 62
     7
 10
-1.6511538
 20
-7.2174228E-008
 40
3.8411539
 50
323.99167
 51
355.52055
  0
ARC
  8
0
  6
CONTINUOUS
 62
     7
 10
-2.7750001
 20
-1.2129911E-007
 40
0.375
 50
126.8699
 51
233.1301
  0
ARC
  8
0
  6
CONTINUOUS
 62
     7
 10
-0.22499999
 20
-9.8350625E-009
 40
0.375
 50
306.86991
 51
53.130105
  0
ARC
  8
0
  6
CONTINUOUS
 62
     7
 10
2.7750001
 20
1.2129911E-007
 40
0.375
 50
306.86991
 51
53.130105
  0
ARC
  8
0
  6
CONTINUOUS
 62
     7
 10
-1.6511538
 20
-7.2174228E-008
 40
3.8411539
 50
4.4794498
 51
36.008327
  0
ARC
  8
0
  6
CONTINUOUS
 62
     7
 10
1.6511538
 20
7.2174228E-008
 40
3.241154
 50
185.31088
 51
216.00833
  0
ARC
  8
0
  6
CONTINUOUS
 62
     7
 10
1.6511538
 20
7.2174228E-008
 40
3.8411539
 50
184.47945
 51
216.00833
  0
ENDBLK
  8
0
  0
BLOCK
  8
0
  2
KOZU4
 70
    64
 10
0
 20
0
  0
POINT
  8
0
  6
CONTINUOUS
 62
     7
 10
0
 20
0
  0
LINE
  8
0
  6
CONTINUOUS
 62
     7
 10
-3.5502167
 20
15.011108
 11
3.550209
 21
15.011108
  0
LINE
  8
0
  6
CONTINUOUS
 62
     7
 10
-3.5502269
 20
15.011108
 11
-5
 21
12.500026
  0
LINE
  8
0
  6
CONTINUOUS
 62
     7
 10
-5
 20
12.5
 11
-5
 21
0
  0
LINE
  8
0
  6
CONTINUOUS
 62
     7
 10
-3.5502167
 20
7.5055542
 11
3.5502167
 21
7.5055542
  0
LINE
  8
0
  6
CONTINUOUS
 62
     7
 10
5
 20
12.5
 11
5
 21
0
  0
LINE
  8
0
  6
CONTINUOUS
 62
     7
 10
-17.9032
 20
10.319273
 11
-5.6580663
 21
10.701933
  0
LINE
  8
0
  6
CONTINUOUS
 62
     7
 10
-20.999985
 20
7.2224898
 11
-17.903215
 21
10.319259
  0
LINE
  8
0
  6
CONTINUOUS
 62
     7
 10
-21.39999
 20
6.5000091
 11
-21.000072
 21
7.222415
  0
LINE
  8
0
  6
CONTINUOUS
 62
     7
 10
-21.399994
 20
6.5
 11
-21.399994
 21
0
  0
LINE
  8
0
  6
CONTINUOUS
 62
     7
 10
20.999989
 20
7.2224803
 11
17.903214
 21
10.319256
  0
LINE
  8
0
  6
CONTINUOUS
 62
     7
 10
21.000004
 20
7.2224722
 11
21.399998
 21
6.5000038
  0
LINE
  8
0
  6
CONTINUOUS
 62
     7
 10
21.399994
 20
6.5
 11
21.399994
 21
0
  0
LINE
  8
0
  6
CENTER
 62
     7
 10
-24
 20
0
 11
24
 21
0
  0
LINE
  8
0
  6
CONTINUOUS
 62
     7
 10
-3.5502167
 20
-15.011108
 11
3.550209
 21
-15.011108
  0
LINE
  8
0
  6
CONTINUOUS
 62
     7
 10
-5
 20
-12.5
 11
-5
 21
0
  0
LINE
  8
0
  6
CONTINUOUS
 62
     7
 10
-3.5502167
 20
-7.5055542
 11
3.5502167
 21
-7.5055542
  0
LINE
  8
0
  6
CONTINUOUS
 62
     7
 10
5
 20
-12.5
 11
5
 21
0
  0
LINE
  8
0
  6
CONTINUOUS
 62
     7
 10
-20.999985
 20
-7.2224898
 11
-17.903221
 21
-10.319254
  0
LINE
  8
0
  6
CONTINUOUS
 62
     7
 10
-21.399981
 20
-6.5000081
 11
-21.000065
 21
-7.2224135
  0
LINE
  8
0
  6
CONTINUOUS
 62
     7
 10
-21.399994
 20
-6.5
 11
-21.399994
 21
0
  0
LINE
  8
0
  6
CONTINUOUS
 62
     7
 10
20.999983
 20
-7.2224803
 11
17.903208
 21
-10.319256
  0
LINE
  8
0
  6
CONTINUOUS
 62
     7
 10
21.000006
 20
-7.2224679
 11
21.4
 21
-6.4999995
  0
LINE
  8
0
  6
CONTINUOUS
 62
     7
 10
21.399994
 20
-6.5
 11
21.399994
 21
0
  0
LINE
  8
0
  6
CONTINUOUS
 62
     7
 10
-19.089779
 20
9.1326942
 11
-6.8446455
 21
9.5153542
  0
LINE
  8
0
  6
CONTINUOUS
 62
     7
 10
-6.8446455
 20
9.5153542
 11
-5
 21
11.36
  0
LINE
  8
0
  6
CONTINUOUS
 62
     7
 10
-19.089779
 20
9.1326942
 11
-19.089779
 21
0
  0
LINE
  8
0
  6
CONTINUOUS
 62
     7
 10
-17.9032
 20
10.319273
 11
-17.9032
 21
0
  0
LINE
  8
0
  6
CONTINUOUS
 62
     7
 10
-6.8446455
 20
10.664853
 11
-6.8446455
 21
0
  0
LINE
  8
0
  6
CONTINUOUS
 62
     7
 10
-3.5502269
 20
-15.011108
 11
-5
 21
-12.500026
  0
LINE
  8
0
  6
CONTINUOUS
 62
     7
 10
-17.9032
 20
-10.319273
 11
-5.6580663
 21
-10.701933
  0
LINE
  8
0
  6
CONTINUOUS
 62
     7
 10
-6.8446455
 20
-9.5153542
 11
-5
 21
-11.36
  0
LINE
  8
0
  6
CONTINUOUS
 62
     7
 10
-19.089779
 20
-9.1326942
 11
-19.089779
 21
0
  0
LINE
  8
0
  6
CONTINUOUS
 62
     7
 10
-19.089779
 20
-9.1326942
 11
-6.8446455
 21
-9.5153542
  0
LINE
  8
0
  6
CONTINUOUS
 62
     7
 10
-17.9032
 20
-10.319273
 11
-17.9032
 21
0
  0
LINE
  8
0
  6
CONTINUOUS
 62
     7
 10
-6.8446455
 20
-10.664853
 11
-6.8446455
 21
0
  0
LINE
  8
0
  6
CONTINUOUS
 62
     7
 10
3.5502269
 20
15.011108
 11
5
 21
12.500026
  0
LINE
  8
0
  6
CONTINUOUS
 62
     7
 10
17.9032
 20
10.319273
 11
5.6580663
 21
10.701933
  0
LINE
  8
0
  6
CONTINUOUS
 62
     7
 10
3.5502269
 20
-15.011108
 11
5
 21
-12.500026
  0
LINE
  8
0
  6
CONTINUOUS
 62
     7
 10
20.999985
 20
-7.2224898
 11
17.903221
 21
-10.319254
  0
LINE
  8
0
  6
CONTINUOUS
 62
     7
 10
6.8446455
 20
-10.664853
 11
6.8446455
 21
0
  0
LINE
  8
0
  6
CONTINUOUS
 62
     7
 10
17.9032
 20
-10.319273
 11
5.6580663
 21
-10.701933
  0
LINE
  8
0
  6
CONTINUOUS
 62
     7
 10
17.9032
 20
-10.319273
 11
17.9032
 21
0
  0
LINE
  8
0
  6
CONTINUOUS
 62
     7
 10
6.8446455
 20
9.5153542
 11
5
 21
11.36
  0
LINE
  8
0
  6
CONTINUOUS
 62
     7
 10
19.089779
 20
9.1326942
 11
19.089779
 21
0
  0
LINE
  8
0
  6
CONTINUOUS
 62
     7
 10
19.089779
 20
9.1326942
 11
6.8446455
 21
9.5153542
  0
LINE
  8
0
  6
CONTINUOUS
 62
     7
 10
19.089779
 20
-9.1326942
 11
6.8446455
 21
-9.5153542
  0
LINE
  8
0
  6
CONTINUOUS
 62
     7
 10
17.9032
 20
10.319273
 11
17.9032
 21
0
  0
LINE
  8
0
  6
CONTINUOUS
 62
     7
 10
19.089779
 20
-9.1326942
 11
19.089779
 21
0
  0
LINE
  8
0
  6
CONTINUOUS
 62
     7
 10
6.8446455
 20
10.664853
 11
6.8446455
 21
0
  0
LINE
  8
0
  6
CONTINUOUS
 62
     7
 10
5
 20
-12.5
 11
5
 21
0
  0
LINE
  8
0
  6
CONTINUOUS
 62
     7
 10
6.8446455
 20
-9.5153542
 11
5
 21
-11.36
  0
POLYLINE
  8
0
  6
CONTINUOUS
 62
     7
 66
     1
 10
0
 20
0
  0
VERTEX
  8
0
  6
CONTINUOUS
 62
     7
 10
-3.5502167
 20
7.5055542
 42
-0.042740197
  0
VERTEX
  8
0
  6
CONTINUOUS
 62
     7
 10
-4.2901073
 20
8.6503351
 42
-0.052156327
  0
VERTEX
  8
0
  6
CONTINUOUS
 62
     7
 10
-4.8032767
 20
9.9122874
 42
-0.06936004
  0
VERTEX
  8
0
  6
CONTINUOUS
 62
     7
 10
-5
 20
11.258331
 42
0
  0
SEQEND
  8
0
  0
POLYLINE
  8
0
  6
CONTINUOUS
 62
     7
 66
     1
 10
0
 20
0
  0
VERTEX
  8
0
  6
CONTINUOUS
 62
     7
 10
-5
 20
0
 42
-0.033023578
  0
VERTEX
  8
0
  6
CONTINUOUS
 62
     7
 10
-4.8285207
 20
2.5548658
 42
-0.030430679
  0
VERTEX
  8
0
  6
CONTINUOUS
 62
     7
 10
-4.3355609
 20
5.0678685
 42
-0.02868917
  0
VERTEX
  8
0
  6
CONTINUOUS
 62
     7
 10
-3.5502167
 20
7.5055542
 42
0
  0
SEQEND
  8
0
  0
POLYLINE
  8
0
  6
CONTINUOUS
 62
     7
 66
     1
 10
0
 20
0
  0
VERTEX
  8
0
  6
CONTINUOUS
 62
     7
 10
3.5502167
 20
7.5055542
 42
0.042740197
  0
VERTEX
  8
0
  6
CONTINUOUS
 62
     7
 10
4.2901073
 20
8.6503351
 42
0.052156327
  0
VERTEX
  8
0
  6
CONTINUOUS
 62
     7
 10
4.8032767
 20
9.9122874
 42
0.06936004
  0
VERTEX
  8
0
  6
CONTINUOUS
 62
     7
 10
5
 20
11.258331
 42
0
  0
SEQEND
  8
0
  0
POLYLINE
  8
0
  6
CONTINUOUS
 62
     7
 66
     1
 10
0
 20
0
  0
VERTEX
  8
0
  6
CONTINUOUS
 62
     7
 10
5
 20
0
 42
0.033023578
  0
VERTEX
  8
0
  6
CONTINUOUS
 62
     7
 10
4.8285207
 20
2.5548658
 42
0.030430679
  0
VERTEX
  8
0
  6
CONTINUOUS
 62
     7
 10
4.3355609
 20
5.0678685
 42
0.02868917
  0
VERTEX
  8
0
  6
CONTINUOUS
 62
     7
 10
3.5502167
 20
7.5055542
 42
0
  0
SEQEND
  8
0
  0
POLYLINE
  8
0
  6
CONTINUOUS
 62
     7
 66
     1
 10
0
 20
0
  0
VERTEX
  8
0
  6
CONTINUOUS
 62
     7
 10
-3.5502167
 20
-7.5055542
 42
0.042740197
  0
VERTEX
  8
0
  6
CONTINUOUS
 62
     7
 10
-4.2901073
 20
-8.6503351
 42
0.052156327
  0
VERTEX
  8
0
  6
CONTINUOUS
 62
     7
 10
-4.8032767
 20
-9.9122874
 42
0.06936004
  0
VERTEX
  8
0
  6
CONTINUOUS
 62
     7
 10
-5
 20
-11.258331
 42
0
  0
SEQEND
  8
0
  0
POLYLINE
  8
0
  6
CONTINUOUS
 62
     7
 66
     1
 10
0
 20
0
  0
VERTEX
  8
0
  6
CONTINUOUS
 62
     7
 10
-5
 20
0
 42
0.033023578
  0
VERTEX
  8
0
  6
CONTINUOUS
 62
     7
 10
-4.8285207
 20
-2.5548658
 42
0.030430679
  0
VERTEX
  8
0
  6
CONTINUOUS
 62
     7
 10
-4.3355609
 20
-5.0678685
 42
0.02868917
  0
VERTEX
  8
0
  6
CONTINUOUS
 62
     7
 10
-3.5502167
 20
-7.5055542
 42
0
  0
SEQEND
  8
0
  0
POLYLINE
  8
0
  6
CONTINUOUS
 62
     7
 66
     1
 10
0
 20
0
  0
VERTEX
  8
0
  6
CONTINUOUS
 62
     7
 10
3.5502167
 20
-7.5055542
 42
-0.042740197
  0
VERTEX
  8
0
  6
CONTINUOUS
 62
     7
 10
4.2901073
 20
-8.6503351
 42
-0.052156327
  0
VERTEX
  8
0
  6
CONTINUOUS
 62
     7
 10
4.8032767
 20
-9.9122874
 42
-0.06936004
  0
VERTEX
  8
0
  6
CONTINUOUS
 62
     7
 10
5
 20
-11.258331
 42
0
  0
SEQEND
  8
0
  0
POLYLINE
  8
0
  6
CONTINUOUS
 62
     7
 66
     1
 10
0
 20
0
  0
VERTEX
  8
0
  6
CONTINUOUS
 62
     7
 10
5
 20
0
 42
-0.033023578
  0
VERTEX
  8
0
  6
CONTINUOUS
 62
     7
 10
4.8285207
 20
-2.5548658
 42
-0.030430679
  0
VERTEX
  8
0
  6
CONTINUOUS
 62
     7
 10
4.3355609
 20
-5.0678685
 42
-0.02868917
  0
VERTEX
  8
0
  6
CONTINUOUS
 62
     7
 10
3.5502167
 20
-7.5055542
 42
0
  0
SEQEND
  8
0
  0
TEXT
  8
0
  6
CONTINUOUS
 62
     7
 10
-4.2756315
 20
16.825262
 40
3.2
 41
1.0178906
  1
1/2
  0
LINE
  8
0
  6
CONTINUOUS
 62
     7
 10
-3
 20
0.29999988
 11
-2.1782668
 21
0.29999992
  0
LINE
  8
0
  6
CONTINUOUS
 62
     7
 10
-3
 20
-0.30000014
 11
-2.1782668
 21
-0.30000011
  0
LINE
  8
0
  6
CONTINUOUS
 62
     7
 10
2.1782668
 20
-0.29999992
 11
3
 21
-0.29999988
  0
LINE
  8
0
  6
CONTINUOUS
 62
     7
 10
2.1782668
 20
0.30000011
 11
3
 21
0.30000014
  0
LINE
  8
0
  6
CONTINUOUS
 62
     7
 10
-1.5760862
 20
-0.30000008
 11
1.3113418E-008
 21
-0.30000001
  0
LINE
  8
0
  6
CONTINUOUS
 62
     7
 10
-1.5760862
 20
0.29999994
 11
-1.3113418E-008
 21
0.30000001
  0
ARC
  8
0
  6
CONTINUOUS
 62
     7
 10
-5.245367E-008
 20
1.2
 40
1.2
 50
36.008327
 51
143.99168
  0
ARC
  8
0
  6
CONTINUOUS
 62
     7
 10
-5.245367E-008
 20
1.2
 40
1.8
 50
36.008327
 51
143.99168
  0
ARC
  8
0
  6
CONTINUOUS
 62
     7
 10
5.245367E-008
 20
-1.2
 40
1.2
 50
216.00833
 51
323.99168
  0
ARC
  8
0
  6
CONTINUOUS
 62
     7
 10
5.245367E-008
 20
-1.2
 40
1.8
 50
216.00833
 51
323.99168
  0
ARC
  8
0
  6
CONTINUOUS
 62
     7
 10
1.6511538
 20
7.2174228E-008
 40
3.8411539
 50
143.99168
 51
175.52056
  0
ARC
  8
0
  6
CONTINUOUS
 62
     7
 10
1.6511538
 20
7.2174228E-008
 40
3.241154
 50
143.99168
 51
174.68912
  0
ARC
  8
0
  6
CONTINUOUS
 62
     7
 10
-1.6511538
 20
-7.2174228E-008
 40
3.241154
 50
323.99167
 51
36.008327
  0
ARC
  8
0
  6
CONTINUOUS
 62
     7
 10
-1.6511538
 20
-7.2174228E-008
 40
3.8411539
 50
323.99167
 51
355.52055
  0
ARC
  8
0
  6
CONTINUOUS
 62
     7
 10
-2.7750001
 20
-1.2129911E-007
 40
0.375
 50
126.8699
 51
233.1301
  0
ARC
  8
0
  6
CONTINUOUS
 62
     7
 10
-0.22499999
 20
-9.8350625E-009
 40
0.375
 50
306.86991
 51
53.130105
  0
ARC
  8
0
  6
CONTINUOUS
 62
     7
 10
2.7750001
 20
1.2129911E-007
 40
0.375
 50
306.86991
 51
53.130105
  0
ARC
  8
0
  6
CONTINUOUS
 62
     7
 10
-1.6511538
 20
-7.2174228E-008
 40
3.8411539
 50
4.4794498
 51
36.008327
  0
ARC
  8
0
  6
CONTINUOUS
 62
     7
 10
1.6511538
 20
7.2174228E-008
 40
3.241154
 50
185.31088
 51
216.00833
  0
ARC
  8
0
  6
CONTINUOUS
 62
     7
 10
1.6511538
 20
7.2174228E-008
 40
3.8411539
 50
184.47945
 51
216.00833
  0
ENDBLK
  8
0
  0
BLOCK
  8
0
  2
KOZU5
 70
    64
 10
0
 20
0
  0
POINT
  8
0
  6
CONTINUOUS
 62
     7
 10
0
 20
0
  0
LINE
  8
0
  6
CONTINUOUS
 62
     7
 10
-23.899994
 20
0
 11
-23.899994
 21
9
  0
LINE
  8
0
  6
CONTINUOUS
 62
     7
 10
-23.5
 20
9.8244381
 11
-23.899996
 21
8.9999962
  0
LINE
  8
0
  6
CONTINUOUS
 62
     7
 10
-23.500002
 20
9.8244343
 11
-20.30179
 21
13.022646
  0
LINE
  8
0
  6
CONTINUOUS
 62
     7
 10
-20.301794
 20
13.02264
 11
-6.1552811
 21
13.464719
  0
LINE
  8
0
  6
CONTINUOUS
 62
     7
 10
-3.7823298
 20
18.475204
 11
-5.5
 21
15.50011
  0
LINE
  8
0
  6
CONTINUOUS
 62
     7
 10
-3.7822723
 20
18.475204
 11
3.7822876
 21
18.475204
  0
LINE
  8
0
  6
CONTINUOUS
 62
     7
 10
23.499994
 20
9.8244524
 11
20.301786
 21
13.02266
  0
LINE
  8
0
  6
CONTINUOUS
 62
     7
 10
23.499983
 20
9.8244686
 11
23.899994
 21
9.0000019
  0
LINE
  8
0
  6
CONTINUOUS
 62
     7
 10
23.899994
 20
0
 11
23.899994
 21
9
  0
LINE
  8
0
  6
CONTINUOUS
 62
     7
 10
5.5
 20
15.500031
 11
5.5
 21
0
  0
LINE
  8
0
  6
CONTINUOUS
 62
     7
 10
-3.7822723
 20
9.2376099
 11
3.7822723
 21
9.2376099
  0
LINE
  8
0
  6
CONTINUOUS
 62
     7
 10
-5.5
 20
15.500015
 11
-5.5
 21
0
  0
LINE
  8
0
  6
CENTER
 62
     7
 10
26.5
 20
0
 11
-26.5
 21
0
  0
LINE
  8
0
  6
CONTINUOUS
 62
     7
 10
-23.899994
 20
0
 11
-23.899994
 21
-9
  0
LINE
  8
0
  6
CONTINUOUS
 62
     7
 10
-23.5
 20
-9.8244381
 11
-23.899996
 21
-8.9999971
  0
LINE
  8
0
  6
CONTINUOUS
 62
     7
 10
-23.499996
 20
-9.82444
 11
-20.301788
 21
-13.022648
  0
LINE
  8
0
  6
CONTINUOUS
 62
     7
 10
-3.7822723
 20
-18.475204
 11
3.7822876
 21
-18.475204
  0
LINE
  8
0
  6
CONTINUOUS
 62
     7
 10
23.5
 20
-9.8244581
 11
20.301792
 21
-13.022665
  0
LINE
  8
0
  6
CONTINUOUS
 62
     7
 10
23.499975
 20
-9.8244658
 11
23.899988
 21
-8.9999981
  0
LINE
  8
0
  6
CONTINUOUS
 62
     7
 10
23.899994
 20
0
 11
23.899994
 21
-9
  0
LINE
  8
0
  6
CONTINUOUS
 62
     7
 10
5.5
 20
-15.500031
 11
5.5
 21
0
  0
LINE
  8
0
  6
CONTINUOUS
 62
     7
 10
-3.7822723
 20
-9.2376099
 11
3.7822723
 21
-9.2376099
  0
LINE
  8
0
  6
CONTINUOUS
 62
     7
 10
-5.5
 20
-15.500015
 11
-5.5
 21
0
  0
LINE
  8
0
  6
CONTINUOUS
 62
     7
 10
-21.488384
 20
11.83605
 11
-7.3418713
 21
12.278129
  0
LINE
  8
0
  6
CONTINUOUS
 62
     7
 10
-7.3418713
 20
12.278129
 11
-5.5
 21
14.12
  0
LINE
  8
0
  6
CONTINUOUS
 62
     7
 10
-21.488386
 20
11.83605
 11
-21.488386
 21
0
  0
LINE
  8
0
  6
CONTINUOUS
 62
     7
 10
-20.301796
 20
13.02264
 11
-20.301796
 21
0
  0
LINE
  8
0
  6
CONTINUOUS
 62
     7
 10
-7.3418713
 20
13.427638
 11
-7.3418713
 21
0
  0
LINE
  8
0
  6
CONTINUOUS
 62
     7
 10
-20.301794
 20
-13.02264
 11
-6.1552811
 21
-13.464719
  0
LINE
  8
0
  6
CONTINUOUS
 62
     7
 10
-3.7823298
 20
-18.475204
 11
-5.5
 21
-15.50011
  0
LINE
  8
0
  6
CONTINUOUS
 62
     7
 10
-21.488386
 20
-11.83605
 11
-21.488386
 21
0
  0
LINE
  8
0
  6
CONTINUOUS
 62
     7
 10
-20.301796
 20
-13.02264
 11
-20.301796
 21
0
  0
LINE
  8
0
  6
CONTINUOUS
 62
     7
 10
-7.3418713
 20
-13.427638
 11
-7.3418713
 21
0
  0
LINE
  8
0
  6
CONTINUOUS
 62
     7
 10
-21.488384
 20
-11.83605
 11
-7.3418713
 21
-12.278129
  0
LINE
  8
0
  6
CONTINUOUS
 62
     7
 10
-7.3418713
 20
-12.278129
 11
-5.5
 21
-14.12
  0
LINE
  8
0
  6
CONTINUOUS
 62
     7
 10
20.301794
 20
13.02264
 11
6.1552811
 21
13.464719
  0
LINE
  8
0
  6
CONTINUOUS
 62
     7
 10
3.7823298
 20
18.475204
 11
5.5
 21
15.50011
  0
LINE
  8
0
  6
CONTINUOUS
 62
     7
 10
21.488386
 20
11.83605
 11
21.488386
 21
0
  0
LINE
  8
0
  6
CONTINUOUS
 62
     7
 10
20.301796
 20
13.02264
 11
20.301796
 21
0
  0
LINE
  8
0
  6
CONTINUOUS
 62
     7
 10
21.488384
 20
-11.83605
 11
7.3418713
 21
-12.278129
  0
LINE
  8
0
  6
CONTINUOUS
 62
     7
 10
20.301796
 20
-13.02264
 11
20.301796
 21
0
  0
LINE
  8
0
  6
CONTINUOUS
 62
     7
 10
21.488386
 20
-11.83605
 11
21.488386
 21
0
  0
LINE
  8
0
  6
CONTINUOUS
 62
     7
 10
20.301794
 20
-13.02264
 11
6.1552811
 21
-13.464719
  0
LINE
  8
0
  6
CONTINUOUS
 62
     7
 10
3.7823298
 20
-18.475204
 11
5.5
 21
-15.50011
  0
LINE
  8
0
  6
CONTINUOUS
 62
     7
 10
7.3418713
 20
-13.427638
 11
7.3418713
 21
0
  0
LINE
  8
0
  6
CONTINUOUS
 62
     7
 10
7.3418713
 20
13.427638
 11
7.3418713
 21
0
  0
LINE
  8
0
  6
CONTINUOUS
 62
     7
 10
7.3418713
 20
-12.278129
 11
5.5
 21
-14.12
  0
LINE
  8
0
  6
CONTINUOUS
 62
     7
 10
21.488384
 20
11.83605
 11
7.3418713
 21
12.278129
  0
LINE
  8
0
  6
CONTINUOUS
 62
     7
 10
7.3418713
 20
12.278129
 11
5.5
 21
14.12
  0
POLYLINE
  8
0
  6
CONTINUOUS
 62
     7
 66
     1
 10
0
 20
0
  0
VERTEX
  8
0
  6
CONTINUOUS
 62
     7
 10
5.5
 20
13.856415
 42
-0.06653472
  0
VERTEX
  8
0
  6
CONTINUOUS
 62
     7
 10
5.2695292
 20
12.207326
 42
-0.050936524
  0
VERTEX
  8
0
  6
CONTINUOUS
 62
     7
 10
4.6633577
 20
10.654192
 42
-0.042228437
  0
VERTEX
  8
0
  6
CONTINUOUS
 62
     7
 10
3.7822723
 20
9.2376099
 42
0
  0
SEQEND
  8
0
  0
POLYLINE
  8
0
  6
CONTINUOUS
 62
     7
 66
     1
 10
0
 20
0
  0
VERTEX
  8
0
  6
CONTINUOUS
 62
     7
 10
-5.5
 20
13.856415
 42
0.06653472
  0
VERTEX
  8
0
  6
CONTINUOUS
 62
     7
 10
-5.2695292
 20
12.207326
 42
0.050936524
  0
VERTEX
  8
0
  6
CONTINUOUS
 62
     7
 10
-4.6633577
 20
10.654192
 42
0.042228437
  0
VERTEX
  8
0
  6
CONTINUOUS
 62
     7
 10
-3.7822723
 20
9.2376099
 42
0
  0
SEQEND
  8
0
  0
POLYLINE
  8
0
  6
CONTINUOUS
 62
     7
 66
     1
 10
0
 20
0
  0
VERTEX
  8
0
  6
CONTINUOUS
 62
     7
 10
-5.5
 20
0
 42
-0.031737883
  0
VERTEX
  8
0
  6
CONTINUOUS
 62
     7
 10
-5.2976778
 20
3.1398505
 42
-0.029412326
  0
VERTEX
  8
0
  6
CONTINUOUS
 62
     7
 10
-4.7143789
 20
6.2319773
 42
-0.027842937
  0
VERTEX
  8
0
  6
CONTINUOUS
 62
     7
 10
-3.7822723
 20
9.2376099
 42
0
  0
SEQEND
  8
0
  0
POLYLINE
  8
0
  6
CONTINUOUS
 62
     7
 66
     1
 10
0
 20
0
  0
VERTEX
  8
0
  6
CONTINUOUS
 62
     7
 10
5.5
 20
0
 42
0.031737883
  0
VERTEX
  8
0
  6
CONTINUOUS
 62
     7
 10
5.2976778
 20
3.1398505
 42
0.029412326
  0
VERTEX
  8
0
  6
CONTINUOUS
 62
     7
 10
4.7143789
 20
6.2319773
 42
0.027842937
  0
VERTEX
  8
0
  6
CONTINUOUS
 62
     7
 10
3.7822723
 20
9.2376099
 42
0
  0
SEQEND
  8
0
  0
POLYLINE
  8
0
  6
CONTINUOUS
 62
     7
 66
     1
 10
0
 20
0
  0
VERTEX
  8
0
  6
CONTINUOUS
 62
     7
 10
5.5
 20
-13.856415
 42
0.06653472
  0
VERTEX
  8
0
  6
CONTINUOUS
 62
     7
 10
5.2695292
 20
-12.207326
 42
0.050936524
  0
VERTEX
  8
0
  6
CONTINUOUS
 62
     7
 10
4.6633577
 20
-10.654192
 42
0.042228437
  0
VERTEX
  8
0
  6
CONTINUOUS
 62
     7
 10
3.7822723
 20
-9.2376099
 42
0
  0
SEQEND
  8
0
  0
POLYLINE
  8
0
  6
CONTINUOUS
 62
     7
 66
     1
 10
0
 20
0
  0
VERTEX
  8
0
  6
CONTINUOUS
 62
     7
 10
-5.5
 20
-13.856415
 42
-0.06653472
  0
VERTEX
  8
0
  6
CONTINUOUS
 62
     7
 10
-5.2695292
 20
-12.207326
 42
-0.050936524
  0
VERTEX
  8
0
  6
CONTINUOUS
 62
     7
 10
-4.6633577
 20
-10.654192
 42
-0.042228437
  0
VERTEX
  8
0
  6
CONTINUOUS
 62
     7
 10
-3.7822723
 20
-9.2376099
 42
0
  0
SEQEND
  8
0
  0
POLYLINE
  8
0
  6
CONTINUOUS
 62
     7
 66
     1
 10
0
 20
0
  0
VERTEX
  8
0
  6
CONTINUOUS
 62
     7
 10
-5.5
 20
0
 42
0.031737883
  0
VERTEX
  8
0
  6
CONTINUOUS
 62
     7
 10
-5.2976778
 20
-3.1398505
 42
0.029412326
  0
VERTEX
  8
0
  6
CONTINUOUS
 62
     7
 10
-4.7143789
 20
-6.2319773
 42
0.027842937
  0
VERTEX
  8
0
  6
CONTINUOUS
 62
     7
 10
-3.7822723
 20
-9.2376099
 42
0
  0
SEQEND
  8
0
  0
POLYLINE
  8
0
  6
CONTINUOUS
 62
     7
 66
     1
 10
0
 20
0
  0
VERTEX
  8
0
  6
CONTINUOUS
 62
     7
 10
5.5
 20
0
 42
-0.031737883
  0
VERTEX
  8
0
  6
CONTINUOUS
 62
     7
 10
5.2976778
 20
-3.1398505
 42
-0.029412326
  0
VERTEX
  8
0
  6
CONTINUOUS
 62
     7
 10
4.7143789
 20
-6.2319773
 42
-0.027842937
  0
VERTEX
  8
0
  6
CONTINUOUS
 62
     7
 10
3.7822723
 20
-9.2376099
 42
0
  0
SEQEND
  8
0
  0
TEXT
  8
0
  6
CONTINUOUS
 62
     7
 10
-4.4531754
 20
19.86035
 40
3.2
 41
1.0178906
  1
3/4
  0
LINE
  8
0
  6
CONTINUOUS
 62
     7
 10
-4.5
 20
0.44999979
 11
-3.2674003
 21
0.44999985
  0
LINE
  8
0
  6
CONTINUOUS
 62
     7
 10
-4.5
 20
-0.45000018
 11
-3.2674002
 21
-0.45000013
  0
LINE
  8
0
  6
CONTINUOUS
 62
     7
 10
3.2674003
 20
-0.44999985
 11
4.5
 21
-0.44999979
  0
LINE
  8
0
  6
CONTINUOUS
 62
     7
 10
3.2674002
 20
0.45000013
 11
4.5
 21
0.45000018
  0
LINE
  8
0
  6
CONTINUOUS
 62
     7
 10
-2.3641293
 20
-0.45000009
 11
1.9670125E-008
 21
-0.44999999
  0
LINE
  8
0
  6
CONTINUOUS
 62
     7
 10
-2.3641293
 20
0.44999988
 11
-1.9670125E-008
 21
0.44999999
  0
ARC
  8
0
  6
CONTINUOUS
 62
     7
 10
-7.86805E-008
 20
1.8
 40
1.8
 50
36.008327
 51
143.99168
  0
ARC
  8
0
  6
CONTINUOUS
 62
     7
 10
-7.86805E-008
 20
1.8
 40
2.7
 50
36.008327
 51
143.99168
  0
ARC
  8
0
  6
CONTINUOUS
 62
     7
 10
7.86805E-008
 20
-1.8
 40
1.8
 50
216.00833
 51
323.99168
  0
ARC
  8
0
  6
CONTINUOUS
 62
     7
 10
7.86805E-008
 20
-1.8
 40
2.7
 50
216.00833
 51
323.99168
  0
ARC
  8
0
  6
CONTINUOUS
 62
     7
 10
2.4767308
 20
1.0826135E-007
 40
5.7617307
 50
143.99168
 51
175.52056
  0
ARC
  8
0
  6
CONTINUOUS
 62
     7
 10
2.4767308
 20
1.0826135E-007
 40
4.8617306
 50
143.99168
 51
174.68912
  0
ARC
  8
0
  6
CONTINUOUS
 62
     7
 10
-2.4767308
 20
-1.0826135E-007
 40
4.8617306
 50
323.99167
 51
36.008327
  0
ARC
  8
0
  6
CONTINUOUS
 62
     7
 10
-2.4767308
 20
-1.0826135E-007
 40
5.7617307
 50
323.99167
 51
355.52055
  0
ARC
  8
0
  6
CONTINUOUS
 62
     7
 10
-4.1624999
 20
-1.8194866E-007
 40
0.5625
 50
126.8699
 51
233.1301
  0
ARC
  8
0
  6
CONTINUOUS
 62
     7
 10
-0.33750001
 20
-1.4752594E-008
 40
0.5625
 50
306.86991
 51
53.130105
  0
ARC
  8
0
  6
CONTINUOUS
 62
     7
 10
4.1624999
 20
1.8194866E-007
 40
0.5625
 50
306.86991
 51
53.130105
  0
ARC
  8
0
  6
CONTINUOUS
 62
     7
 10
2.4767308
 20
1.0826135E-007
 40
5.7617307
 50
184.47945
 51
216.00833
  0
ARC
  8
0
  6
CONTINUOUS
 62
     7
 10
2.4767308
 20
1.0826135E-007
 40
4.8617306
 50
185.31088
 51
216.00833
  0
ARC
  8
0
  6
CONTINUOUS
 62
     7
 10
-2.4767308
 20
-1.0826135E-007
 40
5.7617307
 50
4.4794498
 51
36.008327
  0
ENDBLK
  8
0
  0
BLOCK
  8
0
  2
KOZU6
 70
    64
 10
0
 20
0
  0
POINT
  8
0
  6
CONTINUOUS
 62
     7
 10
0
 20
0
  0
LINE
  8
0
  6
CONTINUOUS
 62
     7
 10
-26.399994
 20
12
 11
-26.399994
 21
0
  0
LINE
  8
0
  6
CONTINUOUS
 62
     7
 10
-26.000008
 20
13.201524
 11
-26.400005
 21
11.999999
  0
LINE
  8
0
  6
CONTINUOUS
 62
     7
 10
-23.001465
 20
16.393517
 11
-26.000038
 21
13.201475
  0
LINE
  8
0
  6
CONTINUOUS
 62
     7
 10
-23.001442
 20
16.393526
 11
-6.8363142
 21
16.898685
  0
LINE
  8
0
  6
CONTINUOUS
 62
     7
 10
-3.841136
 20
21.939316
 11
-6.0000005
 21
18.20005
  0
LINE
  8
0
  6
CONTINUOUS
 62
     7
 10
-3.8411102
 20
21.939316
 11
3.8411102
 21
21.939316
  0
LINE
  8
0
  6
CONTINUOUS
 62
     7
 10
23.001461
 20
16.393526
 11
26.000044
 21
13.201473
  0
LINE
  8
0
  6
CONTINUOUS
 62
     7
 10
26.000002
 20
13.201523
 11
26.399992
 21
12.000011
  0
LINE
  8
0
  6
CONTINUOUS
 62
     7
 10
26.399994
 20
12
 11
26.399994
 21
0
  0
LINE
  8
0
  6
CONTINUOUS
 62
     7
 10
6
 20
18.314453
 11
6
 21
0
  0
LINE
  8
0
  6
CONTINUOUS
 62
     7
 10
-6
 20
18.314484
 11
-6
 21
0
  0
LINE
  8
0
  6
CONTINUOUS
 62
     7
 10
-3.8411102
 20
10.969666
 11
3.8411102
 21
10.969666
  0
LINE
  8
0
  6
CENTER
 62
     7
 10
29
 20
0
 11
-29
 21
0
  0
LINE
  8
0
  6
CONTINUOUS
 62
     7
 10
-26.399994
 20
-12
 11
-26.399994
 21
0
  0
LINE
  8
0
  6
CONTINUOUS
 62
     7
 10
-26.000008
 20
-13.201515
 11
-26.400007
 21
-11.99999
  0
LINE
  8
0
  6
CONTINUOUS
 62
     7
 10
-23.001461
 20
-16.393518
 11
-26.000032
 21
-13.201478
  0
LINE
  8
0
  6
CONTINUOUS
 62
     7
 10
-3.8411102
 20
-21.939316
 11
3.8411102
 21
-21.939316
  0
LINE
  8
0
  6
CONTINUOUS
 62
     7
 10
23.001461
 20
-16.393532
 11
26.000044
 21
-13.20148
  0
LINE
  8
0
  6
CONTINUOUS
 62
     7
 10
26.000008
 20
-13.201513
 11
26.399998
 21
-12.000001
  0
LINE
  8
0
  6
CONTINUOUS
 62
     7
 10
26.399994
 20
-12
 11
26.399994
 21
0
  0
LINE
  8
0
  6
CONTINUOUS
 62
     7
 10
6
 20
-18.314453
 11
6
 21
0
  0
LINE
  8
0
  6
CONTINUOUS
 62
     7
 10
-6
 20
-18.314484
 11
-6
 21
0
  0
LINE
  8
0
  6
CONTINUOUS
 62
     7
 10
-3.8411102
 20
-10.969666
 11
3.8411102
 21
-10.969666
  0
LINE
  8
0
  6
CONTINUOUS
 62
     7
 10
-8.3501301
 20
15.384871
 11
-6.0000005
 21
17.735001
  0
LINE
  8
0
  6
CONTINUOUS
 62
     7
 10
-23.001442
 20
16.393526
 11
-23.001442
 21
0
  0
LINE
  8
0
  6
CONTINUOUS
 62
     7
 10
-24.420746
 20
14.882664
 11
-8.3501291
 21
15.384871
  0
LINE
  8
0
  6
CONTINUOUS
 62
     7
 10
-23.001442
 20
-16.393526
 11
-6.8363142
 21
-16.898685
  0
LINE
  8
0
  6
CONTINUOUS
 62
     7
 10
-3.841136
 20
-21.939316
 11
-6.0000005
 21
-18.20005
  0
LINE
  8
0
  6
CONTINUOUS
 62
     7
 10
-24.420746
 20
-14.882664
 11
-8.3501291
 21
-15.384871
  0
LINE
  8
0
  6
CONTINUOUS
 62
     7
 10
-8.3501301
 20
-15.384871
 11
-6.0000005
 21
-17.735001
  0
LINE
  8
0
  6
CONTINUOUS
 62
     7
 10
-23.001442
 20
-16.393526
 11
-23.001442
 21
0
  0
LINE
  8
0
  6
CONTINUOUS
 62
     7
 10
23.001442
 20
16.393526
 11
6.8363142
 21
16.898685
  0
LINE
  8
0
  6
CONTINUOUS
 62
     7
 10
3.841136
 20
21.939316
 11
6.0000005
 21
18.20005
  0
LINE
  8
0
  6
CONTINUOUS
 62
     7
 10
23.001442
 20
-16.393526
 11
6.8363142
 21
-16.898685
  0
LINE
  8
0
  6
CONTINUOUS
 62
     7
 10
24.420746
 20
-14.882664
 11
8.3501291
 21
-15.384871
  0
LINE
  8
0
  6
CONTINUOUS
 62
     7
 10
23.001442
 20
-16.393526
 11
23.001442
 21
0
  0
LINE
  8
0
  6
CONTINUOUS
 62
     7
 10
24.420746
 20
14.882664
 11
8.3501291
 21
15.384871
  0
LINE
  8
0
  6
CONTINUOUS
 62
     7
 10
3.841136
 20
-21.939316
 11
6.0000005
 21
-18.20005
  0
LINE
  8
0
  6
CONTINUOUS
 62
     7
 10
8.3501301
 20
-15.384871
 11
6.0000005
 21
-17.735001
  0
LINE
  8
0
  6
CONTINUOUS
 62
     7
 10
8.3501301
 20
15.384871
 11
6.0000005
 21
17.735001
  0
LINE
  8
0
  6
CONTINUOUS
 62
     7
 10
23.001442
 20
16.393526
 11
23.001442
 21
0
  0
LINE
  8
0
  6
CONTINUOUS
 62
     7
 10
-8.3501291
 20
16.851379
 11
-8.3501291
 21
-16.851379
  0
LINE
  8
0
  6
CONTINUOUS
 62
     7
 10
8.3501291
 20
16.851379
 11
8.3501291
 21
-16.851379
  0
LINE
  8
0
  6
CONTINUOUS
 62
     7
 10
-24.420746
 20
14.882664
 11
-24.420746
 21
-14.88266
  0
LINE
  8
0
  6
CONTINUOUS
 62
     7
 10
24.420746
 20
14.882664
 11
24.420746
 21
-14.88266
  0
POLYLINE
  8
0
  6
CONTINUOUS
 62
     7
 66
     1
 10
0
 20
0
  0
VERTEX
  8
0
  6
CONTINUOUS
 62
     7
 10
6
 20
16.454498
 42
-0.070787458
  0
VERTEX
  8
0
  6
CONTINUOUS
 62
     7
 10
5.7054312
 20
14.482759
 42
-0.052763958
  0
VERTEX
  8
0
  6
CONTINUOUS
 62
     7
 10
4.9398026
 20
12.637745
 42
-0.04295832
  0
VERTEX
  8
0
  6
CONTINUOUS
 62
     7
 10
3.8411102
 20
10.969666
 42
0
  0
SEQEND
  8
0
  0
POLYLINE
  8
0
  6
CONTINUOUS
 62
     7
 66
     1
 10
0
 20
0
  0
VERTEX
  8
0
  6
CONTINUOUS
 62
     7
 10
-6
 20
16.454498
 42
0.070787458
  0
VERTEX
  8
0
  6
CONTINUOUS
 62
     7
 10
-5.7054312
 20
14.482759
 42
0.052763958
  0
VERTEX
  8
0
  6
CONTINUOUS
 62
     7
 10
-4.9398026
 20
12.637745
 42
0.04295832
  0
VERTEX
  8
0
  6
CONTINUOUS
 62
     7
 10
-3.8411102
 20
10.969666
 42
0
  0
SEQEND
  8
0
  0
POLYLINE
  8
0
  6
CONTINUOUS
 62
     7
 66
     1
 10
0
 20
0
  0
VERTEX
  8
0
  6
CONTINUOUS
 62
     7
 10
-3.8411102
 20
10.969666
 42
0.029107862
  0
VERTEX
  8
0
  6
CONTINUOUS
 62
     7
 10
-5.0095235
 20
7.4102167
 42
0.030943058
  0
VERTEX
  8
0
  6
CONTINUOUS
 62
     7
 10
-5.7441387
 20
3.7365573
 42
0.033672694
  0
VERTEX
  8
0
  6
CONTINUOUS
 62
     7
 10
-6
 20
0
 42
0
  0
SEQEND
  8
0
  0
POLYLINE
  8
0
  6
CONTINUOUS
 62
     7
 66
     1
 10
0
 20
0
  0
VERTEX
  8
0
  6
CONTINUOUS
 62
     7
 10
3.8411102
 20
10.969666
 42
-0.029107862
  0
VERTEX
  8
0
  6
CONTINUOUS
 62
     7
 10
5.0095235
 20
7.4102167
 42
-0.030943058
  0
VERTEX
  8
0
  6
CONTINUOUS
 62
     7
 10
5.7441387
 20
3.7365573
 42
-0.033672694
  0
VERTEX
  8
0
  6
CONTINUOUS
 62
     7
 10
6
 20
0
 42
0
  0
SEQEND
  8
0
  0
POLYLINE
  8
0
  6
CONTINUOUS
 62
     7
 66
     1
 10
0
 20
0
  0
VERTEX
  8
0
  6
CONTINUOUS
 62
     7
 10
6
 20
-16.454498
 42
0.070787458
  0
VERTEX
  8
0
  6
CONTINUOUS
 62
     7
 10
5.7054312
 20
-14.482759
 42
0.052763958
  0
VERTEX
  8
0
  6
CONTINUOUS
 62
     7
 10
4.9398026
 20
-12.637745
 42
0.04295832
  0
VERTEX
  8
0
  6
CONTINUOUS
 62
     7
 10
3.8411102
 20
-10.969666
 42
0
  0
SEQEND
  8
0
  0
POLYLINE
  8
0
  6
CONTINUOUS
 62
     7
 66
     1
 10
0
 20
0
  0
VERTEX
  8
0
  6
CONTINUOUS
 62
     7
 10
-6
 20
-16.454498
 42
-0.070787458
  0
VERTEX
  8
0
  6
CONTINUOUS
 62
     7
 10
-5.7054312
 20
-14.482759
 42
-0.052763958
  0
VERTEX
  8
0
  6
CONTINUOUS
 62
     7
 10
-4.9398026
 20
-12.637745
 42
-0.04295832
  0
VERTEX
  8
0
  6
CONTINUOUS
 62
     7
 10
-3.8411102
 20
-10.969666
 42
0
  0
SEQEND
  8
0
  0
POLYLINE
  8
0
  6
CONTINUOUS
 62
     7
 66
     1
 10
0
 20
0
  0
VERTEX
  8
0
  6
CONTINUOUS
 62
     7
 10
-3.8411102
 20
-10.969666
 42
-0.029107862
  0
VERTEX
  8
0
  6
CONTINUOUS
 62
     7
 10
-5.0095235
 20
-7.4102167
 42
-0.030943058
  0
VERTEX
  8
0
  6
CONTINUOUS
 62
     7
 10
-5.7441387
 20
-3.7365573
 42
-0.033672694
  0
VERTEX
  8
0
  6
CONTINUOUS
 62
     7
 10
-6
 20
0
 42
0
  0
SEQEND
  8
0
  0
POLYLINE
  8
0
  6
CONTINUOUS
 62
     7
 66
     1
 10
0
 20
0
  0
VERTEX
  8
0
  6
CONTINUOUS
 62
     7
 10
3.8411102
 20
-10.969666
 42
0.029107862
  0
VERTEX
  8
0
  6
CONTINUOUS
 62
     7
 10
5.0095235
 20
-7.4102167
 42
0.030943058
  0
VERTEX
  8
0
  6
CONTINUOUS
 62
     7
 10
5.7441387
 20
-3.7365573
 42
0.033672694
  0
VERTEX
  8
0
  6
CONTINUOUS
 62
     7
 10
6
 20
0
 42
0
  0
SEQEND
  8
0
  0
TEXT
  8
0
  6
CONTINUOUS
 62
     7
 10
-1.6888586
 20
23.215571
 40
3.2
 41
1.0715625
  1
1
  0
LINE
  8
0
  6
CONTINUOUS
 62
     7
 10
-4.5
 20
0.44999979
 11
-3.2674003
 21
0.44999985
  0
LINE
  8
0
  6
CONTINUOUS
 62
     7
 10
-4.5
 20
-0.45000018
 11
-3.2674002
 21
-0.45000013
  0
LINE
  8
0
  6
CONTINUOUS
 62
     7
 10
3.2674003
 20
-0.44999985
 11
4.5
 21
-0.44999979
  0
LINE
  8
0
  6
CONTINUOUS
 62
     7
 10
3.2674002
 20
0.45000013
 11
4.5
 21
0.45000018
  0
LINE
  8
0
  6
CONTINUOUS
 62
     7
 10
-2.3641293
 20
-0.45000009
 11
1.9670125E-008
 21
-0.44999999
  0
LINE
  8
0
  6
CONTINUOUS
 62
     7
 10
-2.3641293
 20
0.44999988
 11
-1.9670125E-008
 21
0.44999999
  0
ARC
  8
0
  6
CONTINUOUS
 62
     7
 10
-7.86805E-008
 20
1.8
 40
1.8
 50
36.008327
 51
143.99168
  0
ARC
  8
0
  6
CONTINUOUS
 62
     7
 10
-7.86805E-008
 20
1.8
 40
2.7
 50
36.008327
 51
143.99168
  0
ARC
  8
0
  6
CONTINUOUS
 62
     7
 10
7.86805E-008
 20
-1.8
 40
1.8
 50
216.00833
 51
323.99168
  0
ARC
  8
0
  6
CONTINUOUS
 62
     7
 10
7.86805E-008
 20
-1.8
 40
2.7
 50
216.00833
 51
323.99168
  0
ARC
  8
0
  6
CONTINUOUS
 62
     7
 10
2.4767308
 20
1.0826135E-007
 40
5.7617307
 50
143.99168
 51
175.52056
  0
ARC
  8
0
  6
CONTINUOUS
 62
     7
 10
2.4767308
 20
1.0826135E-007
 40
4.8617306
 50
143.99168
 51
174.68912
  0
ARC
  8
0
  6
CONTINUOUS
 62
     7
 10
-2.4767308
 20
-1.0826135E-007
 40
4.8617306
 50
323.99167
 51
36.008327
  0
ARC
  8
0
  6
CONTINUOUS
 62
     7
 10
-2.4767308
 20
-1.0826135E-007
 40
5.7617307
 50
323.99167
 51
355.52055
  0
ARC
  8
0
  6
CONTINUOUS
 62
     7
 10
-4.1624999
 20
-1.8194866E-007
 40
0.5625
 50
126.8699
 51
233.1301
  0
ARC
  8
0
  6
CONTINUOUS
 62
     7
 10
-0.33750001
 20
-1.4752594E-008
 40
0.5625
 50
306.86991
 51
53.130105
  0
ARC
  8
0
  6
CONTINUOUS
 62
     7
 10
4.1624999
 20
1.8194866E-007
 40
0.5625
 50
306.86991
 51
53.130105
  0
ARC
  8
0
  6
CONTINUOUS
 62
     7
 10
2.4767308
 20
1.0826135E-007
 40
5.7617307
 50
184.47945
 51
216.00833
  0
ARC
  8
0
  6
CONTINUOUS
 62
     7
 10
2.4767308
 20
1.0826135E-007
 40
4.8617306
 50
185.31088
 51
216.00833
  0
ARC
  8
0
  6
CONTINUOUS
 62
     7
 10
-2.4767308
 20
-1.0826135E-007
 40
5.7617307
 50
4.4794498
 51
36.008327
  0
ENDBLK
  8
0
  0
BLOCK
  8
0
  2
KOZU7
 70
    64
 10
0
 20
0
  0
POINT
  8
0
  6
CONTINUOUS
 62
     7
 10
0
 20
0
  0
LINE
  8
0
  6
CONTINUOUS
 62
     7
 10
-28.5
 20
16
 11
-28.5
 21
0
  0
LINE
  8
0
  6
CONTINUOUS
 62
     7
 10
-28.000004
 20
17.0581
 11
-28.500004
 21
16.000002
  0
LINE
  8
0
  6
CONTINUOUS
 62
     7
 10
-27.999992
 20
17.058125
 11
-24.387089
 21
20.671028
  0
LINE
  8
0
  6
CONTINUOUS
 62
     7
 10
-24.387087
 20
20.671032
 11
-6.9283848
 21
21.216616
  0
LINE
  8
0
  6
CONTINUOUS
 62
     7
 10
-3.3683624
 20
27.558121
 11
3.3683777
 21
27.558121
  0
LINE
  8
0
  6
CONTINUOUS
 62
     7
 10
27.999983
 20
17.058107
 11
24.387077
 21
20.671013
  0
LINE
  8
0
  6
CONTINUOUS
 62
     7
 10
28.5
 20
15.999996
 11
27.999996
 21
17.058094
  0
LINE
  8
0
  6
CONTINUOUS
 62
     7
 10
28.5
 20
16
 11
28.5
 21
0
  0
LINE
  8
0
  6
CONTINUOUS
 62
     7
 10
6
 20
23
 11
6
 21
0
  0
LINE
  8
0
  6
CONTINUOUS
 62
     7
 10
-6
 20
23
 11
-6
 21
0
  0
LINE
  8
0
  6
CONTINUOUS
 62
     7
 10
-3.3683777
 20
13.279053
 11
3.3683777
 21
13.279053
  0
LINE
  8
0
  6
CENTER
 62
     7
 10
31
 20
0
 11
-31
 21
0
  0
LINE
  8
0
  6
CONTINUOUS
 62
     7
 10
-28.5
 20
-16
 11
-28.5
 21
0
  0
LINE
  8
0
  6
CONTINUOUS
 62
     7
 10
-28
 20
-17.05809
 11
-28.5
 21
-15.999991
  0
LINE
  8
0
  6
CONTINUOUS
 62
     7
 10
-27.999989
 20
-17.058109
 11
-24.387081
 21
-20.671015
  0
LINE
  8
0
  6
CONTINUOUS
 62
     7
 10
-3.3683624
 20
-27.558121
 11
3.3683777
 21
-27.558121
  0
LINE
  8
0
  6
CONTINUOUS
 62
     7
 10
27.999985
 20
-17.058113
 11
24.387077
 21
-20.671019
  0
LINE
  8
0
  6
CONTINUOUS
 62
     7
 10
28.500006
 20
-16
 11
28.000002
 21
-17.058098
  0
LINE
  8
0
  6
CONTINUOUS
 62
     7
 10
28.5
 20
-16
 11
28.5
 21
0
  0
LINE
  8
0
  6
CONTINUOUS
 62
     7
 10
6
 20
-23
 11
6
 21
0
  0
LINE
  8
0
  6
CONTINUOUS
 62
     7
 10
-6
 20
-23
 11
-6
 21
0
  0
LINE
  8
0
  6
CONTINUOUS
 62
     7
 10
-3.3683777
 20
-13.279053
 11
3.3683777
 21
-13.279053
  0
LINE
  8
0
  6
CONTINUOUS
 62
     7
 10
-25.897671
 20
19.160448
 11
-8.4389677
 21
19.706034
  0
LINE
  8
0
  6
CONTINUOUS
 62
     7
 10
-3.3683732
 20
27.558128
 11
-6
 21
23.000013
  0
LINE
  8
0
  6
CONTINUOUS
 62
     7
 10
-8.4389677
 20
19.706032
 11
-5.9999995
 21
22.144999
  0
LINE
  8
0
  6
CONTINUOUS
 62
     7
 10
-8.4389677
 20
21.169409
 11
-8.4389677
 21
0
  0
LINE
  8
0
  6
CONTINUOUS
 62
     7
 10
-25.897671
 20
19.160448
 11
-25.897671
 21
0
  0
LINE
  8
0
  6
CONTINUOUS
 62
     7
 10
-24.387089
 20
20.671032
 11
-24.387089
 21
0
  0
LINE
  8
0
  6
CONTINUOUS
 62
     7
 10
-24.387087
 20
-20.671032
 11
-6.9283848
 21
-21.216616
  0
LINE
  8
0
  6
CONTINUOUS
 62
     7
 10
-8.4389677
 20
-21.169409
 11
-8.4389677
 21
0
  0
LINE
  8
0
  6
CONTINUOUS
 62
     7
 10
-8.4389677
 20
-19.706032
 11
-5.9999995
 21
-22.144999
  0
LINE
  8
0
  6
CONTINUOUS
 62
     7
 10
-25.897671
 20
-19.160448
 11
-25.897671
 21
0
  0
LINE
  8
0
  6
CONTINUOUS
 62
     7
 10
-25.897671
 20
-19.160448
 11
-8.4389677
 21
-19.706034
  0
LINE
  8
0
  6
CONTINUOUS
 62
     7
 10
-3.3683732
 20
-27.558128
 11
-6
 21
-23.000013
  0
LINE
  8
0
  6
CONTINUOUS
 62
     7
 10
-24.387089
 20
-20.671032
 11
-24.387089
 21
0
  0
LINE
  8
0
  6
CONTINUOUS
 62
     7
 10
24.387087
 20
20.671032
 11
6.9283848
 21
21.216616
  0
LINE
  8
0
  6
CONTINUOUS
 62
     7
 10
24.387087
 20
-20.671032
 11
6.9283848
 21
-21.216616
  0
LINE
  8
0
  6
CONTINUOUS
 62
     7
 10
8.4389677
 20
-19.706032
 11
5.9999995
 21
-22.144999
  0
LINE
  8
0
  6
CONTINUOUS
 62
     7
 10
3.3683732
 20
-27.558128
 11
6
 21
-23.000013
  0
LINE
  8
0
  6
CONTINUOUS
 62
     7
 10
25.897671
 20
-19.160448
 11
25.897671
 21
0
  0
LINE
  8
0
  6
CONTINUOUS
 62
     7
 10
8.4389677
 20
21.169409
 11
8.4389677
 21
0
  0
LINE
  8
0
  6
CONTINUOUS
 62
     7
 10
8.4389677
 20
-21.169409
 11
8.4389677
 21
0
  0
LINE
  8
0
  6
CONTINUOUS
 62
     7
 10
24.387089
 20
-20.671032
 11
24.387089
 21
0
  0
LINE
  8
0
  6
CONTINUOUS
 62
     7
 10
25.897671
 20
-19.160448
 11
8.4389677
 21
-19.706034
  0
LINE
  8
0
  6
CONTINUOUS
 62
     7
 10
8.4389677
 20
19.706032
 11
5.9999995
 21
22.144999
  0
LINE
  8
0
  6
CONTINUOUS
 62
     7
 10
25.897671
 20
19.160448
 11
25.897671
 21
0
  0
LINE
  8
0
  6
CONTINUOUS
 62
     7
 10
25.897671
 20
19.160448
 11
8.4389677
 21
19.706034
  0
LINE
  8
0
  6
CONTINUOUS
 62
     7
 10
3.3683732
 20
27.558128
 11
6
 21
23.000013
  0
LINE
  8
0
  6
CONTINUOUS
 62
     7
 10
24.387089
 20
20.671032
 11
24.387089
 21
0
  0
POLYLINE
  8
0
  6
CONTINUOUS
 62
     7
 66
     1
 10
0
 20
0
  0
VERTEX
  8
0
  6
CONTINUOUS
 62
     7
 10
3.3683777
 20
13.279053
 42
0.043055298
  0
VERTEX
  8
0
  6
CONTINUOUS
 62
     7
 10
4.7067112
 20
15.296878
 42
0.052964791
  0
VERTEX
  8
0
  6
CONTINUOUS
 62
     7
 10
5.6401135
 20
17.529482
 42
0.071331444
  0
VERTEX
  8
0
  6
CONTINUOUS
 62
     7
 10
6
 20
19.918579
 42
0
  0
SEQEND
  8
0
  0
POLYLINE
  8
0
  6
CONTINUOUS
 62
     7
 66
     1
 10
0
 20
0
  0
VERTEX
  8
0
  6
CONTINUOUS
 62
     7
 10
-3.3683777
 20
13.279053
 42
-0.043055298
  0
VERTEX
  8
0
  6
CONTINUOUS
 62
     7
 10
-4.7067112
 20
15.296878
 42
-0.052964791
  0
VERTEX
  8
0
  6
CONTINUOUS
 62
     7
 10
-5.6401135
 20
17.529482
 42
-0.071331444
  0
VERTEX
  8
0
  6
CONTINUOUS
 62
     7
 10
-6
 20
19.918579
 42
0
  0
SEQEND
  8
0
  0
POLYLINE
  8
0
  6
CONTINUOUS
 62
     7
 66
     1
 10
0
 20
0
  0
VERTEX
  8
0
  6
CONTINUOUS
 62
     7
 10
-6
 20
0
 42
-0.033921101
  0
VERTEX
  8
0
  6
CONTINUOUS
 62
     7
 10
-5.6878062
 20
4.5248718
 42
-0.03113149
  0
VERTEX
  8
0
  6
CONTINUOUS
 62
     7
 10
-4.7921588
 20
8.971753
 42
-0.029264285
  0
VERTEX
  8
0
  6
CONTINUOUS
 62
     7
 10
-3.3683777
 20
13.279053
 42
0
  0
SEQEND
  8
0
  0
POLYLINE
  8
0
  6
CONTINUOUS
 62
     7
 66
     1
 10
0
 20
0
  0
VERTEX
  8
0
  6
CONTINUOUS
 62
     7
 10
6
 20
0
 42
0.033921101
  0
VERTEX
  8
0
  6
CONTINUOUS
 62
     7
 10
5.6878062
 20
4.5248718
 42
0.03113149
  0
VERTEX
  8
0
  6
CONTINUOUS
 62
     7
 10
4.7921588
 20
8.971753
 42
0.029264285
  0
VERTEX
  8
0
  6
CONTINUOUS
 62
     7
 10
3.3683777
 20
13.279053
 42
0
  0
SEQEND
  8
0
  0
POLYLINE
  8
0
  6
CONTINUOUS
 62
     7
 66
     1
 10
0
 20
0
  0
VERTEX
  8
0
  6
CONTINUOUS
 62
     7
 10
3.3683777
 20
-13.279053
 42
-0.043055298
  0
VERTEX
  8
0
  6
CONTINUOUS
 62
     7
 10
4.7067112
 20
-15.296878
 42
-0.052964791
  0
VERTEX
  8
0
  6
CONTINUOUS
 62
     7
 10
5.6401135
 20
-17.529482
 42
-0.071331444
  0
VERTEX
  8
0
  6
CONTINUOUS
 62
     7
 10
6
 20
-19.918579
 42
0
  0
SEQEND
  8
0
  0
POLYLINE
  8
0
  6
CONTINUOUS
 62
     7
 66
     1
 10
0
 20
0
  0
VERTEX
  8
0
  6
CONTINUOUS
 62
     7
 10
-3.3683777
 20
-13.279053
 42
0.043055298
  0
VERTEX
  8
0
  6
CONTINUOUS
 62
     7
 10
-4.7067112
 20
-15.296878
 42
0.052964791
  0
VERTEX
  8
0
  6
CONTINUOUS
 62
     7
 10
-5.6401135
 20
-17.529482
 42
0.071331444
  0
VERTEX
  8
0
  6
CONTINUOUS
 62
     7
 10
-6
 20
-19.918579
 42
0
  0
SEQEND
  8
0
  0
POLYLINE
  8
0
  6
CONTINUOUS
 62
     7
 66
     1
 10
0
 20
0
  0
VERTEX
  8
0
  6
CONTINUOUS
 62
     7
 10
-6
 20
0
 42
0.033921101
  0
VERTEX
  8
0
  6
CONTINUOUS
 62
     7
 10
-5.6878062
 20
-4.5248718
 42
0.03113149
  0
VERTEX
  8
0
  6
CONTINUOUS
 62
     7
 10
-4.7921588
 20
-8.971753
 42
0.029264285
  0
VERTEX
  8
0
  6
CONTINUOUS
 62
     7
 10
-3.3683777
 20
-13.279053
 42
0
  0
SEQEND
  8
0
  0
POLYLINE
  8
0
  6
CONTINUOUS
 62
     7
 66
     1
 10
0
 20
0
  0
VERTEX
  8
0
  6
CONTINUOUS
 62
     7
 10
6
 20
0
 42
-0.033921101
  0
VERTEX
  8
0
  6
CONTINUOUS
 62
     7
 10
5.6878062
 20
-4.5248718
 42
-0.03113149
  0
VERTEX
  8
0
  6
CONTINUOUS
 62
     7
 10
4.7921588
 20
-8.971753
 42
-0.029264285
  0
VERTEX
  8
0
  6
CONTINUOUS
 62
     7
 10
3.3683777
 20
-13.279053
 42
0
  0
SEQEND
  8
0
  0
TEXT
  8
0
  6
CONTINUOUS
 62
     7
 10
-4.4657983
 20
28.832613
 40
3.2
 41
0.85127005
  1
１１／４
  0
LINE
  8
0
  6
CONTINUOUS
 62
     7
 10
-4.5
 20
0.44999979
 11
-3.2674003
 21
0.44999985
  0
LINE
  8
0
  6
CONTINUOUS
 62
     7
 10
-4.5
 20
-0.45000018
 11
-3.2674002
 21
-0.45000013
  0
LINE
  8
0
  6
CONTINUOUS
 62
     7
 10
3.2674003
 20
-0.44999985
 11
4.5
 21
-0.44999979
  0
LINE
  8
0
  6
CONTINUOUS
 62
     7
 10
3.2674002
 20
0.45000013
 11
4.5
 21
0.45000018
  0
LINE
  8
0
  6
CONTINUOUS
 62
     7
 10
-2.3641293
 20
-0.45000009
 11
1.9670125E-008
 21
-0.44999999
  0
LINE
  8
0
  6
CONTINUOUS
 62
     7
 10
-2.3641293
 20
0.44999988
 11
-1.9670125E-008
 21
0.44999999
  0
ARC
  8
0
  6
CONTINUOUS
 62
     7
 10
-7.86805E-008
 20
1.8
 40
1.8
 50
36.008327
 51
143.99168
  0
ARC
  8
0
  6
CONTINUOUS
 62
     7
 10
-7.86805E-008
 20
1.8
 40
2.7
 50
36.008327
 51
143.99168
  0
ARC
  8
0
  6
CONTINUOUS
 62
     7
 10
7.86805E-008
 20
-1.8
 40
1.8
 50
216.00833
 51
323.99168
  0
ARC
  8
0
  6
CONTINUOUS
 62
     7
 10
7.86805E-008
 20
-1.8
 40
2.7
 50
216.00833
 51
323.99168
  0
ARC
  8
0
  6
CONTINUOUS
 62
     7
 10
2.4767308
 20
1.0826135E-007
 40
5.7617307
 50
143.99168
 51
175.52056
  0
ARC
  8
0
  6
CONTINUOUS
 62
     7
 10
2.4767308
 20
1.0826135E-007
 40
4.8617306
 50
143.99168
 51
174.68912
  0
ARC
  8
0
  6
CONTINUOUS
 62
     7
 10
-2.4767308
 20
-1.0826135E-007
 40
4.8617306
 50
323.99167
 51
36.008327
  0
ARC
  8
0
  6
CONTINUOUS
 62
     7
 10
-2.4767308
 20
-1.0826135E-007
 40
5.7617307
 50
323.99167
 51
355.52055
  0
ARC
  8
0
  6
CONTINUOUS
 62
     7
 10
-4.1624999
 20
-1.8194866E-007
 40
0.5625
 50
126.8699
 51
233.1301
  0
ARC
  8
0
  6
CONTINUOUS
 62
     7
 10
-0.33750001
 20
-1.4752594E-008
 40
0.5625
 50
306.86991
 51
53.130105
  0
ARC
  8
0
  6
CONTINUOUS
 62
     7
 10
4.1624999
 20
1.8194866E-007
 40
0.5625
 50
306.86991
 51
53.130105
  0
ARC
  8
0
  6
CONTINUOUS
 62
     7
 10
2.4767308
 20
1.0826135E-007
 40
5.7617307
 50
184.47945
 51
216.00833
  0
ARC
  8
0
  6
CONTINUOUS
 62
     7
 10
2.4767308
 20
1.0826135E-007
 40
4.8617306
 50
185.31088
 51
216.00833
  0
ARC
  8
0
  6
CONTINUOUS
 62
     7
 10
-2.4767308
 20
-1.0826135E-007
 40
5.7617307
 50
4.4794498
 51
36.008327
  0
ENDBLK
  8
0
  0
BLOCK
  8
0
  2
KOZU8
 70
    64
 10
0
 20
0
  0
POINT
  8
0
  6
CONTINUOUS
 62
     7
 10
0
 20
0
  0
LINE
  8
0
  6
CONTINUOUS
 62
     7
 10
-30.5
 20
18.5
 11
-30.5
 21
0
  0
LINE
  8
0
  6
CONTINUOUS
 62
     7
 10
-29.999994
 20
20.004641
 11
-30.499996
 21
18.500002
  0
LINE
  8
0
  6
CONTINUOUS
 62
     7
 10
-30.000057
 20
20.004599
 11
-26.387119
 21
23.617537
  0
LINE
  8
0
  6
CONTINUOUS
 62
     7
 10
-26.387138
 20
23.617519
 11
-7.9358788
 21
24.19412
  0
LINE
  8
0
  6
CONTINUOUS
 62
     7
 10
-4.0111365
 20
31.17691
 11
-6.9999995
 21
26.000044
  0
LINE
  8
0
  6
CONTINUOUS
 62
     7
 10
-4.0111084
 20
31.17691
 11
4.0111237
 21
31.17691
  0
LINE
  8
0
  6
CONTINUOUS
 62
     7
 10
30.000046
 20
20.004595
 11
26.387117
 21
23.617521
  0
LINE
  8
0
  6
CONTINUOUS
 62
     7
 10
30.000004
 20
20.004635
 11
30.500004
 21
18.499994
  0
LINE
  8
0
  6
CONTINUOUS
 62
     7
 10
30.5
 20
18.5
 11
30.5
 21
0
  0
LINE
  8
0
  6
CONTINUOUS
 62
     7
 10
7
 20
26.000015
 11
7
 21
0
  0
LINE
  8
0
  6
CONTINUOUS
 62
     7
 10
-4.0111084
 20
15.58847
 11
4.0111084
 21
15.58847
  0
LINE
  8
0
  6
CONTINUOUS
 62
     7
 10
-7
 20
26
 11
-7
 21
0
  0
LINE
  8
0
  6
CENTER
 62
     7
 10
-33
 20
0
 11
33
 21
0
  0
LINE
  8
0
  6
CONTINUOUS
 62
     7
 10
-30.5
 20
-18.5
 11
-30.5
 21
0
  0
LINE
  8
0
  6
CONTINUOUS
 62
     7
 10
-29.999996
 20
-20.004646
 11
-30.499998
 21
-18.500008
  0
LINE
  8
0
  6
CONTINUOUS
 62
     7
 10
-30.00005
 20
-20.004585
 11
-26.38711
 21
-23.617523
  0
LINE
  8
0
  6
CONTINUOUS
 62
     7
 10
-4.0111084
 20
-31.17691
 11
4.0111237
 21
-31.17691
  0
LINE
  8
0
  6
CONTINUOUS
 62
     7
 10
30.000046
 20
-20.004599
 11
26.387121
 21
-23.617525
  0
LINE
  8
0
  6
CONTINUOUS
 62
     7
 10
30.000002
 20
-20.004637
 11
30.500002
 21
-18.499996
  0
LINE
  8
0
  6
CONTINUOUS
 62
     7
 10
30.5
 20
-18.5
 11
30.5
 21
0
  0
LINE
  8
0
  6
CONTINUOUS
 62
     7
 10
7
 20
-26.000015
 11
7
 21
0
  0
LINE
  8
0
  6
CONTINUOUS
 62
     7
 10
-4.0111084
 20
-15.58847
 11
4.0111084
 21
-15.58847
  0
LINE
  8
0
  6
CONTINUOUS
 62
     7
 10
-7
 20
-26
 11
-7
 21
0
  0
LINE
  8
0
  6
CONTINUOUS
 62
     7
 10
-27.897711
 20
22.106947
 11
-9.4464521
 21
22.68355
  0
LINE
  8
0
  6
CONTINUOUS
 62
     7
 10
-9.4464521
 20
22.683548
 11
-7
 21
25.130001
  0
LINE
  8
0
  6
CONTINUOUS
 62
     7
 10
-27.897711
 20
22.106947
 11
-27.897711
 21
-22.106924
  0
LINE
  8
0
  6
CONTINUOUS
 62
     7
 10
-26.387136
 20
23.617519
 11
-26.387136
 21
-23.617498
  0
LINE
  8
0
  6
CONTINUOUS
 62
     7
 10
-9.4464521
 20
24.146915
 11
-9.4464521
 21
0
  0
LINE
  8
0
  6
CONTINUOUS
 62
     7
 10
-26.387138
 20
-23.617519
 11
-7.9358788
 21
-24.19412
  0
LINE
  8
0
  6
CONTINUOUS
 62
     7
 10
-4.0111365
 20
-31.17691
 11
-6.9999995
 21
-26.000044
  0
LINE
  8
0
  6
CONTINUOUS
 62
     7
 10
-9.4464521
 20
-24.146915
 11
-9.4464521
 21
0
  0
LINE
  8
0
  6
CONTINUOUS
 62
     7
 10
-27.897711
 20
-22.106947
 11
-9.4464521
 21
-22.68355
  0
LINE
  8
0
  6
CONTINUOUS
 62
     7
 10
-9.4464521
 20
-22.683548
 11
-7
 21
-25.130001
  0
LINE
  8
0
  6
CONTINUOUS
 62
     7
 10
26.387138
 20
23.617519
 11
7.9358788
 21
24.19412
  0
LINE
  8
0
  6
CONTINUOUS
 62
     7
 10
4.0111365
 20
31.17691
 11
6.9999995
 21
26.000044
  0
LINE
  8
0
  6
CONTINUOUS
 62
     7
 10
27.897711
 20
-22.106947
 11
9.4464521
 21
-22.68355
  0
LINE
  8
0
  6
CONTINUOUS
 62
     7
 10
27.897711
 20
22.106947
 11
27.897711
 21
-22.106924
  0
LINE
  8
0
  6
CONTINUOUS
 62
     7
 10
9.4464521
 20
24.146915
 11
9.4464521
 21
0
  0
LINE
  8
0
  6
CONTINUOUS
 62
     7
 10
9.4464521
 20
-22.683548
 11
7
 21
-25.130001
  0
LINE
  8
0
  6
CONTINUOUS
 62
     7
 10
26.387138
 20
-23.617519
 11
7.9358788
 21
-24.19412
  0
LINE
  8
0
  6
CONTINUOUS
 62
     7
 10
4.0111365
 20
-31.17691
 11
6.9999995
 21
-26.000044
  0
LINE
  8
0
  6
CONTINUOUS
 62
     7
 10
9.4464521
 20
-24.146915
 11
9.4464521
 21
0
  0
LINE
  8
0
  6
CONTINUOUS
 62
     7
 10
26.387136
 20
23.617519
 11
26.387136
 21
-23.617498
  0
LINE
  8
0
  6
CONTINUOUS
 62
     7
 10
27.897711
 20
22.106947
 11
9.4464521
 21
22.68355
  0
LINE
  8
0
  6
CONTINUOUS
 62
     7
 10
9.4464521
 20
22.683548
 11
7
 21
25.130001
  0
POLYLINE
  8
0
  6
CONTINUOUS
 62
     7
 66
     1
 10
0
 20
0
  0
VERTEX
  8
0
  6
CONTINUOUS
 62
     7
 10
4.0111084
 20
15.58847
 42
0.042644432
  0
VERTEX
  8
0
  6
CONTINUOUS
 62
     7
 10
5.5379904
 20
17.968602
 42
0.051920955
  0
VERTEX
  8
0
  6
CONTINUOUS
 62
     7
 10
6.5953285
 20
20.589587
 42
0.068801695
  0
VERTEX
  8
0
  6
CONTINUOUS
 62
     7
 10
7
 20
23.38269
 42
0
  0
SEQEND
  8
0
  0
POLYLINE
  8
0
  6
CONTINUOUS
 62
     7
 66
     1
 10
0
 20
0
  0
VERTEX
  8
0
  6
CONTINUOUS
 62
     7
 10
-4.0111084
 20
15.58847
 42
-0.042644432
  0
VERTEX
  8
0
  6
CONTINUOUS
 62
     7
 10
-5.5379904
 20
17.968602
 42
-0.051920955
  0
VERTEX
  8
0
  6
CONTINUOUS
 62
     7
 10
-6.5953285
 20
20.589587
 42
-0.068801695
  0
VERTEX
  8
0
  6
CONTINUOUS
 62
     7
 10
-7
 20
23.38269
 42
0
  0
SEQEND
  8
0
  0
POLYLINE
  8
0
  6
CONTINUOUS
 62
     7
 66
     1
 10
0
 20
0
  0
VERTEX
  8
0
  6
CONTINUOUS
 62
     7
 10
-7
 20
0
 42
-0.03276935
  0
VERTEX
  8
0
  6
CONTINUOUS
 62
     7
 10
-6.6467725
 20
5.3047109
 42
-0.030230665
  0
VERTEX
  8
0
  6
CONTINUOUS
 62
     7
 10
-5.6307468
 20
10.523761
 42
-0.028523943
  0
VERTEX
  8
0
  6
CONTINUOUS
 62
     7
 10
-4.0111084
 20
15.58847
 42
0
  0
SEQEND
  8
0
  0
POLYLINE
  8
0
  6
CONTINUOUS
 62
     7
 66
     1
 10
0
 20
0
  0
VERTEX
  8
0
  6
CONTINUOUS
 62
     7
 10
7
 20
0
 42
0.03276935
  0
VERTEX
  8
0
  6
CONTINUOUS
 62
     7
 10
6.6467725
 20
5.3047109
 42
0.030230665
  0
VERTEX
  8
0
  6
CONTINUOUS
 62
     7
 10
5.6307468
 20
10.523761
 42
0.028523943
  0
VERTEX
  8
0
  6
CONTINUOUS
 62
     7
 10
4.0111084
 20
15.58847
 42
0
  0
SEQEND
  8
0
  0
POLYLINE
  8
0
  6
CONTINUOUS
 62
     7
 66
     1
 10
0
 20
0
  0
VERTEX
  8
0
  6
CONTINUOUS
 62
     7
 10
4.0111084
 20
-15.58847
 42
-0.042644432
  0
VERTEX
  8
0
  6
CONTINUOUS
 62
     7
 10
5.5379904
 20
-17.968602
 42
-0.051920955
  0
VERTEX
  8
0
  6
CONTINUOUS
 62
     7
 10
6.5953285
 20
-20.589587
 42
-0.068801695
  0
VERTEX
  8
0
  6
CONTINUOUS
 62
     7
 10
7
 20
-23.38269
 42
0
  0
SEQEND
  8
0
  0
POLYLINE
  8
0
  6
CONTINUOUS
 62
     7
 66
     1
 10
0
 20
0
  0
VERTEX
  8
0
  6
CONTINUOUS
 62
     7
 10
-4.0111084
 20
-15.58847
 42
0.042644432
  0
VERTEX
  8
0
  6
CONTINUOUS
 62
     7
 10
-5.5379904
 20
-17.968602
 42
0.051920955
  0
VERTEX
  8
0
  6
CONTINUOUS
 62
     7
 10
-6.5953285
 20
-20.589587
 42
0.068801695
  0
VERTEX
  8
0
  6
CONTINUOUS
 62
     7
 10
-7
 20
-23.38269
 42
0
  0
SEQEND
  8
0
  0
POLYLINE
  8
0
  6
CONTINUOUS
 62
     7
 66
     1
 10
0
 20
0
  0
VERTEX
  8
0
  6
CONTINUOUS
 62
     7
 10
-7
 20
0
 42
0.03276935
  0
VERTEX
  8
0
  6
CONTINUOUS
 62
     7
 10
-6.6467725
 20
-5.3047109
 42
0.030230665
  0
VERTEX
  8
0
  6
CONTINUOUS
 62
     7
 10
-5.6307468
 20
-10.523761
 42
0.028523943
  0
VERTEX
  8
0
  6
CONTINUOUS
 62
     7
 10
-4.0111084
 20
-15.58847
 42
0
  0
SEQEND
  8
0
  0
POLYLINE
  8
0
  6
CONTINUOUS
 62
     7
 66
     1
 10
0
 20
0
  0
VERTEX
  8
0
  6
CONTINUOUS
 62
     7
 10
7
 20
0
 42
-0.03276935
  0
VERTEX
  8
0
  6
CONTINUOUS
 62
     7
 10
6.6467725
 20
-5.3047109
 42
-0.030230665
  0
VERTEX
  8
0
  6
CONTINUOUS
 62
     7
 10
5.6307468
 20
-10.523761
 42
-0.028523943
  0
VERTEX
  8
0
  6
CONTINUOUS
 62
     7
 10
4.0111084
 20
-15.58847
 42
0
  0
SEQEND
  8
0
  0
TEXT
  8
0
  6
CONTINUOUS
 62
     7
 10
-6.0955046
 20
33.06753
 40
3.2
 41
1.0130114
  1
11/2
  0
LINE
  8
0
  6
CONTINUOUS
 62
     7
 10
-4.5
 20
0.44999979
 11
-3.2674003
 21
0.44999985
  0
LINE
  8
0
  6
CONTINUOUS
 62
     7
 10
-4.5
 20
-0.45000018
 11
-3.2674002
 21
-0.45000013
  0
LINE
  8
0
  6
CONTINUOUS
 62
     7
 10
3.2674003
 20
-0.44999985
 11
4.5
 21
-0.44999979
  0
LINE
  8
0
  6
CONTINUOUS
 62
     7
 10
3.2674002
 20
0.45000013
 11
4.5
 21
0.45000018
  0
LINE
  8
0
  6
CONTINUOUS
 62
     7
 10
-2.3641293
 20
-0.45000009
 11
1.9670125E-008
 21
-0.44999999
  0
LINE
  8
0
  6
CONTINUOUS
 62
     7
 10
-2.3641293
 20
0.44999988
 11
-1.9670125E-008
 21
0.44999999
  0
ARC
  8
0
  6
CONTINUOUS
 62
     7
 10
-7.86805E-008
 20
1.8
 40
1.8
 50
36.008327
 51
143.99168
  0
ARC
  8
0
  6
CONTINUOUS
 62
     7
 10
-7.86805E-008
 20
1.8
 40
2.7
 50
36.008327
 51
143.99168
  0
ARC
  8
0
  6
CONTINUOUS
 62
     7
 10
7.86805E-008
 20
-1.8
 40
1.8
 50
216.00833
 51
323.99168
  0
ARC
  8
0
  6
CONTINUOUS
 62
     7
 10
7.86805E-008
 20
-1.8
 40
2.7
 50
216.00833
 51
323.99168
  0
ARC
  8
0
  6
CONTINUOUS
 62
     7
 10
2.4767308
 20
1.0826135E-007
 40
5.7617307
 50
143.99168
 51
175.52056
  0
ARC
  8
0
  6
CONTINUOUS
 62
     7
 10
2.4767308
 20
1.0826135E-007
 40
4.8617306
 50
143.99168
 51
174.68912
  0
ARC
  8
0
  6
CONTINUOUS
 62
     7
 10
-2.4767308
 20
-1.0826135E-007
 40
4.8617306
 50
323.99167
 51
36.008327
  0
ARC
  8
0
  6
CONTINUOUS
 62
     7
 10
-2.4767308
 20
-1.0826135E-007
 40
5.7617307
 50
323.99167
 51
355.52055
  0
ARC
  8
0
  6
CONTINUOUS
 62
     7
 10
-4.1624999
 20
-1.8194866E-007
 40
0.5625
 50
126.8699
 51
233.1301
  0
ARC
  8
0
  6
CONTINUOUS
 62
     7
 10
-0.33750001
 20
-1.4752594E-008
 40
0.5625
 50
306.86991
 51
53.130105
  0
ARC
  8
0
  6
CONTINUOUS
 62
     7
 10
4.1624999
 20
1.8194866E-007
 40
0.5625
 50
306.86991
 51
53.130105
  0
ARC
  8
0
  6
CONTINUOUS
 62
     7
 10
2.4767308
 20
1.0826135E-007
 40
5.7617307
 50
184.47945
 51
216.00833
  0
ARC
  8
0
  6
CONTINUOUS
 62
     7
 10
2.4767308
 20
1.0826135E-007
 40
4.8617306
 50
185.31088
 51
216.00833
  0
ARC
  8
0
  6
CONTINUOUS
 62
     7
 10
-2.4767308
 20
-1.0826135E-007
 40
5.7617307
 50
4.4794498
 51
36.008327
  0
ENDBLK
  8
0
  0
BLOCK
  8
0
  2
KOZU9
 70
    64
 10
0
 20
0
  0
POINT
  8
0
  6
CONTINUOUS
 62
     7
 10
0
 20
0
  0
LINE
  8
0
  6
CENTER
 62
     7
 10
-38
 20
1.5258789E-005
 11
38
 21
1.5258789E-005
  0
LINE
  8
0
  6
CONTINUOUS
 62
     7
 10
-8
 20
31.500015
 11
-8
 21
1.5258789E-005
  0
LINE
  8
0
  6
CONTINUOUS
 62
     7
 10
8
 20
31.500015
 11
8
 21
1.5258789E-005
  0
LINE
  8
0
  6
CONTINUOUS
 62
     7
 10
-30.433281
 20
27.911978
 11
-10.773718
 21
28.526339
  0
LINE
  8
0
  6
CONTINUOUS
 62
     7
 10
-29.001907
 20
29.435717
 11
-9.2469988
 21
30.053057
  0
LINE
  8
0
  6
CONTINUOUS
 62
     7
 10
-30.433281
 20
-27.911957
 11
-10.773717
 21
-28.526318
  0
LINE
  8
0
  6
CONTINUOUS
 62
     7
 10
-29.001907
 20
-29.43568
 11
-9.2470036
 21
-30.05302
  0
LINE
  8
0
  6
CONTINUOUS
 62
     7
 10
-6.5015717
 20
34.095383
 11
6.5015717
 21
34.095383
  0
LINE
  8
0
  6
CONTINUOUS
 62
     7
 10
-6.5015831
 20
34.095402
 11
-8.0000143
 21
31.500042
  0
LINE
  8
0
  6
CONTINUOUS
 62
     7
 10
6.5015702
 20
34.095379
 11
8.0000048
 21
31.500011
  0
LINE
  8
0
  6
CONTINUOUS
 62
     7
 10
-6.5015764
 20
-34.09536
 11
-8.0000114
 21
-31.499994
  0
LINE
  8
0
  6
CONTINUOUS
 62
     7
 10
6.501575
 20
-34.095341
 11
8.0000076
 21
-31.499975
  0
LINE
  8
0
  6
CONTINUOUS
 62
     7
 10
-6.5015717
 20
-34.095352
 11
6.5015717
 21
-34.095352
  0
LINE
  8
0
  6
CONTINUOUS
 62
     7
 10
-6.5015717
 20
0
 11
6.5015717
 21
0
  0
LINE
  8
0
  6
CONTINUOUS
 62
     7
 10
-6.5015717
 20
24.109055
 11
6.5015717
 21
24.109055
  0
LINE
  8
0
  6
CONTINUOUS
 62
     7
 10
-33.500031
 20
-24.313654
 11
-33.000031
 21
-25.17968
  0
LINE
  8
0
  6
CONTINUOUS
 62
     7
 10
-29.001923
 20
-29.435671
 11
-32.999969
 21
-25.179672
  0
LINE
  8
0
  6
CONTINUOUS
 62
     7
 10
-33.5
 20
24.31369
 11
-33.5
 21
-24.313675
  0
LINE
  8
0
  6
CONTINUOUS
 62
     7
 10
-33.500019
 20
24.313709
 11
-33.000019
 21
25.179735
  0
LINE
  8
0
  6
CONTINUOUS
 62
     7
 10
-29.001936
 20
29.435673
 11
-32.999977
 21
25.17968
  0
LINE
  8
0
  6
CONTINUOUS
 62
     7
 10
-29.001907
 20
29.435715
 11
-29.001907
 21
1.5258789E-005
  0
LINE
  8
0
  6
CONTINUOUS
 62
     7
 10
33.500038
 20
-24.31365
 11
33.000038
 21
-25.179676
  0
LINE
  8
0
  6
CONTINUOUS
 62
     7
 10
33.5
 20
24.31369
 11
33.5
 21
-24.313675
  0
LINE
  8
0
  6
CONTINUOUS
 62
     7
 10
33.500027
 20
24.313715
 11
33.000027
 21
25.179741
  0
LINE
  8
0
  6
CONTINUOUS
 62
     7
 10
29.001932
 20
29.435665
 11
32.999981
 21
25.179668
  0
LINE
  8
0
  6
CONTINUOUS
 62
     7
 10
29.001907
 20
29.435715
 11
29.001907
 21
1.5258789E-005
  0
LINE
  8
0
  6
CONTINUOUS
 62
     7
 10
29.001919
 20
-29.435669
 11
32.999966
 21
-25.179672
  0
LINE
  8
0
  6
CONTINUOUS
 62
     7
 10
-10.773717
 20
28.526339
 11
-8.000001
 21
31.300055
  0
LINE
  8
0
  6
CONTINUOUS
 62
     7
 10
-10.773717
 20
30.005346
 11
-10.773717
 21
-30.00531
  0
LINE
  8
0
  6
CONTINUOUS
 62
     7
 10
-30.433281
 20
27.911976
 11
-30.433281
 21
-27.911959
  0
LINE
  8
0
  6
CONTINUOUS
 62
     7
 10
30.433275
 20
27.911976
 11
30.433275
 21
-27.911964
  0
LINE
  8
0
  6
CONTINUOUS
 62
     7
 10
29.001907
 20
-29.435684
 11
29.001907
 21
1.5258789E-005
  0
LINE
  8
0
  6
CONTINUOUS
 62
     7
 10
-29.001907
 20
-29.435684
 11
-29.001907
 21
1.5258789E-005
  0
LINE
  8
0
  6
CONTINUOUS
 62
     7
 10
-10.773718
 20
-28.526308
 11
-8.000001
 21
-31.300024
  0
LINE
  8
0
  6
CONTINUOUS
 62
     7
 10
8
 20
-31.499985
 11
8
 21
1.5258789E-005
  0
LINE
  8
0
  6
CONTINUOUS
 62
     7
 10
-8
 20
-31.499985
 11
-8
 21
1.5258789E-005
  0
LINE
  8
0
  6
CONTINUOUS
 62
     7
 10
-6.5015717
 20
-24.109024
 11
6.5015717
 21
-24.109024
  0
LINE
  8
0
  6
CONTINUOUS
 62
     7
 10
29.001907
 20
-29.43568
 11
9.2470036
 21
-30.05302
  0
LINE
  8
0
  6
CONTINUOUS
 62
     7
 10
30.433273
 20
-27.911957
 11
10.773717
 21
-28.526318
  0
LINE
  8
0
  6
CONTINUOUS
 62
     7
 10
29.001907
 20
29.435717
 11
9.2469988
 21
30.053057
  0
LINE
  8
0
  6
CONTINUOUS
 62
     7
 10
30.433281
 20
27.911978
 11
10.773718
 21
28.526339
  0
LINE
  8
0
  6
CONTINUOUS
 62
     7
 10
10.773717
 20
30.005346
 11
10.773717
 21
-30.00531
  0
LINE
  8
0
  6
CONTINUOUS
 62
     7
 10
10.773717
 20
28.526339
 11
8.000001
 21
31.300055
  0
LINE
  8
0
  6
CONTINUOUS
 62
     7
 10
10.773718
 20
-28.526308
 11
8.000001
 21
-31.300024
  0
POLYLINE
  8
0
  6
CONTINUOUS
 62
     7
 66
     1
 10
0
 20
0
  0
VERTEX
  8
0
  6
CONTINUOUS
 62
     7
 10
-6.5015717
 20
34.095383
 42
0.081978129
  0
VERTEX
  8
0
  6
CONTINUOUS
 62
     7
 10
-7.8095758
 20
30.847247
 42
0.10912516
  0
VERTEX
  8
0
  6
CONTINUOUS
 62
     7
 10
-7.8095638
 20
27.357122
 42
0.08197665
  0
VERTEX
  8
0
  6
CONTINUOUS
 62
     7
 10
-6.5015717
 20
24.109055
 42
0
  0
SEQEND
  8
0
  0
POLYLINE
  8
0
  6
CONTINUOUS
 62
     7
 66
     1
 10
0
 20
0
  0
VERTEX
  8
0
  6
CONTINUOUS
 62
     7
 10
-6.5015717
 20
24.109055
 42
0.039940692
  0
VERTEX
  8
0
  6
CONTINUOUS
 62
     7
 10
-7.8288087
 20
16.109736
 42
0.042210406
  0
VERTEX
  8
0
  6
CONTINUOUS
 62
     7
 10
-7.8288863
 20
8.0002431
 42
0.039945353
  0
VERTEX
  8
0
  6
CONTINUOUS
 62
     7
 10
-6.5015717
 20
0
 42
0
  0
SEQEND
  8
0
  0
POLYLINE
  8
0
  6
CONTINUOUS
 62
     7
 66
     1
 10
0
 20
0
  0
VERTEX
  8
0
  6
CONTINUOUS
 62
     7
 10
6.5015717
 20
24.109055
 42
-0.039940692
  0
VERTEX
  8
0
  6
CONTINUOUS
 62
     7
 10
7.8288087
 20
16.109736
 42
-0.042210406
  0
VERTEX
  8
0
  6
CONTINUOUS
 62
     7
 10
7.8288863
 20
8.0002431
 42
-0.039945353
  0
VERTEX
  8
0
  6
CONTINUOUS
 62
     7
 10
6.5015717
 20
0
 42
0
  0
SEQEND
  8
0
  0
POLYLINE
  8
0
  6
CONTINUOUS
 62
     7
 66
     1
 10
0
 20
0
  0
VERTEX
  8
0
  6
CONTINUOUS
 62
     7
 10
6.5015717
 20
34.095383
 42
-0.081978129
  0
VERTEX
  8
0
  6
CONTINUOUS
 62
     7
 10
7.8095758
 20
30.847247
 42
-0.10912516
  0
VERTEX
  8
0
  6
CONTINUOUS
 62
     7
 10
7.8095638
 20
27.357122
 42
-0.08197665
  0
VERTEX
  8
0
  6
CONTINUOUS
 62
     7
 10
6.5015717
 20
24.109055
 42
0
  0
SEQEND
  8
0
  0
POLYLINE
  8
0
  6
CONTINUOUS
 62
     7
 66
     1
 10
0
 20
0
  0
VERTEX
  8
0
  6
CONTINUOUS
 62
     7
 10
-6.5015717
 20
-24.109024
 42
-0.039940692
  0
VERTEX
  8
0
  6
CONTINUOUS
 62
     7
 10
-7.8288087
 20
-16.109706
 42
-0.042210406
  0
VERTEX
  8
0
  6
CONTINUOUS
 62
     7
 10
-7.8288863
 20
-8.0002126
 42
-0.039945353
  0
VERTEX
  8
0
  6
CONTINUOUS
 62
     7
 10
-6.5015717
 20
3.0517578E-005
 42
0
  0
SEQEND
  8
0
  0
POLYLINE
  8
0
  6
CONTINUOUS
 62
     7
 66
     1
 10
0
 20
0
  0
VERTEX
  8
0
  6
CONTINUOUS
 62
     7
 10
6.5015717
 20
-24.109024
 42
0.039940692
  0
VERTEX
  8
0
  6
CONTINUOUS
 62
     7
 10
7.8288087
 20
-16.109706
 42
0.042210406
  0
VERTEX
  8
0
  6
CONTINUOUS
 62
     7
 10
7.8288863
 20
-8.0002126
 42
0.039945353
  0
VERTEX
  8
0
  6
CONTINUOUS
 62
     7
 10
6.5015717
 20
3.0517578E-005
 42
0
  0
SEQEND
  8
0
  0
POLYLINE
  8
0
  6
CONTINUOUS
 62
     7
 66
     1
 10
0
 20
0
  0
VERTEX
  8
0
  6
CONTINUOUS
 62
     7
 10
-6.5015717
 20
-34.095352
 42
-0.081978129
  0
VERTEX
  8
0
  6
CONTINUOUS
 62
     7
 10
-7.8095758
 20
-30.847216
 42
-0.10912516
  0
VERTEX
  8
0
  6
CONTINUOUS
 62
     7
 10
-7.8095638
 20
-27.357092
 42
-0.08197665
  0
VERTEX
  8
0
  6
CONTINUOUS
 62
     7
 10
-6.5015717
 20
-24.109024
 42
0
  0
SEQEND
  8
0
  0
POLYLINE
  8
0
  6
CONTINUOUS
 62
     7
 66
     1
 10
0
 20
0
  0
VERTEX
  8
0
  6
CONTINUOUS
 62
     7
 10
6.5015717
 20
-34.095352
 42
0.081978129
  0
VERTEX
  8
0
  6
CONTINUOUS
 62
     7
 10
7.8095758
 20
-30.847216
 42
0.10912516
  0
VERTEX
  8
0
  6
CONTINUOUS
 62
     7
 10
7.8095638
 20
-27.357092
 42
0.08197665
  0
VERTEX
  8
0
  6
CONTINUOUS
 62
     7
 10
6.5015717
 20
-24.109024
 42
0
  0
SEQEND
  8
0
  0
TEXT
  8
0
  6
CONTINUOUS
 62
     7
 10
-1.4692716
 20
37.748373
 40
3.2
 41
1.0715625
  1
2
  0
LINE
  8
0
  6
CONTINUOUS
 62
     7
 10
-6
 20
12.65455
 11
-4.3565336
 21
12.65455
  0
LINE
  8
0
  6
CONTINUOUS
 62
     7
 10
-6
 20
11.45455
 11
-4.3565335
 21
11.45455
  0
LINE
  8
0
  6
CONTINUOUS
 62
     7
 10
4.3565336
 20
11.45455
 11
6
 21
11.45455
  0
LINE
  8
0
  6
CONTINUOUS
 62
     7
 10
4.3565335
 20
12.65455
 11
6
 21
12.65455
  0
LINE
  8
0
  6
CONTINUOUS
 62
     7
 10
-3.1521723
 20
11.45455
 11
2.6226835E-008
 21
11.45455
  0
LINE
  8
0
  6
CONTINUOUS
 62
     7
 10
-3.1521724
 20
12.65455
 11
-2.6226835E-008
 21
12.65455
  0
ARC
  8
0
  6
CONTINUOUS
 62
     7
 10
-1.0490734E-007
 20
14.45455
 40
2.4000001
 50
36.008327
 51
143.99168
  0
ARC
  8
0
  6
CONTINUOUS
 62
     7
 10
-1.0490734E-007
 20
14.45455
 40
3.5999999
 50
36.008327
 51
143.99168
  0
ARC
  8
0
  6
CONTINUOUS
 62
     7
 10
1.0490734E-007
 20
9.6545501
 40
2.4000001
 50
216.00833
 51
323.99168
  0
ARC
  8
0
  6
CONTINUOUS
 62
     7
 10
1.0490734E-007
 20
9.6545501
 40
3.5999999
 50
216.00833
 51
323.99168
  0
ARC
  8
0
  6
CONTINUOUS
 62
     7
 10
3.3023076
 20
12.05455
 40
7.6823077
 50
143.99168
 51
175.52056
  0
ARC
  8
0
  6
CONTINUOUS
 62
     7
 10
3.3023076
 20
12.05455
 40
6.4823079
 50
143.99168
 51
174.68912
  0
ARC
  8
0
  6
CONTINUOUS
 62
     7
 10
-3.3023076
 20
12.05455
 40
6.4823079
 50
323.99167
 51
36.008327
  0
ARC
  8
0
  6
CONTINUOUS
 62
     7
 10
-3.3023076
 20
12.05455
 40
7.6823077
 50
323.99167
 51
355.52055
  0
ARC
  8
0
  6
CONTINUOUS
 62
     7
 10
-5.5500002
 20
12.05455
 40
0.75
 50
126.8699
 51
233.1301
  0
ARC
  8
0
  6
CONTINUOUS
 62
     7
 10
-0.44999999
 20
12.05455
 40
0.75
 50
306.86991
 51
53.130105
  0
ARC
  8
0
  6
CONTINUOUS
 62
     7
 10
5.5500002
 20
12.05455
 40
0.75
 50
306.86991
 51
53.130105
  0
ARC
  8
0
  6
CONTINUOUS
 62
     7
 10
3.3023076
 20
12.05455
 40
6.4823079
 50
185.31088
 51
216.00833
  0
ARC
  8
0
  6
CONTINUOUS
 62
     7
 10
3.3023076
 20
12.05455
 40
7.6823077
 50
184.47945
 51
216.00833
  0
ARC
  8
0
  6
CONTINUOUS
 62
     7
 10
-3.3023076
 20
12.05455
 40
7.6823077
 50
4.4794498
 51
36.008327
  0
ENDBLK
  8
0
  0
BLOCK
  8
0
  2
KOZU10
 70
    64
 10
0
 20
0
  0
POINT
  8
0
  6
CONTINUOUS
 62
     7
 10
0
 20
0
  0
LINE
  8
0
  6
CENTER
 62
     7
 10
-41.5
 20
0
 11
41.5
 21
0
  0
LINE
  8
0
  6
CONTINUOUS
 62
     7
 10
-8.5
 20
40
 11
-8.5
 21
0
  0
LINE
  8
0
  6
CONTINUOUS
 62
     7
 10
-33.433617
 20
35.663204
 11
-11.449793
 21
36.350201
  0
LINE
  8
0
  6
CONTINUOUS
 62
     7
 10
-32.002228
 20
37.186928
 11
-9.92309
 21
37.8769
  0
LINE
  8
0
  6
CONTINUOUS
 62
     7
 10
-6.5972843
 20
43.2957
 11
0
 21
43.2957
  0
LINE
  8
0
  6
CONTINUOUS
 62
     7
 10
-6.59727
 20
43.295727
 11
-8.5000429
 21
40.000023
  0
LINE
  8
0
  6
CONTINUOUS
 62
     7
 10
-6.597229
 20
0
 11
0
 21
0
  0
LINE
  8
0
  6
CONTINUOUS
 62
     7
 10
-6.597229
 20
30.614685
 11
0
 21
30.614685
  0
LINE
  8
0
  6
CONTINUOUS
 62
     7
 10
-37
 20
31.866734
 11
-37
 21
0
  0
LINE
  8
0
  6
CONTINUOUS
 62
     7
 10
-32.002228
 20
37.186935
 11
-37
 21
31.866734
  0
LINE
  8
0
  6
CONTINUOUS
 62
     7
 10
-32.002228
 20
37.18692
 11
-32.002228
 21
0
  0
LINE
  8
0
  6
CONTINUOUS
 62
     7
 10
-11.449794
 20
36.350197
 11
-8.5
 21
39.299992
  0
LINE
  8
0
  6
CONTINUOUS
 62
     7
 10
-11.449793
 20
37.829189
 11
-11.449793
 21
0
  0
LINE
  8
0
  6
CONTINUOUS
 62
     7
 10
-33.433613
 20
35.663204
 11
-33.433613
 21
0
  0
LINE
  8
0
  6
CONTINUOUS
 62
     7
 10
-32.002228
 20
-37.18692
 11
-32.002228
 21
0
  0
LINE
  8
0
  6
CONTINUOUS
 62
     7
 10
-32.002228
 20
-37.186935
 11
-37
 21
-31.866734
  0
LINE
  8
0
  6
CONTINUOUS
 62
     7
 10
-37
 20
-31.866734
 11
-37
 21
0
  0
LINE
  8
0
  6
CENTER
 62
     7
 10
-41.5
 20
0
 11
41.5
 21
0
  0
LINE
  8
0
  6
CONTINUOUS
 62
     7
 10
-6.597229
 20
-30.614685
 11
0
 21
-30.614685
  0
LINE
  8
0
  6
CONTINUOUS
 62
     7
 10
-6.597229
 20
0
 11
0
 21
0
  0
LINE
  8
0
  6
CONTINUOUS
 62
     7
 10
-6.59727
 20
-43.295727
 11
-8.5000429
 21
-40.000023
  0
LINE
  8
0
  6
CONTINUOUS
 62
     7
 10
-6.5972843
 20
-43.2957
 11
0
 21
-43.2957
  0
LINE
  8
0
  6
CONTINUOUS
 62
     7
 10
-32.002228
 20
-37.186928
 11
-9.92309
 21
-37.8769
  0
LINE
  8
0
  6
CONTINUOUS
 62
     7
 10
-33.433617
 20
-35.663204
 11
-11.449793
 21
-36.350201
  0
LINE
  8
0
  6
CONTINUOUS
 62
     7
 10
-8.5
 20
-40
 11
-8.5
 21
0
  0
LINE
  8
0
  6
CONTINUOUS
 62
     7
 10
-11.449793
 20
-37.829189
 11
-11.449793
 21
0
  0
LINE
  8
0
  6
CONTINUOUS
 62
     7
 10
-11.449794
 20
-36.350197
 11
-8.5
 21
-39.299992
  0
LINE
  8
0
  6
CONTINUOUS
 62
     7
 10
-33.433613
 20
-35.663204
 11
-33.433613
 21
0
  0
LINE
  8
0
  6
CONTINUOUS
 62
     7
 10
32.002228
 20
37.18692
 11
32.002228
 21
0
  0
LINE
  8
0
  6
CONTINUOUS
 62
     7
 10
32.002228
 20
37.186935
 11
37
 21
31.866734
  0
LINE
  8
0
  6
CONTINUOUS
 62
     7
 10
37
 20
31.866734
 11
37
 21
0
  0
LINE
  8
0
  6
CENTER
 62
     7
 10
41.5
 20
0
 11
-41.5
 21
0
  0
LINE
  8
0
  6
CONTINUOUS
 62
     7
 10
6.597229
 20
30.614685
 11
0
 21
30.614685
  0
LINE
  8
0
  6
CONTINUOUS
 62
     7
 10
6.597229
 20
0
 11
0
 21
0
  0
LINE
  8
0
  6
CONTINUOUS
 62
     7
 10
6.59727
 20
43.295727
 11
8.5000429
 21
40.000023
  0
LINE
  8
0
  6
CONTINUOUS
 62
     7
 10
6.5972843
 20
43.2957
 11
0
 21
43.2957
  0
LINE
  8
0
  6
CONTINUOUS
 62
     7
 10
32.002228
 20
37.186928
 11
9.92309
 21
37.8769
  0
LINE
  8
0
  6
CONTINUOUS
 62
     7
 10
33.433617
 20
35.663204
 11
11.449793
 21
36.350201
  0
LINE
  8
0
  6
CONTINUOUS
 62
     7
 10
8.5
 20
40
 11
8.5
 21
0
  0
LINE
  8
0
  6
CONTINUOUS
 62
     7
 10
11.449793
 20
37.829189
 11
11.449793
 21
0
  0
LINE
  8
0
  6
CONTINUOUS
 62
     7
 10
11.449794
 20
36.350197
 11
8.5
 21
39.299992
  0
LINE
  8
0
  6
CONTINUOUS
 62
     7
 10
33.433613
 20
-35.663204
 11
33.433613
 21
0
  0
LINE
  8
0
  6
CONTINUOUS
 62
     7
 10
8.5
 20
-40
 11
8.5
 21
0
  0
LINE
  8
0
  6
CONTINUOUS
 62
     7
 10
11.449793
 20
-37.829189
 11
11.449793
 21
0
  0
LINE
  8
0
  6
CONTINUOUS
 62
     7
 10
6.5972843
 20
-43.2957
 11
0
 21
-43.2957
  0
LINE
  8
0
  6
CONTINUOUS
 62
     7
 10
33.433617
 20
-35.663204
 11
11.449793
 21
-36.350201
  0
LINE
  8
0
  6
CONTINUOUS
 62
     7
 10
11.449794
 20
-36.350197
 11
8.5
 21
-39.299992
  0
LINE
  8
0
  6
CONTINUOUS
 62
     7
 10
6.597229
 20
-30.614685
 11
0
 21
-30.614685
  0
LINE
  8
0
  6
CONTINUOUS
 62
     7
 10
6.597229
 20
0
 11
0
 21
0
  0
LINE
  8
0
  6
CONTINUOUS
 62
     7
 10
32.002228
 20
-37.186935
 11
37
 21
-31.866734
  0
LINE
  8
0
  6
CONTINUOUS
 62
     7
 10
6.59727
 20
-43.295727
 11
8.5000429
 21
-40.000023
  0
LINE
  8
0
  6
CONTINUOUS
 62
     7
 10
32.002228
 20
-37.18692
 11
32.002228
 21
0
  0
LINE
  8
0
  6
CONTINUOUS
 62
     7
 10
32.002228
 20
-37.186928
 11
9.92309
 21
-37.8769
  0
LINE
  8
0
  6
CONTINUOUS
 62
     7
 10
33.433613
 20
35.663204
 11
33.433613
 21
0
  0
LINE
  8
0
  6
CONTINUOUS
 62
     7
 10
37
 20
-31.866734
 11
37
 21
0
  0
POLYLINE
  8
0
  6
CONTINUOUS
 62
     7
 66
     1
 10
0
 20
0
  0
VERTEX
  8
0
  6
CONTINUOUS
 62
     7
 10
-6.597229
 20
30.614685
 42
0.039945293
  0
VERTEX
  8
0
  6
CONTINUOUS
 62
     7
 10
-8.2827094
 20
20.455675
 42
0.042205991
  0
VERTEX
  8
0
  6
CONTINUOUS
 62
     7
 10
-8.2827098
 20
10.159014
 42
0.03994531
  0
VERTEX
  8
0
  6
CONTINUOUS
 62
     7
 10
-6.597229
 20
0
 42
0
  0
SEQEND
  8
0
  0
POLYLINE
  8
0
  6
CONTINUOUS
 62
     7
 66
     1
 10
0
 20
0
  0
VERTEX
  8
0
  6
CONTINUOUS
 62
     7
 10
-6.597229
 20
30.614685
 42
-0.081978572
  0
VERTEX
  8
0
  6
CONTINUOUS
 62
     7
 10
-8.2581919
 20
34.739289
 42
-0.10912471
  0
VERTEX
  8
0
  6
CONTINUOUS
 62
     7
 10
-8.2581844
 20
39.171133
 42
-0.081977817
  0
VERTEX
  8
0
  6
CONTINUOUS
 62
     7
 10
-6.597229
 20
43.2957
 42
0
  0
SEQEND
  8
0
  0
POLYLINE
  8
0
  6
CONTINUOUS
 62
     7
 66
     1
 10
0
 20
0
  0
VERTEX
  8
0
  6
CONTINUOUS
 62
     7
 10
-6.597229
 20
-30.614685
 42
-0.039945293
  0
VERTEX
  8
0
  6
CONTINUOUS
 62
     7
 10
-8.2827094
 20
-20.455675
 42
-0.042205991
  0
VERTEX
  8
0
  6
CONTINUOUS
 62
     7
 10
-8.2827098
 20
-10.159014
 42
-0.03994531
  0
VERTEX
  8
0
  6
CONTINUOUS
 62
     7
 10
-6.597229
 20
0
 42
0
  0
SEQEND
  8
0
  0
POLYLINE
  8
0
  6
CONTINUOUS
 62
     7
 66
     1
 10
0
 20
0
  0
VERTEX
  8
0
  6
CONTINUOUS
 62
     7
 10
-6.597229
 20
-30.614685
 42
0.081978572
  0
VERTEX
  8
0
  6
CONTINUOUS
 62
     7
 10
-8.2581919
 20
-34.739289
 42
0.10912471
  0
VERTEX
  8
0
  6
CONTINUOUS
 62
     7
 10
-8.2581844
 20
-39.171133
 42
0.081977817
  0
VERTEX
  8
0
  6
CONTINUOUS
 62
     7
 10
-6.597229
 20
-43.2957
 42
0
  0
SEQEND
  8
0
  0
POLYLINE
  8
0
  6
CONTINUOUS
 62
     7
 66
     1
 10
0
 20
0
  0
VERTEX
  8
0
  6
CONTINUOUS
 62
     7
 10
6.597229
 20
30.614685
 42
-0.039945293
  0
VERTEX
  8
0
  6
CONTINUOUS
 62
     7
 10
8.2827094
 20
20.455675
 42
-0.042205991
  0
VERTEX
  8
0
  6
CONTINUOUS
 62
     7
 10
8.2827098
 20
10.159014
 42
-0.03994531
  0
VERTEX
  8
0
  6
CONTINUOUS
 62
     7
 10
6.597229
 20
0
 42
0
  0
SEQEND
  8
0
  0
POLYLINE
  8
0
  6
CONTINUOUS
 62
     7
 66
     1
 10
0
 20
0
  0
VERTEX
  8
0
  6
CONTINUOUS
 62
     7
 10
6.597229
 20
30.614685
 42
0.081978572
  0
VERTEX
  8
0
  6
CONTINUOUS
 62
     7
 10
8.2581919
 20
34.739289
 42
0.10912471
  0
VERTEX
  8
0
  6
CONTINUOUS
 62
     7
 10
8.2581844
 20
39.171133
 42
0.081977817
  0
VERTEX
  8
0
  6
CONTINUOUS
 62
     7
 10
6.597229
 20
43.2957
 42
0
  0
SEQEND
  8
0
  0
POLYLINE
  8
0
  6
CONTINUOUS
 62
     7
 66
     1
 10
0
 20
0
  0
VERTEX
  8
0
  6
CONTINUOUS
 62
     7
 10
6.597229
 20
-30.614685
 42
0.039945293
  0
VERTEX
  8
0
  6
CONTINUOUS
 62
     7
 10
8.2827094
 20
-20.455675
 42
0.042205991
  0
VERTEX
  8
0
  6
CONTINUOUS
 62
     7
 10
8.2827098
 20
-10.159014
 42
0.03994531
  0
VERTEX
  8
0
  6
CONTINUOUS
 62
     7
 10
6.597229
 20
0
 42
0
  0
SEQEND
  8
0
  0
POLYLINE
  8
0
  6
CONTINUOUS
 62
     7
 66
     1
 10
0
 20
0
  0
VERTEX
  8
0
  6
CONTINUOUS
 62
     7
 10
6.597229
 20
-30.614685
 42
-0.081978572
  0
VERTEX
  8
0
  6
CONTINUOUS
 62
     7
 10
8.2581919
 20
-34.739289
 42
-0.10912471
  0
VERTEX
  8
0
  6
CONTINUOUS
 62
     7
 10
8.2581844
 20
-39.171133
 42
-0.081977817
  0
VERTEX
  8
0
  6
CONTINUOUS
 62
     7
 10
6.597229
 20
-43.2957
 42
0
  0
SEQEND
  8
0
  0
TEXT
  8
0
  6
CONTINUOUS
 62
     7
 10
-8.5177745
 20
47.537543
 40
3.2
 41
1.0130114
  1
21/2
  0
LINE
  8
0
  6
CONTINUOUS
 62
     7
 10
-6
 20
15.907342
 11
-4.3565336
 21
15.907342
  0
LINE
  8
0
  6
CONTINUOUS
 62
     7
 10
-6
 20
14.707342
 11
-4.3565335
 21
14.707342
  0
LINE
  8
0
  6
CONTINUOUS
 62
     7
 10
4.3565336
 20
14.707343
 11
6
 21
14.707343
  0
LINE
  8
0
  6
CONTINUOUS
 62
     7
 10
4.3565335
 20
15.907343
 11
6
 21
15.907343
  0
LINE
  8
0
  6
CONTINUOUS
 62
     7
 10
-3.1521723
 20
14.707342
 11
2.6226835E-008
 21
14.707343
  0
LINE
  8
0
  6
CONTINUOUS
 62
     7
 10
-3.1521724
 20
15.907342
 11
-2.6226835E-008
 21
15.907343
  0
ARC
  8
0
  6
CONTINUOUS
 62
     7
 10
-1.0490734E-007
 20
17.707343
 40
2.4000001
 50
36.008327
 51
143.99168
  0
ARC
  8
0
  6
CONTINUOUS
 62
     7
 10
-1.0490734E-007
 20
17.707343
 40
3.5999999
 50
36.008327
 51
143.99168
  0
ARC
  8
0
  6
CONTINUOUS
 62
     7
 10
1.0490734E-007
 20
12.907342
 40
2.4000001
 50
216.00833
 51
323.99168
  0
ARC
  8
0
  6
CONTINUOUS
 62
     7
 10
1.0490734E-007
 20
12.907342
 40
3.5999999
 50
216.00833
 51
323.99168
  0
ARC
  8
0
  6
CONTINUOUS
 62
     7
 10
3.3023076
 20
15.307343
 40
7.6823077
 50
143.99168
 51
175.52056
  0
ARC
  8
0
  6
CONTINUOUS
 62
     7
 10
3.3023076
 20
15.307343
 40
6.4823079
 50
143.99168
 51
174.68912
  0
ARC
  8
0
  6
CONTINUOUS
 62
     7
 10
-3.3023076
 20
15.307342
 40
6.4823079
 50
323.99167
 51
36.008327
  0
ARC
  8
0
  6
CONTINUOUS
 62
     7
 10
-3.3023076
 20
15.307342
 40
7.6823077
 50
323.99167
 51
355.52055
  0
ARC
  8
0
  6
CONTINUOUS
 62
     7
 10
-5.5500002
 20
15.307342
 40
0.75
 50
126.8699
 51
233.1301
  0
ARC
  8
0
  6
CONTINUOUS
 62
     7
 10
-0.44999999
 20
15.307343
 40
0.75
 50
306.86991
 51
53.130105
  0
ARC
  8
0
  6
CONTINUOUS
 62
     7
 10
5.5500002
 20
15.307343
 40
0.75
 50
306.86991
 51
53.130105
  0
ARC
  8
0
  6
CONTINUOUS
 62
     7
 10
3.3023076
 20
15.307343
 40
6.4823079
 50
185.31088
 51
216.00833
  0
ARC
  8
0
  6
CONTINUOUS
 62
     7
 10
3.3023076
 20
15.307343
 40
7.6823077
 50
184.47945
 51
216.00833
  0
ARC
  8
0
  6
CONTINUOUS
 62
     7
 10
-3.3023076
 20
15.307342
 40
7.6823077
 50
4.4794498
 51
36.008327
  0
ENDBLK
  8
0
  0
BLOCK
  8
0
  2
KOZU11
 70
    64
 10
0
 20
0
  0
POINT
  8
0
  6
CONTINUOUS
 62
     7
 10
0
 20
0
  0
LINE
  8
0
  6
CENTER
 62
     7
 10
-45.5
 20
1.5258789E-005
 11
45.5
 21
1.5258789E-005
  0
LINE
  8
0
  6
CONTINUOUS
 62
     7
 10
-8.5
 20
47.500015
 11
-8.5
 21
1.5258789E-005
  0
LINE
  8
0
  6
CONTINUOUS
 62
     7
 10
-37.747997
 20
41.549011
 11
-11.789815
 21
42.360203
  0
LINE
  8
0
  6
CONTINUOUS
 62
     7
 10
-36.221283
 20
43.075729
 11
-10.263097
 21
43.886921
  0
LINE
  8
0
  6
CONTINUOUS
 62
     7
 10
-6.2405272
 20
51.413635
 11
0
 21
51.413635
  0
LINE
  8
0
  6
CONTINUOUS
 62
     7
 10
-6.2404633
 20
3.0517578E-005
 11
0
 21
3.0517578E-005
  0
LINE
  8
0
  6
CONTINUOUS
 62
     7
 10
-6.2405171
 20
51.413654
 11
-8.5000448
 21
47.500034
  0
LINE
  8
0
  6
CONTINUOUS
 62
     7
 10
-6.2404633
 20
36.354935
 11
0
 21
36.354935
  0
LINE
  8
0
  6
CONTINUOUS
 62
     7
 10
-41
 20
38.297009
 11
-41
 21
1.5258789E-005
  0
LINE
  8
0
  6
CONTINUOUS
 62
     7
 10
-41
 20
38.297009
 11
-36.221279
 21
43.075729
  0
LINE
  8
0
  6
CONTINUOUS
 62
     7
 10
-36.221283
 20
43.075729
 11
-36.221283
 21
1.5258789E-005
  0
LINE
  8
0
  6
CONTINUOUS
 62
     7
 10
-37.747997
 20
41.549011
 11
-37.747997
 21
1.5258789E-005
  0
LINE
  8
0
  6
CONTINUOUS
 62
     7
 10
-11.789814
 20
42.360203
 11
-8.5
 21
45.650017
  0
LINE
  8
0
  6
CONTINUOUS
 62
     7
 10
-11.789816
 20
43.839211
 11
-11.789816
 21
1.5258789E-005
  0
LINE
  8
0
  6
CONTINUOUS
 62
     7
 10
-8.5
 20
-47.499985
 11
-8.5
 21
1.5258789E-005
  0
LINE
  8
0
  6
CONTINUOUS
 62
     7
 10
-37.747997
 20
-41.548981
 11
-11.789815
 21
-42.360172
  0
LINE
  8
0
  6
CONTINUOUS
 62
     7
 10
-36.221283
 20
-43.075699
 11
-10.263097
 21
-43.88689
  0
LINE
  8
0
  6
CONTINUOUS
 62
     7
 10
-6.2405272
 20
-51.413605
 11
0
 21
-51.413605
  0
LINE
  8
0
  6
CONTINUOUS
 62
     7
 10
-6.2404633
 20
0
 11
0
 21
0
  0
LINE
  8
0
  6
CONTINUOUS
 62
     7
 10
-6.2405171
 20
-51.413624
 11
-8.5000448
 21
-47.500004
  0
LINE
  8
0
  6
CONTINUOUS
 62
     7
 10
-6.2404633
 20
-36.354904
 11
0
 21
-36.354904
  0
LINE
  8
0
  6
CONTINUOUS
 62
     7
 10
-41
 20
-38.296978
 11
-41
 21
1.5258789E-005
  0
LINE
  8
0
  6
CONTINUOUS
 62
     7
 10
-41
 20
-38.296978
 11
-36.221279
 21
-43.075699
  0
LINE
  8
0
  6
CONTINUOUS
 62
     7
 10
-36.221283
 20
-43.075699
 11
-36.221283
 21
1.5258789E-005
  0
LINE
  8
0
  6
CONTINUOUS
 62
     7
 10
-37.747997
 20
-41.548981
 11
-37.747997
 21
1.5258789E-005
  0
LINE
  8
0
  6
CONTINUOUS
 62
     7
 10
-11.789816
 20
-43.83918
 11
-11.789816
 21
1.5258789E-005
  0
LINE
  8
0
  6
CONTINUOUS
 62
     7
 10
-11.789817
 20
-42.360172
 11
-8.500001
 21
-45.64999
  0
LINE
  8
0
  6
CONTINUOUS
 62
     7
 10
8.5
 20
47.500015
 11
8.5
 21
1.5258789E-005
  0
LINE
  8
0
  6
CONTINUOUS
 62
     7
 10
37.747997
 20
41.549011
 11
11.789815
 21
42.360203
  0
LINE
  8
0
  6
CONTINUOUS
 62
     7
 10
36.221283
 20
43.075729
 11
10.263097
 21
43.886921
  0
LINE
  8
0
  6
CONTINUOUS
 62
     7
 10
6.2405272
 20
51.413635
 11
0
 21
51.413635
  0
LINE
  8
0
  6
CONTINUOUS
 62
     7
 10
6.2404633
 20
3.0517578E-005
 11
0
 21
3.0517578E-005
  0
LINE
  8
0
  6
CONTINUOUS
 62
     7
 10
6.2405171
 20
51.413654
 11
8.5000448
 21
47.500034
  0
LINE
  8
0
  6
CONTINUOUS
 62
     7
 10
6.2404633
 20
36.354935
 11
0
 21
36.354935
  0
LINE
  8
0
  6
CONTINUOUS
 62
     7
 10
41
 20
38.297009
 11
41
 21
1.5258789E-005
  0
LINE
  8
0
  6
CONTINUOUS
 62
     7
 10
41
 20
38.297009
 11
36.221279
 21
43.075729
  0
LINE
  8
0
  6
CONTINUOUS
 62
     7
 10
36.221283
 20
43.075729
 11
36.221283
 21
1.5258789E-005
  0
LINE
  8
0
  6
CONTINUOUS
 62
     7
 10
37.747997
 20
41.549011
 11
37.747997
 21
1.5258789E-005
  0
LINE
  8
0
  6
CONTINUOUS
 62
     7
 10
11.789816
 20
43.839211
 11
11.789816
 21
1.5258789E-005
  0
LINE
  8
0
  6
CONTINUOUS
 62
     7
 10
11.789814
 20
42.360203
 11
8.5
 21
45.650017
  0
LINE
  8
0
  6
CONTINUOUS
 62
     7
 10
8.5
 20
-47.499985
 11
8.5
 21
1.5258789E-005
  0
LINE
  8
0
  6
CONTINUOUS
 62
     7
 10
37.747997
 20
-41.548981
 11
11.789815
 21
-42.360172
  0
LINE
  8
0
  6
CONTINUOUS
 62
     7
 10
36.221283
 20
-43.075699
 11
10.263097
 21
-43.88689
  0
LINE
  8
0
  6
CONTINUOUS
 62
     7
 10
6.2405272
 20
-51.413605
 11
0
 21
-51.413605
  0
LINE
  8
0
  6
CONTINUOUS
 62
     7
 10
6.2404633
 20
0
 11
0
 21
0
  0
LINE
  8
0
  6
CONTINUOUS
 62
     7
 10
6.2405171
 20
-51.413624
 11
8.5000448
 21
-47.500004
  0
LINE
  8
0
  6
CONTINUOUS
 62
     7
 10
6.2404633
 20
-36.354904
 11
0
 21
-36.354904
  0
LINE
  8
0
  6
CONTINUOUS
 62
     7
 10
41
 20
-38.296978
 11
41
 21
1.5258789E-005
  0
LINE
  8
0
  6
CONTINUOUS
 62
     7
 10
41
 20
-38.296978
 11
36.221279
 21
-43.075699
  0
LINE
  8
0
  6
CONTINUOUS
 62
     7
 10
36.221283
 20
-43.075699
 11
36.221283
 21
1.5258789E-005
  0
LINE
  8
0
  6
CONTINUOUS
 62
     7
 10
37.747997
 20
-41.548981
 11
37.747997
 21
1.5258789E-005
  0
LINE
  8
0
  6
CONTINUOUS
 62
     7
 10
11.789816
 20
-43.83918
 11
11.789816
 21
1.5258789E-005
  0
LINE
  8
0
  6
CONTINUOUS
 62
     7
 10
11.789817
 20
-42.360172
 11
8.500001
 21
-45.64999
  0
POLYLINE
  8
0
  6
CONTINUOUS
 62
     7
 66
     1
 10
0
 20
0
  0
VERTEX
  8
0
  6
CONTINUOUS
 62
     7
 10
-6.2404633
 20
3.0517578E-005
 42
-0.039945252
  0
VERTEX
  8
0
  6
CONTINUOUS
 62
     7
 10
-8.2419678
 20
12.063843
 42
-0.042205989
  0
VERTEX
  8
0
  6
CONTINUOUS
 62
     7
 10
-8.2419677
 20
24.291125
 42
-0.03994526
  0
VERTEX
  8
0
  6
CONTINUOUS
 62
     7
 10
-6.2404633
 20
36.354935
 42
0
  0
SEQEND
  8
0
  0
POLYLINE
  8
0
  6
CONTINUOUS
 62
     7
 66
     1
 10
0
 20
0
  0
VERTEX
  8
0
  6
CONTINUOUS
 62
     7
 10
-6.2404633
 20
36.354935
 42
-0.081978527
  0
VERTEX
  8
0
  6
CONTINUOUS
 62
     7
 10
-8.2128535
 20
41.2529
 42
-0.10912448
  0
VERTEX
  8
0
  6
CONTINUOUS
 62
     7
 10
-8.2128449
 20
46.515712
 42
-0.081977803
  0
VERTEX
  8
0
  6
CONTINUOUS
 62
     7
 10
-6.2404633
 20
51.413635
 42
0
  0
SEQEND
  8
0
  0
POLYLINE
  8
0
  6
CONTINUOUS
 62
     7
 66
     1
 10
0
 20
0
  0
VERTEX
  8
0
  6
CONTINUOUS
 62
     7
 10
-6.2404633
 20
0
 42
0.039945252
  0
VERTEX
  8
0
  6
CONTINUOUS
 62
     7
 10
-8.2419678
 20
-12.063813
 42
0.042205989
  0
VERTEX
  8
0
  6
CONTINUOUS
 62
     7
 10
-8.2419677
 20
-24.291094
 42
0.03994526
  0
VERTEX
  8
0
  6
CONTINUOUS
 62
     7
 10
-6.2404633
 20
-36.354904
 42
0
  0
SEQEND
  8
0
  0
POLYLINE
  8
0
  6
CONTINUOUS
 62
     7
 66
     1
 10
0
 20
0
  0
VERTEX
  8
0
  6
CONTINUOUS
 62
     7
 10
-6.2404633
 20
-36.354904
 42
0.081978527
  0
VERTEX
  8
0
  6
CONTINUOUS
 62
     7
 10
-8.2128535
 20
-41.25287
 42
0.10912448
  0
VERTEX
  8
0
  6
CONTINUOUS
 62
     7
 10
-8.2128449
 20
-46.515681
 42
0.081977803
  0
VERTEX
  8
0
  6
CONTINUOUS
 62
     7
 10
-6.2404633
 20
-51.413605
 42
0
  0
SEQEND
  8
0
  0
POLYLINE
  8
0
  6
CONTINUOUS
 62
     7
 66
     1
 10
0
 20
0
  0
VERTEX
  8
0
  6
CONTINUOUS
 62
     7
 10
6.2404633
 20
3.0517578E-005
 42
0.039945252
  0
VERTEX
  8
0
  6
CONTINUOUS
 62
     7
 10
8.2419678
 20
12.063843
 42
0.042205989
  0
VERTEX
  8
0
  6
CONTINUOUS
 62
     7
 10
8.2419677
 20
24.291125
 42
0.03994526
  0
VERTEX
  8
0
  6
CONTINUOUS
 62
     7
 10
6.2404633
 20
36.354935
 42
0
  0
SEQEND
  8
0
  0
POLYLINE
  8
0
  6
CONTINUOUS
 62
     7
 66
     1
 10
0
 20
0
  0
VERTEX
  8
0
  6
CONTINUOUS
 62
     7
 10
6.2404633
 20
36.354935
 42
0.081978527
  0
VERTEX
  8
0
  6
CONTINUOUS
 62
     7
 10
8.2128535
 20
41.2529
 42
0.10912448
  0
VERTEX
  8
0
  6
CONTINUOUS
 62
     7
 10
8.2128449
 20
46.515712
 42
0.081977803
  0
VERTEX
  8
0
  6
CONTINUOUS
 62
     7
 10
6.2404633
 20
51.413635
 42
0
  0
SEQEND
  8
0
  0
POLYLINE
  8
0
  6
CONTINUOUS
 62
     7
 66
     1
 10
0
 20
0
  0
VERTEX
  8
0
  6
CONTINUOUS
 62
     7
 10
6.2404633
 20
0
 42
-0.039945252
  0
VERTEX
  8
0
  6
CONTINUOUS
 62
     7
 10
8.2419678
 20
-12.063813
 42
-0.042205989
  0
VERTEX
  8
0
  6
CONTINUOUS
 62
     7
 10
8.2419677
 20
-24.291094
 42
-0.03994526
  0
VERTEX
  8
0
  6
CONTINUOUS
 62
     7
 10
6.2404633
 20
-36.354904
 42
0
  0
SEQEND
  8
0
  0
POLYLINE
  8
0
  6
CONTINUOUS
 62
     7
 66
     1
 10
0
 20
0
  0
VERTEX
  8
0
  6
CONTINUOUS
 62
     7
 10
6.2404633
 20
-36.354904
 42
-0.081978527
  0
VERTEX
  8
0
  6
CONTINUOUS
 62
     7
 10
8.2128535
 20
-41.25287
 42
-0.10912448
  0
VERTEX
  8
0
  6
CONTINUOUS
 62
     7
 10
8.2128449
 20
-46.515681
 42
-0.081977803
  0
VERTEX
  8
0
  6
CONTINUOUS
 62
     7
 10
6.2404633
 20
-51.413605
 42
0
  0
SEQEND
  8
0
  0
TEXT
  8
0
  6
CONTINUOUS
 62
     7
 10
-1.0446007
 20
55.96361
 40
3.2
 41
1.0715625
  1
3
  0
LINE
  8
0
  6
CONTINUOUS
 62
     7
 10
-6
 20
18.77749
 11
-4.3565336
 21
18.77749
  0
LINE
  8
0
  6
CONTINUOUS
 62
     7
 10
-6
 20
17.57749
 11
-4.3565335
 21
17.57749
  0
LINE
  8
0
  6
CONTINUOUS
 62
     7
 10
4.3565336
 20
17.57749
 11
6
 21
17.57749
  0
LINE
  8
0
  6
CONTINUOUS
 62
     7
 10
4.3565335
 20
18.77749
 11
6
 21
18.777491
  0
LINE
  8
0
  6
CONTINUOUS
 62
     7
 10
-3.1521723
 20
17.57749
 11
2.6226835E-008
 21
17.57749
  0
LINE
  8
0
  6
CONTINUOUS
 62
     7
 10
-3.1521724
 20
18.77749
 11
-2.6226835E-008
 21
18.77749
  0
ARC
  8
0
  6
CONTINUOUS
 62
     7
 10
-1.0490734E-007
 20
20.57749
 40
2.4000001
 50
36.008327
 51
143.99168
  0
ARC
  8
0
  6
CONTINUOUS
 62
     7
 10
-1.0490734E-007
 20
20.57749
 40
3.5999999
 50
36.008327
 51
143.99168
  0
ARC
  8
0
  6
CONTINUOUS
 62
     7
 10
1.0490734E-007
 20
15.77749
 40
2.4000001
 50
216.00833
 51
323.99168
  0
ARC
  8
0
  6
CONTINUOUS
 62
     7
 10
1.0490734E-007
 20
15.77749
 40
3.5999999
 50
216.00833
 51
323.99168
  0
ARC
  8
0
  6
CONTINUOUS
 62
     7
 10
3.3023076
 20
18.17749
 40
7.6823077
 50
143.99168
 51
175.52056
  0
ARC
  8
0
  6
CONTINUOUS
 62
     7
 10
3.3023076
 20
18.17749
 40
6.4823079
 50
143.99168
 51
174.68912
  0
ARC
  8
0
  6
CONTINUOUS
 62
     7
 10
-3.3023076
 20
18.17749
 40
6.4823079
 50
323.99167
 51
36.008327
  0
ARC
  8
0
  6
CONTINUOUS
 62
     7
 10
-3.3023076
 20
18.17749
 40
7.6823077
 50
323.99167
 51
355.52055
  0
ARC
  8
0
  6
CONTINUOUS
 62
     7
 10
-5.5500002
 20
18.17749
 40
0.75
 50
126.8699
 51
233.1301
  0
ARC
  8
0
  6
CONTINUOUS
 62
     7
 10
-0.44999999
 20
18.17749
 40
0.75
 50
306.86991
 51
53.130105
  0
ARC
  8
0
  6
CONTINUOUS
 62
     7
 10
5.5500002
 20
18.17749
 40
0.75
 50
306.86991
 51
53.130105
  0
ARC
  8
0
  6
CONTINUOUS
 62
     7
 10
3.3023076
 20
18.17749
 40
6.4823079
 50
185.31088
 51
216.00833
  0
ARC
  8
0
  6
CONTINUOUS
 62
     7
 10
3.3023076
 20
18.17749
 40
7.6823077
 50
184.47945
 51
216.00833
  0
ARC
  8
0
  6
CONTINUOUS
 62
     7
 10
-3.3023076
 20
18.17749
 40
7.6823077
 50
4.4794498
 51
36.008327
  0
ENDBLK
  8
0
  0
BLOCK
  8
0
  2
KOZU12
 70
    64
 10
0
 20
0
  0
POINT
  8
0
  6
CONTINUOUS
 62
     7
 10
0
 20
0
  0
LINE
  8
0
  6
CENTER
 62
     7
 10
-51
 20
-3.0517578E-005
 11
51
 21
-3.0517578E-005
  0
LINE
  8
0
  6
CONTINUOUS
 62
     7
 10
-9
 20
59.999954
 11
-9
 21
-3.0517578E-005
  0
LINE
  8
0
  6
CONTINUOUS
 62
     7
 10
-42.933575
 20
54.338039
 11
-11.806195
 21
55.310768
  0
LINE
  8
0
  6
CONTINUOUS
 62
     7
 10
-41.502163
 20
55.861794
 11
-10.279461
 21
56.837505
  0
LINE
  8
0
  6
CONTINUOUS
 62
     7
 10
-6.1458435
 20
0
 11
0
 21
0
  0
LINE
  8
0
  6
CONTINUOUS
 62
     7
 10
-6.1458435
 20
45.921982
 11
0
 21
45.921982
  0
LINE
  8
0
  6
CONTINUOUS
 62
     7
 10
-6.1459155
 20
64.943497
 11
0
 21
64.943497
  0
LINE
  8
0
  6
CONTINUOUS
 62
     7
 10
-6.1459069
 20
64.943512
 11
-9.000061
 21
59.999969
  0
LINE
  8
0
  6
CONTINUOUS
 62
     7
 10
-46.600006
 20
50.435051
 11
-46.600006
 21
-3.0517578E-005
  0
LINE
  8
0
  6
CONTINUOUS
 62
     7
 10
-41.502159
 20
55.861794
 11
-46.600006
 21
50.435051
  0
LINE
  8
0
  6
CONTINUOUS
 62
     7
 10
-41.502167
 20
55.861801
 11
-41.502167
 21
-3.0517578E-005
  0
LINE
  8
0
  6
CONTINUOUS
 62
     7
 10
-11.806195
 20
55.310772
 11
-9.0000019
 21
58.116966
  0
LINE
  8
0
  6
CONTINUOUS
 62
     7
 10
-11.806195
 20
56.789795
 11
-11.806195
 21
-3.0517578E-005
  0
LINE
  8
0
  6
CONTINUOUS
 62
     7
 10
-42.933578
 20
54.338028
 11
-42.933578
 21
-3.0517578E-005
  0
LINE
  8
0
  6
CONTINUOUS
 62
     7
 10
-9
 20
-60.000015
 11
-9
 21
-3.0517578E-005
  0
LINE
  8
0
  6
CONTINUOUS
 62
     7
 10
-42.933578
 20
-54.3381
 11
-11.806195
 21
-55.310829
  0
LINE
  8
0
  6
CONTINUOUS
 62
     7
 10
-41.502159
 20
-55.861855
 11
-10.279461
 21
-56.837566
  0
LINE
  8
0
  6
CONTINUOUS
 62
     7
 10
-6.1458435
 20
-45.922043
 11
0
 21
-45.922043
  0
LINE
  8
0
  6
CONTINUOUS
 62
     7
 10
-6.1459155
 20
-64.943558
 11
0
 21
-64.943558
  0
LINE
  8
0
  6
CONTINUOUS
 62
     7
 10
-6.1459069
 20
-64.943573
 11
-9.000061
 21
-60.000031
  0
LINE
  8
0
  6
CONTINUOUS
 62
     7
 10
-42.933578
 20
-54.338089
 11
-42.933578
 21
-3.0517578E-005
  0
LINE
  8
0
  6
CONTINUOUS
 62
     7
 10
-46.600006
 20
-50.435112
 11
-46.600006
 21
-3.0517578E-005
  0
LINE
  8
0
  6
CONTINUOUS
 62
     7
 10
-41.502163
 20
-55.861858
 11
-46.600006
 21
-50.435116
  0
LINE
  8
0
  6
CONTINUOUS
 62
     7
 10
-41.502167
 20
-55.861862
 11
-41.502167
 21
-3.0517578E-005
  0
LINE
  8
0
  6
CONTINUOUS
 62
     7
 10
-11.806195
 20
-56.789856
 11
-11.806195
 21
-3.0517578E-005
  0
LINE
  8
0
  6
CONTINUOUS
 62
     7
 10
-11.806195
 20
-55.310829
 11
-8.999999
 21
-58.117027
  0
LINE
  8
0
  6
CONTINUOUS
 62
     7
 10
9
 20
59.999954
 11
9
 21
-3.0517578E-005
  0
LINE
  8
0
  6
CONTINUOUS
 62
     7
 10
42.933575
 20
54.338039
 11
11.806195
 21
55.310768
  0
LINE
  8
0
  6
CONTINUOUS
 62
     7
 10
41.502163
 20
55.861794
 11
10.279461
 21
56.837505
  0
LINE
  8
0
  6
CONTINUOUS
 62
     7
 10
6.1458435
 20
0
 11
0
 21
0
  0
LINE
  8
0
  6
CONTINUOUS
 62
     7
 10
6.1458435
 20
45.921982
 11
0
 21
45.921982
  0
LINE
  8
0
  6
CONTINUOUS
 62
     7
 10
6.1459155
 20
64.943497
 11
0
 21
64.943497
  0
LINE
  8
0
  6
CONTINUOUS
 62
     7
 10
6.1459069
 20
64.943512
 11
9.000061
 21
59.999969
  0
LINE
  8
0
  6
CONTINUOUS
 62
     7
 10
42.933578
 20
54.338028
 11
42.933578
 21
-3.0517578E-005
  0
LINE
  8
0
  6
CONTINUOUS
 62
     7
 10
46.600006
 20
50.435051
 11
46.600006
 21
-3.0517578E-005
  0
LINE
  8
0
  6
CONTINUOUS
 62
     7
 10
41.502159
 20
55.861794
 11
46.600006
 21
50.435051
  0
LINE
  8
0
  6
CONTINUOUS
 62
     7
 10
41.502167
 20
55.861801
 11
41.502167
 21
-3.0517578E-005
  0
LINE
  8
0
  6
CONTINUOUS
 62
     7
 10
9
 20
-60.000015
 11
9
 21
-3.0517578E-005
  0
LINE
  8
0
  6
CONTINUOUS
 62
     7
 10
42.933578
 20
-54.3381
 11
11.806195
 21
-55.310829
  0
LINE
  8
0
  6
CONTINUOUS
 62
     7
 10
11.806195
 20
-55.310829
 11
8.999999
 21
-58.117027
  0
LINE
  8
0
  6
CONTINUOUS
 62
     7
 10
41.502159
 20
-55.861855
 11
10.279461
 21
-56.837566
  0
LINE
  8
0
  6
CONTINUOUS
 62
     7
 10
6.1458435
 20
-45.922043
 11
0
 21
-45.922043
  0
LINE
  8
0
  6
CONTINUOUS
 62
     7
 10
6.1459155
 20
-64.943558
 11
0
 21
-64.943558
  0
LINE
  8
0
  6
CONTINUOUS
 62
     7
 10
6.1459069
 20
-64.943573
 11
9.000061
 21
-60.000031
  0
LINE
  8
0
  6
CONTINUOUS
 62
     7
 10
11.806195
 20
56.789795
 11
11.806195
 21
-3.0517578E-005
  0
LINE
  8
0
  6
CONTINUOUS
 62
     7
 10
11.806195
 20
55.310772
 11
9.0000019
 21
58.116966
  0
LINE
  8
0
  6
CONTINUOUS
 62
     7
 10
11.806195
 20
-56.789856
 11
11.806195
 21
-3.0517578E-005
  0
LINE
  8
0
  6
CONTINUOUS
 62
     7
 10
41.502167
 20
-55.861862
 11
41.502167
 21
-3.0517578E-005
  0
LINE
  8
0
  6
CONTINUOUS
 62
     7
 10
41.502163
 20
-55.861858
 11
46.600006
 21
-50.435116
  0
LINE
  8
0
  6
CONTINUOUS
 62
     7
 10
46.600006
 20
-50.435112
 11
46.600006
 21
-3.0517578E-005
  0
LINE
  8
0
  6
CONTINUOUS
 62
     7
 10
42.933578
 20
-54.338089
 11
42.933578
 21
-3.0517578E-005
  0
POLYLINE
  8
0
  6
CONTINUOUS
 62
     7
 66
     1
 10
0
 20
0
  0
VERTEX
  8
0
  6
CONTINUOUS
 62
     7
 10
-6.1458435
 20
0
 42
-0.039945337
  0
VERTEX
  8
0
  6
CONTINUOUS
 62
     7
 10
-8.6740642
 20
15.238499
 42
-0.042206053
  0
VERTEX
  8
0
  6
CONTINUOUS
 62
     7
 10
-8.674064
 20
30.683484
 42
-0.03994532
  0
VERTEX
  8
0
  6
CONTINUOUS
 62
     7
 10
-6.1458435
 20
45.921982
 42
0
  0
SEQEND
  8
0
  0
POLYLINE
  8
0
  6
CONTINUOUS
 62
     7
 66
     1
 10
0
 20
0
  0
VERTEX
  8
0
  6
CONTINUOUS
 62
     7
 10
-6.1458435
 20
45.921982
 42
-0.081978589
  0
VERTEX
  8
0
  6
CONTINUOUS
 62
     7
 10
-8.6372877
 20
52.108885
 42
-0.10912481
  0
VERTEX
  8
0
  6
CONTINUOUS
 62
     7
 10
-8.6372759
 20
58.756653
 42
-0.081977807
  0
VERTEX
  8
0
  6
CONTINUOUS
 62
     7
 10
-6.1458435
 20
64.943497
 42
0
  0
SEQEND
  8
0
  0
POLYLINE
  8
0
  6
CONTINUOUS
 62
     7
 66
     1
 10
0
 20
0
  0
VERTEX
  8
0
  6
CONTINUOUS
 62
     7
 10
-6.1458435
 20
-6.1035156E-005
 42
0.039945337
  0
VERTEX
  8
0
  6
CONTINUOUS
 62
     7
 10
-8.6740642
 20
-15.23856
 42
0.042206053
  0
VERTEX
  8
0
  6
CONTINUOUS
 62
     7
 10
-8.674064
 20
-30.683545
 42
0.03994532
  0
VERTEX
  8
0
  6
CONTINUOUS
 62
     7
 10
-6.1458435
 20
-45.922043
 42
0
  0
SEQEND
  8
0
  0
POLYLINE
  8
0
  6
CONTINUOUS
 62
     7
 66
     1
 10
0
 20
0
  0
VERTEX
  8
0
  6
CONTINUOUS
 62
     7
 10
-6.1458435
 20
-45.922043
 42
0.081978589
  0
VERTEX
  8
0
  6
CONTINUOUS
 62
     7
 10
-8.6372877
 20
-52.108946
 42
0.10912481
  0
VERTEX
  8
0
  6
CONTINUOUS
 62
     7
 10
-8.6372759
 20
-58.756714
 42
0.081977807
  0
VERTEX
  8
0
  6
CONTINUOUS
 62
     7
 10
-6.1458435
 20
-64.943558
 42
0
  0
SEQEND
  8
0
  0
POLYLINE
  8
0
  6
CONTINUOUS
 62
     7
 66
     1
 10
0
 20
0
  0
VERTEX
  8
0
  6
CONTINUOUS
 62
     7
 10
6.1458435
 20
0
 42
0.039945337
  0
VERTEX
  8
0
  6
CONTINUOUS
 62
     7
 10
8.6740642
 20
15.238499
 42
0.042206053
  0
VERTEX
  8
0
  6
CONTINUOUS
 62
     7
 10
8.674064
 20
30.683484
 42
0.03994532
  0
VERTEX
  8
0
  6
CONTINUOUS
 62
     7
 10
6.1458435
 20
45.921982
 42
0
  0
SEQEND
  8
0
  0
POLYLINE
  8
0
  6
CONTINUOUS
 62
     7
 66
     1
 10
0
 20
0
  0
VERTEX
  8
0
  6
CONTINUOUS
 62
     7
 10
6.1458435
 20
45.921982
 42
0.081978589
  0
VERTEX
  8
0
  6
CONTINUOUS
 62
     7
 10
8.6372877
 20
52.108885
 42
0.10912481
  0
VERTEX
  8
0
  6
CONTINUOUS
 62
     7
 10
8.6372759
 20
58.756653
 42
0.081977807
  0
VERTEX
  8
0
  6
CONTINUOUS
 62
     7
 10
6.1458435
 20
64.943497
 42
0
  0
SEQEND
  8
0
  0
POLYLINE
  8
0
  6
CONTINUOUS
 62
     7
 66
     1
 10
0
 20
0
  0
VERTEX
  8
0
  6
CONTINUOUS
 62
     7
 10
6.1458435
 20
-6.1035156E-005
 42
-0.039945337
  0
VERTEX
  8
0
  6
CONTINUOUS
 62
     7
 10
8.6740642
 20
-15.23856
 42
-0.042206053
  0
VERTEX
  8
0
  6
CONTINUOUS
 62
     7
 10
8.674064
 20
-30.683545
 42
-0.03994532
  0
VERTEX
  8
0
  6
CONTINUOUS
 62
     7
 10
6.1458435
 20
-45.922043
 42
0
  0
SEQEND
  8
0
  0
POLYLINE
  8
0
  6
CONTINUOUS
 62
     7
 66
     1
 10
0
 20
0
  0
VERTEX
  8
0
  6
CONTINUOUS
 62
     7
 10
6.1458435
 20
-45.922043
 42
-0.081978589
  0
VERTEX
  8
0
  6
CONTINUOUS
 62
     7
 10
8.6372877
 20
-52.108946
 42
-0.10912481
  0
VERTEX
  8
0
  6
CONTINUOUS
 62
     7
 10
8.6372759
 20
-58.756714
 42
-0.081977807
  0
VERTEX
  8
0
  6
CONTINUOUS
 62
     7
 10
6.1458435
 20
-64.943558
 42
0
  0
SEQEND
  8
0
  0
TEXT
  8
0
  6
CONTINUOUS
 62
     7
 10
-2.0130571
 20
70.614706
 40
3.2
 41
1.0715625
  1
4
  0
LINE
  8
0
  6
CONTINUOUS
 62
     7
 10
-6
 20
23.560998
 11
-4.3565336
 21
23.560998
  0
LINE
  8
0
  6
CONTINUOUS
 62
     7
 10
-6
 20
22.360998
 11
-4.3565335
 21
22.360998
  0
LINE
  8
0
  6
CONTINUOUS
 62
     7
 10
4.3565336
 20
22.360999
 11
6
 21
22.360999
  0
LINE
  8
0
  6
CONTINUOUS
 62
     7
 10
4.3565335
 20
23.560999
 11
6
 21
23.560999
  0
LINE
  8
0
  6
CONTINUOUS
 62
     7
 10
-3.1521723
 20
22.360998
 11
2.6226835E-008
 21
22.360999
  0
LINE
  8
0
  6
CONTINUOUS
 62
     7
 10
-3.1521724
 20
23.560998
 11
-2.6226835E-008
 21
23.560999
  0
ARC
  8
0
  6
CONTINUOUS
 62
     7
 10
-1.0490734E-007
 20
25.360999
 40
2.4000001
 50
36.008327
 51
143.99168
  0
ARC
  8
0
  6
CONTINUOUS
 62
     7
 10
-1.0490734E-007
 20
25.360999
 40
3.5999999
 50
36.008327
 51
143.99168
  0
ARC
  8
0
  6
CONTINUOUS
 62
     7
 10
1.0490734E-007
 20
20.560998
 40
2.4000001
 50
216.00833
 51
323.99168
  0
ARC
  8
0
  6
CONTINUOUS
 62
     7
 10
1.0490734E-007
 20
20.560998
 40
3.5999999
 50
216.00833
 51
323.99168
  0
ARC
  8
0
  6
CONTINUOUS
 62
     7
 10
3.3023076
 20
22.960999
 40
7.6823077
 50
143.99168
 51
175.52056
  0
ARC
  8
0
  6
CONTINUOUS
 62
     7
 10
3.3023076
 20
22.960999
 40
6.4823079
 50
143.99168
 51
174.68912
  0
ARC
  8
0
  6
CONTINUOUS
 62
     7
 10
-3.3023076
 20
22.960998
 40
6.4823079
 50
323.99167
 51
36.008327
  0
ARC
  8
0
  6
CONTINUOUS
 62
     7
 10
-3.3023076
 20
22.960998
 40
7.6823077
 50
323.99167
 51
355.52055
  0
ARC
  8
0
  6
CONTINUOUS
 62
     7
 10
-5.5500002
 20
22.960998
 40
0.75
 50
126.8699
 51
233.1301
  0
ARC
  8
0
  6
CONTINUOUS
 62
     7
 10
-0.44999999
 20
22.960999
 40
0.75
 50
306.86991
 51
53.130105
  0
ARC
  8
0
  6
CONTINUOUS
 62
     7
 10
5.5500002
 20
22.960999
 40
0.75
 50
306.86991
 51
53.130105
  0
ARC
  8
0
  6
CONTINUOUS
 62
     7
 10
3.3023076
 20
22.960999
 40
6.4823079
 50
185.31088
 51
216.00833
  0
ARC
  8
0
  6
CONTINUOUS
 62
     7
 10
3.3023076
 20
22.960999
 40
7.6823077
 50
184.47945
 51
216.00833
  0
ARC
  8
0
  6
CONTINUOUS
 62
     7
 10
-3.3023076
 20
22.960998
 40
7.6823077
 50
4.4794498
 51
36.008327
  0
ENDBLK
  8
0
  0
BLOCK
  8
0
  2
KOZU13
 70
    64
 10
0
 20
0
  0
POINT
  8
0
  6
CONTINUOUS
 62
     7
 10
0
 20
0
  0
LINE
  8
0
  6
CENTER
 62
     7
 10
-62.114635
 20
-3.0517578E-005
 11
57
 21
-3.0517578E-005
  0
LINE
  8
0
  6
CONTINUOUS
 62
     7
 10
-10
 20
72.499954
 11
-10
 21
-3.0517578E-005
  0
LINE
  8
0
  6
CONTINUOUS
 62
     7
 10
-48.933514
 20
66.938675
 11
-13.535095
 21
68.044876
  0
LINE
  8
0
  6
CONTINUOUS
 62
     7
 10
-47.502132
 20
68.462402
 11
-12.008391
 21
69.571579
  0
LINE
  8
0
  6
CONTINUOUS
 62
     7
 10
-6.551239
 20
0
 11
0
 21
0
  0
LINE
  8
0
  6
CONTINUOUS
 62
     7
 10
-6.551239
 20
55.489105
 11
0
 21
55.489105
  0
LINE
  8
0
  6
CONTINUOUS
 62
     7
 10
-6.5512395
 20
78.473404
 11
0
 21
78.473404
  0
LINE
  8
0
  6
CONTINUOUS
 62
     7
 10
-6.5512404
 20
78.473396
 11
-9.999999
 21
72.499969
  0
LINE
  8
0
  6
CONTINUOUS
 62
     7
 10
-52.600006
 20
63.035645
 11
-52.600006
 21
-3.0517578E-005
  0
LINE
  8
0
  6
CONTINUOUS
 62
     7
 10
-47.502132
 20
68.462402
 11
-52.600006
 21
63.035645
  0
LINE
  8
0
  6
CONTINUOUS
 62
     7
 10
-47.502167
 20
68.462372
 11
-47.502167
 21
-3.0517578E-005
  0
LINE
  8
0
  6
CONTINUOUS
 62
     7
 10
-48.933514
 20
66.938675
 11
-48.933514
 21
-3.0517578E-005
  0
LINE
  8
0
  6
CONTINUOUS
 62
     7
 10
-13.535094
 20
68.044876
 11
-10
 21
71.579971
  0
LINE
  8
0
  6
CONTINUOUS
 62
     7
 10
-13.535094
 20
69.523865
 11
-13.535094
 21
-3.0517578E-005
  0
LINE
  8
0
  6
CONTINUOUS
 62
     7
 10
-10
 20
-72.500015
 11
-10
 21
-3.0517578E-005
  0
LINE
  8
0
  6
CONTINUOUS
 62
     7
 10
-48.933514
 20
-66.938736
 11
-13.535095
 21
-68.044937
  0
LINE
  8
0
  6
CONTINUOUS
 62
     7
 10
-47.502132
 20
-68.462463
 11
-12.008391
 21
-69.57164
  0
LINE
  8
0
  6
CONTINUOUS
 62
     7
 10
-6.551239
 20
-55.489166
 11
0
 21
-55.489166
  0
LINE
  8
0
  6
CONTINUOUS
 62
     7
 10
-6.5512395
 20
-78.473465
 11
0
 21
-78.473465
  0
LINE
  8
0
  6
CONTINUOUS
 62
     7
 10
-6.55124
 20
-78.473465
 11
-9.999999
 21
-72.500031
  0
LINE
  8
0
  6
CONTINUOUS
 62
     7
 10
-52.600006
 20
-63.035706
 11
-52.600006
 21
-3.0517578E-005
  0
LINE
  8
0
  6
CONTINUOUS
 62
     7
 10
-47.502136
 20
-68.462463
 11
-52.60001
 21
-63.035709
  0
LINE
  8
0
  6
CONTINUOUS
 62
     7
 10
-47.502167
 20
-68.462433
 11
-47.502167
 21
-3.0517578E-005
  0
LINE
  8
0
  6
CONTINUOUS
 62
     7
 10
-48.933514
 20
-66.938736
 11
-48.933514
 21
-3.0517578E-005
  0
LINE
  8
0
  6
CONTINUOUS
 62
     7
 10
-13.535094
 20
-69.523926
 11
-13.535094
 21
-3.0517578E-005
  0
LINE
  8
0
  6
CONTINUOUS
 62
     7
 10
-13.535094
 20
-68.044937
 11
-10
 21
-71.580025
  0
LINE
  8
0
  6
CONTINUOUS
 62
     7
 10
10
 20
72.499954
 11
10
 21
-3.0517578E-005
  0
LINE
  8
0
  6
CONTINUOUS
 62
     7
 10
48.933514
 20
66.938675
 11
13.535095
 21
68.044876
  0
LINE
  8
0
  6
CONTINUOUS
 62
     7
 10
47.502132
 20
68.462402
 11
12.008391
 21
69.571579
  0
LINE
  8
0
  6
CONTINUOUS
 62
     7
 10
6.551239
 20
0
 11
0
 21
0
  0
LINE
  8
0
  6
CONTINUOUS
 62
     7
 10
6.551239
 20
55.489105
 11
0
 21
55.489105
  0
LINE
  8
0
  6
CONTINUOUS
 62
     7
 10
6.5512395
 20
78.473404
 11
0
 21
78.473404
  0
LINE
  8
0
  6
CONTINUOUS
 62
     7
 10
6.5512404
 20
78.473396
 11
9.999999
 21
72.499969
  0
LINE
  8
0
  6
CONTINUOUS
 62
     7
 10
52.600006
 20
63.035645
 11
52.600006
 21
-3.0517578E-005
  0
LINE
  8
0
  6
CONTINUOUS
 62
     7
 10
47.502132
 20
68.462402
 11
52.600006
 21
63.035645
  0
LINE
  8
0
  6
CONTINUOUS
 62
     7
 10
47.502167
 20
68.462372
 11
47.502167
 21
-3.0517578E-005
  0
LINE
  8
0
  6
CONTINUOUS
 62
     7
 10
13.535094
 20
-68.044937
 11
10
 21
-71.580025
  0
LINE
  8
0
  6
CONTINUOUS
 62
     7
 10
6.55124
 20
-78.473465
 11
9.999999
 21
-72.500031
  0
LINE
  8
0
  6
CONTINUOUS
 62
     7
 10
13.535094
 20
-69.523926
 11
13.535094
 21
-3.0517578E-005
  0
LINE
  8
0
  6
CONTINUOUS
 62
     7
 10
48.933514
 20
-66.938736
 11
48.933514
 21
-3.0517578E-005
  0
LINE
  8
0
  6
CONTINUOUS
 62
     7
 10
47.502167
 20
-68.462433
 11
47.502167
 21
-3.0517578E-005
  0
LINE
  8
0
  6
CONTINUOUS
 62
     7
 10
47.502136
 20
-68.462463
 11
52.60001
 21
-63.035709
  0
LINE
  8
0
  6
CONTINUOUS
 62
     7
 10
52.600006
 20
-63.035706
 11
52.600006
 21
-3.0517578E-005
  0
LINE
  8
0
  6
CONTINUOUS
 62
     7
 10
6.5512395
 20
-78.473465
 11
0
 21
-78.473465
  0
LINE
  8
0
  6
CONTINUOUS
 62
     7
 10
6.551239
 20
-55.489166
 11
0
 21
-55.489166
  0
LINE
  8
0
  6
CONTINUOUS
 62
     7
 10
47.502132
 20
-68.462463
 11
12.008391
 21
-69.57164
  0
LINE
  8
0
  6
CONTINUOUS
 62
     7
 10
48.933514
 20
-66.938736
 11
13.535095
 21
-68.044937
  0
LINE
  8
0
  6
CONTINUOUS
 62
     7
 10
10
 20
-72.500015
 11
10
 21
-3.0517578E-005
  0
LINE
  8
0
  6
CONTINUOUS
 62
     7
 10
48.933514
 20
66.938675
 11
48.933514
 21
-3.0517578E-005
  0
LINE
  8
0
  6
CONTINUOUS
 62
     7
 10
13.535094
 20
69.523865
 11
13.535094
 21
-3.0517578E-005
  0
LINE
  8
0
  6
CONTINUOUS
 62
     7
 10
13.535094
 20
68.044876
 11
10
 21
71.579971
  0
POLYLINE
  8
0
  6
CONTINUOUS
 62
     7
 66
     1
 10
0
 20
0
  0
VERTEX
  8
0
  6
CONTINUOUS
 62
     7
 10
-6.551239
 20
0
 42
-0.039945182
  0
VERTEX
  8
0
  6
CONTINUOUS
 62
     7
 10
-9.6061622
 20
18.413202
 42
-0.042205851
  0
VERTEX
  8
0
  6
CONTINUOUS
 62
     7
 10
-9.6061629
 20
37.075896
 42
-0.039945199
  0
VERTEX
  8
0
  6
CONTINUOUS
 62
     7
 10
-6.551239
 20
55.489105
 42
0
  0
SEQEND
  8
0
  0
POLYLINE
  8
0
  6
CONTINUOUS
 62
     7
 66
     1
 10
0
 20
0
  0
VERTEX
  8
0
  6
CONTINUOUS
 62
     7
 10
-6.551239
 20
55.489105
 42
-0.081978538
  0
VERTEX
  8
0
  6
CONTINUOUS
 62
     7
 10
-9.5617249
 20
62.964936
 42
-0.10912422
  0
VERTEX
  8
0
  6
CONTINUOUS
 62
     7
 10
-9.5617149
 20
70.997618
 42
-0.08197798
  0
VERTEX
  8
0
  6
CONTINUOUS
 62
     7
 10
-6.551239
 20
78.473404
 42
0
  0
SEQEND
  8
0
  0
POLYLINE
  8
0
  6
CONTINUOUS
 62
     7
 66
     1
 10
0
 20
0
  0
VERTEX
  8
0
  6
CONTINUOUS
 62
     7
 10
-6.551239
 20
-6.1035156E-005
 42
0.039945182
  0
VERTEX
  8
0
  6
CONTINUOUS
 62
     7
 10
-9.6061622
 20
-18.413263
 42
0.042205851
  0
VERTEX
  8
0
  6
CONTINUOUS
 62
     7
 10
-9.6061629
 20
-37.075957
 42
0.039945199
  0
VERTEX
  8
0
  6
CONTINUOUS
 62
     7
 10
-6.551239
 20
-55.489166
 42
0
  0
SEQEND
  8
0
  0
POLYLINE
  8
0
  6
CONTINUOUS
 62
     7
 66
     1
 10
0
 20
0
  0
VERTEX
  8
0
  6
CONTINUOUS
 62
     7
 10
-6.551239
 20
-55.489166
 42
0.081978538
  0
VERTEX
  8
0
  6
CONTINUOUS
 62
     7
 10
-9.5617249
 20
-62.964997
 42
0.10912422
  0
VERTEX
  8
0
  6
CONTINUOUS
 62
     7
 10
-9.5617149
 20
-70.997679
 42
0.08197798
  0
VERTEX
  8
0
  6
CONTINUOUS
 62
     7
 10
-6.551239
 20
-78.473465
 42
0
  0
SEQEND
  8
0
  0
POLYLINE
  8
0
  6
CONTINUOUS
 62
     7
 66
     1
 10
0
 20
0
  0
VERTEX
  8
0
  6
CONTINUOUS
 62
     7
 10
6.551239
 20
0
 42
0.039945182
  0
VERTEX
  8
0
  6
CONTINUOUS
 62
     7
 10
9.6061622
 20
18.413202
 42
0.042205851
  0
VERTEX
  8
0
  6
CONTINUOUS
 62
     7
 10
9.6061629
 20
37.075896
 42
0.039945199
  0
VERTEX
  8
0
  6
CONTINUOUS
 62
     7
 10
6.551239
 20
55.489105
 42
0
  0
SEQEND
  8
0
  0
POLYLINE
  8
0
  6
CONTINUOUS
 62
     7
 66
     1
 10
0
 20
0
  0
VERTEX
  8
0
  6
CONTINUOUS
 62
     7
 10
6.551239
 20
55.489105
 42
0.081978538
  0
VERTEX
  8
0
  6
CONTINUOUS
 62
     7
 10
9.5617249
 20
62.964936
 42
0.10912422
  0
VERTEX
  8
0
  6
CONTINUOUS
 62
     7
 10
9.5617149
 20
70.997618
 42
0.08197798
  0
VERTEX
  8
0
  6
CONTINUOUS
 62
     7
 10
6.551239
 20
78.473404
 42
0
  0
SEQEND
  8
0
  0
POLYLINE
  8
0
  6
CONTINUOUS
 62
     7
 66
     1
 10
0
 20
0
  0
VERTEX
  8
0
  6
CONTINUOUS
 62
     7
 10
6.551239
 20
-6.1035156E-005
 42
-0.039945182
  0
VERTEX
  8
0
  6
CONTINUOUS
 62
     7
 10
9.6061622
 20
-18.413263
 42
-0.042205851
  0
VERTEX
  8
0
  6
CONTINUOUS
 62
     7
 10
9.6061629
 20
-37.075957
 42
-0.039945199
  0
VERTEX
  8
0
  6
CONTINUOUS
 62
     7
 10
6.551239
 20
-55.489166
 42
0
  0
SEQEND
  8
0
  0
POLYLINE
  8
0
  6
CONTINUOUS
 62
     7
 66
     1
 10
0
 20
0
  0
VERTEX
  8
0
  6
CONTINUOUS
 62
     7
 10
6.551239
 20
-55.489166
 42
-0.081978538
  0
VERTEX
  8
0
  6
CONTINUOUS
 62
     7
 10
9.5617249
 20
-62.964997
 42
-0.10912422
  0
VERTEX
  8
0
  6
CONTINUOUS
 62
     7
 10
9.5617149
 20
-70.997679
 42
-0.08197798
  0
VERTEX
  8
0
  6
CONTINUOUS
 62
     7
 10
6.551239
 20
-78.473465
 42
0
  0
SEQEND
  8
0
  0
TEXT
  8
0
  6
CONTINUOUS
 62
     7
 10
-2.0482456
 20
84.758292
 40
3.2
 41
1.0715625
  1
5
  0
LINE
  8
0
  6
CONTINUOUS
 62
     7
 10
-9
 20
28.644552
 11
-6.5348001
 21
28.644552
  0
LINE
  8
0
  6
CONTINUOUS
 62
     7
 10
-9
 20
26.844552
 11
-6.5348
 21
26.844552
  0
LINE
  8
0
  6
CONTINUOUS
 62
     7
 10
6.5348001
 20
26.844553
 11
9
 21
26.844553
  0
LINE
  8
0
  6
CONTINUOUS
 62
     7
 10
6.5348
 20
28.644553
 11
9
 21
28.644553
  0
LINE
  8
0
  6
CONTINUOUS
 62
     7
 10
-4.7282581
 20
26.844552
 11
3.934025E-008
 21
26.844553
  0
LINE
  8
0
  6
CONTINUOUS
 62
     7
 10
-4.7282582
 20
28.644552
 11
-3.934025E-008
 21
28.644553
  0
ARC
  8
0
  6
CONTINUOUS
 62
     7
 10
-1.57361E-007
 20
31.344553
 40
3.5999999
 50
36.008327
 51
143.99168
  0
ARC
  8
0
  6
CONTINUOUS
 62
     7
 10
-1.57361E-007
 20
31.344553
 40
5.4000001
 50
36.008327
 51
143.99168
  0
ARC
  8
0
  6
CONTINUOUS
 62
     7
 10
1.57361E-007
 20
24.144553
 40
3.5999999
 50
216.00833
 51
323.99168
  0
ARC
  8
0
  6
CONTINUOUS
 62
     7
 10
1.57361E-007
 20
24.144553
 40
5.4000001
 50
216.00833
 51
323.99168
  0
ARC
  8
0
  6
CONTINUOUS
 62
     7
 10
4.9534616
 20
27.744553
 40
11.523461
 50
143.99168
 51
175.52056
  0
ARC
  8
0
  6
CONTINUOUS
 62
     7
 10
4.9534616
 20
27.744553
 40
9.7234612
 50
143.99168
 51
174.68912
  0
ARC
  8
0
  6
CONTINUOUS
 62
     7
 10
-4.9534616
 20
27.744552
 40
9.7234612
 50
323.99167
 51
36.008327
  0
ARC
  8
0
  6
CONTINUOUS
 62
     7
 10
-4.9534616
 20
27.744552
 40
11.523461
 50
323.99167
 51
355.52055
  0
ARC
  8
0
  6
CONTINUOUS
 62
     7
 10
-8.3249998
 20
27.744552
 40
1.125
 50
126.8699
 51
233.1301
  0
ARC
  8
0
  6
CONTINUOUS
 62
     7
 10
-0.67500001
 20
27.744553
 40
1.125
 50
306.86991
 51
53.130105
  0
ARC
  8
0
  6
CONTINUOUS
 62
     7
 10
8.3249998
 20
27.744553
 40
1.125
 50
306.86991
 51
53.130105
  0
ARC
  8
0
  6
CONTINUOUS
 62
     7
 10
4.9534616
 20
27.744553
 40
11.523461
 50
184.47945
 51
216.00833
  0
ARC
  8
0
  6
CONTINUOUS
 62
     7
 10
4.9534616
 20
27.744553
 40
9.7234612
 50
185.31088
 51
216.00833
  0
ARC
  8
0
  6
CONTINUOUS
 62
     7
 10
-4.9534616
 20
27.744552
 40
11.523461
 50
4.4794498
 51
36.008327
  0
ENDBLK
  8
0
  0
BLOCK
  8
0
  2
KOZU14
 70
    64
 10
0
 20
0
  0
POINT
  8
0
  6
CONTINUOUS
 62
     7
 10
0
 20
0
  0
LINE
  8
0
  6
CENTER
 62
     7
 10
-63
 20
4.5776367E-005
 11
63
 21
4.5776367E-005
  0
LINE
  8
0
  6
CONTINUOUS
 62
     7
 10
-12
 20
85.000031
 11
-12
 21
4.5776367E-005
  0
LINE
  8
0
  6
CONTINUOUS
 62
     7
 10
-54.433773
 20
79.654381
 11
-15.11738
 21
80.883018
  0
LINE
  8
0
  6
CONTINUOUS
 62
     7
 10
-53.002415
 20
81.178093
 11
-13.590693
 21
82.409706
  0
LINE
  8
0
  6
CONTINUOUS
 62
     7
 10
-7.956604
 20
92.003403
 11
7.956604
 21
92.003403
  0
LINE
  8
0
  6
CONTINUOUS
 62
     7
 10
-7.956604
 20
65.056183
 11
7.956604
 21
65.056183
  0
LINE
  8
0
  6
CONTINUOUS
 62
     7
 10
-7.956604
 20
0
 11
7.956604
 21
0
  0
LINE
  8
0
  6
CONTINUOUS
 62
     7
 10
-7.9567533
 20
92.003487
 11
-12.000139
 21
85.000137
  0
LINE
  8
0
  6
CONTINUOUS
 62
     7
 10
-53.002411
 20
81.178085
 11
-58.600002
 21
75.219353
  0
LINE
  8
0
  6
CONTINUOUS
 62
     7
 10
-53.002441
 20
81.178085
 11
-53.002441
 21
4.5776367E-005
  0
LINE
  8
0
  6
CONTINUOUS
 62
     7
 10
-58.600006
 20
4.5776367E-005
 11
-58.600006
 21
75.219353
  0
LINE
  8
0
  6
CONTINUOUS
 62
     7
 10
-15.11738
 20
80.883018
 11
-11.999999
 21
84.000397
  0
LINE
  8
0
  6
CONTINUOUS
 62
     7
 10
-15.11738
 20
82.361992
 11
-15.11738
 21
4.5776367E-005
  0
LINE
  8
0
  6
CONTINUOUS
 62
     7
 10
-54.433773
 20
79.654381
 11
-54.433773
 21
4.5776367E-005
  0
LINE
  8
0
  6
CONTINUOUS
 62
     7
 10
-12
 20
-84.999939
 11
-12
 21
4.5776367E-005
  0
LINE
  8
0
  6
CONTINUOUS
 62
     7
 10
-54.433773
 20
-79.654289
 11
-15.11738
 21
-80.882927
  0
LINE
  8
0
  6
CONTINUOUS
 62
     7
 10
-53.002415
 20
-81.178001
 11
-13.590693
 21
-82.409615
  0
LINE
  8
0
  6
CONTINUOUS
 62
     7
 10
-7.956604
 20
-92.003311
 11
7.956604
 21
-92.003311
  0
LINE
  8
0
  6
CONTINUOUS
 62
     7
 10
-7.956604
 20
-65.056091
 11
7.956604
 21
-65.056091
  0
LINE
  8
0
  6
CONTINUOUS
 62
     7
 10
-7.956604
 20
9.1552734E-005
 11
7.956604
 21
9.1552734E-005
  0
LINE
  8
0
  6
CONTINUOUS
 62
     7
 10
-7.9567518
 20
-92.003403
 11
-12.000137
 21
-85.000046
  0
LINE
  8
0
  6
CONTINUOUS
 62
     7
 10
-53.002411
 20
-81.177994
 11
-58.600006
 21
-75.219261
  0
LINE
  8
0
  6
CONTINUOUS
 62
     7
 10
-53.002441
 20
-81.177994
 11
-53.002441
 21
4.5776367E-005
  0
LINE
  8
0
  6
CONTINUOUS
 62
     7
 10
-58.600006
 20
4.5776367E-005
 11
-58.600006
 21
-75.219261
  0
LINE
  8
0
  6
CONTINUOUS
 62
     7
 10
-54.433773
 20
-79.654289
 11
-54.433773
 21
4.5776367E-005
  0
LINE
  8
0
  6
CONTINUOUS
 62
     7
 10
-15.11738
 20
-82.3619
 11
-15.11738
 21
4.5776367E-005
  0
LINE
  8
0
  6
CONTINUOUS
 62
     7
 10
-15.117383
 20
-80.882927
 11
-12.000002
 21
-84.000305
  0
LINE
  8
0
  6
CONTINUOUS
 62
     7
 10
12
 20
85.000031
 11
12
 21
4.5776367E-005
  0
LINE
  8
0
  6
CONTINUOUS
 62
     7
 10
54.433773
 20
79.654381
 11
15.11738
 21
80.883018
  0
LINE
  8
0
  6
CONTINUOUS
 62
     7
 10
53.002415
 20
81.178093
 11
13.590693
 21
82.409706
  0
LINE
  8
0
  6
CONTINUOUS
 62
     7
 10
7.956604
 20
0
 11
-7.956604
 21
0
  0
LINE
  8
0
  6
CONTINUOUS
 62
     7
 10
7.9567533
 20
92.003487
 11
12.000139
 21
85.000137
  0
LINE
  8
0
  6
CONTINUOUS
 62
     7
 10
53.002411
 20
81.178085
 11
58.600002
 21
75.219353
  0
LINE
  8
0
  6
CONTINUOUS
 62
     7
 10
53.002441
 20
81.178085
 11
53.002441
 21
4.5776367E-005
  0
LINE
  8
0
  6
CONTINUOUS
 62
     7
 10
58.600006
 20
4.5776367E-005
 11
58.600006
 21
75.219353
  0
LINE
  8
0
  6
CONTINUOUS
 62
     7
 10
15.117383
 20
-80.882927
 11
12.000002
 21
-84.000305
  0
LINE
  8
0
  6
CONTINUOUS
 62
     7
 10
15.11738
 20
-82.3619
 11
15.11738
 21
4.5776367E-005
  0
LINE
  8
0
  6
CONTINUOUS
 62
     7
 10
54.433773
 20
-79.654289
 11
54.433773
 21
4.5776367E-005
  0
LINE
  8
0
  6
CONTINUOUS
 62
     7
 10
58.600006
 20
4.5776367E-005
 11
58.600006
 21
-75.219261
  0
LINE
  8
0
  6
CONTINUOUS
 62
     7
 10
53.002441
 20
-81.177994
 11
53.002441
 21
4.5776367E-005
  0
LINE
  8
0
  6
CONTINUOUS
 62
     7
 10
53.002411
 20
-81.177994
 11
58.600006
 21
-75.219261
  0
LINE
  8
0
  6
CONTINUOUS
 62
     7
 10
7.9567518
 20
-92.003403
 11
12.000137
 21
-85.000046
  0
LINE
  8
0
  6
CONTINUOUS
 62
     7
 10
54.433773
 20
79.654381
 11
54.433773
 21
4.5776367E-005
  0
LINE
  8
0
  6
CONTINUOUS
 62
     7
 10
54.433773
 20
-79.654289
 11
15.11738
 21
-80.882927
  0
LINE
  8
0
  6
CONTINUOUS
 62
     7
 10
12
 20
-84.999939
 11
12
 21
4.5776367E-005
  0
LINE
  8
0
  6
CONTINUOUS
 62
     7
 10
15.11738
 20
82.361992
 11
15.11738
 21
4.5776367E-005
  0
LINE
  8
0
  6
CONTINUOUS
 62
     7
 10
15.11738
 20
80.883018
 11
11.999999
 21
84.000397
  0
LINE
  8
0
  6
CONTINUOUS
 62
     7
 10
53.002415
 20
-81.178001
 11
13.590693
 21
-82.409615
  0
POLYLINE
  8
0
  6
CONTINUOUS
 62
     7
 66
     1
 10
0
 20
0
  0
VERTEX
  8
0
  6
CONTINUOUS
 62
     7
 10
-7.956604
 20
0
 42
-0.039945081
  0
VERTEX
  8
0
  6
CONTINUOUS
 62
     7
 10
-11.538254
 20
21.587888
 42
-0.042206284
  0
VERTEX
  8
0
  6
CONTINUOUS
 62
     7
 10
-11.538255
 20
43.468286
 42
-0.039945098
  0
VERTEX
  8
0
  6
CONTINUOUS
 62
     7
 10
-7.956604
 20
65.056183
 42
0
  0
SEQEND
  8
0
  0
POLYLINE
  8
0
  6
CONTINUOUS
 62
     7
 66
     1
 10
0
 20
0
  0
VERTEX
  8
0
  6
CONTINUOUS
 62
     7
 10
-7.956604
 20
65.056183
 42
-0.081978026
  0
VERTEX
  8
0
  6
CONTINUOUS
 62
     7
 10
-11.486154
 20
73.820987
 42
-0.10912497
  0
VERTEX
  8
0
  6
CONTINUOUS
 62
     7
 10
-11.486142
 20
83.238668
 42
-0.081977381
  0
VERTEX
  8
0
  6
CONTINUOUS
 62
     7
 10
-7.956604
 20
92.003403
 42
0
  0
SEQEND
  8
0
  0
POLYLINE
  8
0
  6
CONTINUOUS
 62
     7
 66
     1
 10
0
 20
0
  0
VERTEX
  8
0
  6
CONTINUOUS
 62
     7
 10
-7.956604
 20
9.1552734E-005
 42
0.039945081
  0
VERTEX
  8
0
  6
CONTINUOUS
 62
     7
 10
-11.538254
 20
-21.587796
 42
0.042206284
  0
VERTEX
  8
0
  6
CONTINUOUS
 62
     7
 10
-11.538255
 20
-43.468194
 42
0.039945098
  0
VERTEX
  8
0
  6
CONTINUOUS
 62
     7
 10
-7.956604
 20
-65.056091
 42
0
  0
SEQEND
  8
0
  0
POLYLINE
  8
0
  6
CONTINUOUS
 62
     7
 66
     1
 10
0
 20
0
  0
VERTEX
  8
0
  6
CONTINUOUS
 62
     7
 10
-7.956604
 20
-65.056091
 42
0.081978026
  0
VERTEX
  8
0
  6
CONTINUOUS
 62
     7
 10
-11.486154
 20
-73.820896
 42
0.10912497
  0
VERTEX
  8
0
  6
CONTINUOUS
 62
     7
 10
-11.486142
 20
-83.238577
 42
0.081977381
  0
VERTEX
  8
0
  6
CONTINUOUS
 62
     7
 10
-7.956604
 20
-92.003311
 42
0
  0
SEQEND
  8
0
  0
POLYLINE
  8
0
  6
CONTINUOUS
 62
     7
 66
     1
 10
0
 20
0
  0
VERTEX
  8
0
  6
CONTINUOUS
 62
     7
 10
7.956604
 20
0
 42
0.039945081
  0
VERTEX
  8
0
  6
CONTINUOUS
 62
     7
 10
11.538254
 20
21.587888
 42
0.042206284
  0
VERTEX
  8
0
  6
CONTINUOUS
 62
     7
 10
11.538255
 20
43.468286
 42
0.039945098
  0
VERTEX
  8
0
  6
CONTINUOUS
 62
     7
 10
7.956604
 20
65.056183
 42
0
  0
SEQEND
  8
0
  0
POLYLINE
  8
0
  6
CONTINUOUS
 62
     7
 66
     1
 10
0
 20
0
  0
VERTEX
  8
0
  6
CONTINUOUS
 62
     7
 10
7.956604
 20
65.056183
 42
0.081978026
  0
VERTEX
  8
0
  6
CONTINUOUS
 62
     7
 10
11.486154
 20
73.820987
 42
0.10912497
  0
VERTEX
  8
0
  6
CONTINUOUS
 62
     7
 10
11.486142
 20
83.238668
 42
0.081977381
  0
VERTEX
  8
0
  6
CONTINUOUS
 62
     7
 10
7.956604
 20
92.003403
 42
0
  0
SEQEND
  8
0
  0
POLYLINE
  8
0
  6
CONTINUOUS
 62
     7
 66
     1
 10
0
 20
0
  0
VERTEX
  8
0
  6
CONTINUOUS
 62
     7
 10
7.956604
 20
-65.056091
 42
-0.081978026
  0
VERTEX
  8
0
  6
CONTINUOUS
 62
     7
 10
11.486154
 20
-73.820896
 42
-0.10912497
  0
VERTEX
  8
0
  6
CONTINUOUS
 62
     7
 10
11.486142
 20
-83.238577
 42
-0.081977381
  0
VERTEX
  8
0
  6
CONTINUOUS
 62
     7
 10
7.956604
 20
-92.003311
 42
0
  0
SEQEND
  8
0
  0
POLYLINE
  8
0
  6
CONTINUOUS
 62
     7
 66
     1
 10
0
 20
0
  0
VERTEX
  8
0
  6
CONTINUOUS
 62
     7
 10
7.956604
 20
9.1552734E-005
 42
-0.039945081
  0
VERTEX
  8
0
  6
CONTINUOUS
 62
     7
 10
11.538254
 20
-21.587796
 42
-0.042206284
  0
VERTEX
  8
0
  6
CONTINUOUS
 62
     7
 10
11.538255
 20
-43.468194
 42
-0.039945098
  0
VERTEX
  8
0
  6
CONTINUOUS
 62
     7
 10
7.956604
 20
-65.056091
 42
0
  0
SEQEND
  8
0
  0
TEXT
  8
0
  6
CONTINUOUS
 62
     7
 10
-0.61475056
 20
98.59136
 40
3.2
 41
1.0715625
  1
6
  0
LINE
  8
0
  6
CONTINUOUS
 62
     7
 10
-9
 20
33.428091
 11
-6.5348001
 21
33.428091
  0
LINE
  8
0
  6
CONTINUOUS
 62
     7
 10
-9
 20
31.628091
 11
-6.5348
 21
31.628091
  0
LINE
  8
0
  6
CONTINUOUS
 62
     7
 10
6.5348001
 20
31.628092
 11
9
 21
31.628092
  0
LINE
  8
0
  6
CONTINUOUS
 62
     7
 10
6.5348
 20
33.428092
 11
9
 21
33.428092
  0
LINE
  8
0
  6
CONTINUOUS
 62
     7
 10
-4.7282581
 20
31.628091
 11
3.934025E-008
 21
31.628091
  0
LINE
  8
0
  6
CONTINUOUS
 62
     7
 10
-4.7282582
 20
33.428091
 11
-3.934025E-008
 21
33.428091
  0
ARC
  8
0
  6
CONTINUOUS
 62
     7
 10
-1.57361E-007
 20
36.128091
 40
3.5999999
 50
36.008327
 51
143.99168
  0
ARC
  8
0
  6
CONTINUOUS
 62
     7
 10
-1.57361E-007
 20
36.128091
 40
5.4000001
 50
36.008327
 51
143.99168
  0
ARC
  8
0
  6
CONTINUOUS
 62
     7
 10
1.57361E-007
 20
28.928092
 40
3.5999999
 50
216.00833
 51
323.99168
  0
ARC
  8
0
  6
CONTINUOUS
 62
     7
 10
1.57361E-007
 20
28.928092
 40
5.4000001
 50
216.00833
 51
323.99168
  0
ARC
  8
0
  6
CONTINUOUS
 62
     7
 10
4.9534616
 20
32.528092
 40
11.523461
 50
143.99168
 51
175.52056
  0
ARC
  8
0
  6
CONTINUOUS
 62
     7
 10
4.9534616
 20
32.528092
 40
9.7234612
 50
143.99168
 51
174.68912
  0
ARC
  8
0
  6
CONTINUOUS
 62
     7
 10
-4.9534616
 20
32.528091
 40
9.7234612
 50
323.99167
 51
36.008327
  0
ARC
  8
0
  6
CONTINUOUS
 62
     7
 10
-4.9534616
 20
32.528091
 40
11.523461
 50
323.99167
 51
355.52055
  0
ARC
  8
0
  6
CONTINUOUS
 62
     7
 10
-8.3249998
 20
32.528091
 40
1.125
 50
126.8699
 51
233.1301
  0
ARC
  8
0
  6
CONTINUOUS
 62
     7
 10
-0.67500001
 20
32.528091
 40
1.125
 50
306.86991
 51
53.130105
  0
ARC
  8
0
  6
CONTINUOUS
 62
     7
 10
8.3249998
 20
32.528092
 40
1.125
 50
306.86991
 51
53.130105
  0
ARC
  8
0
  6
CONTINUOUS
 62
     7
 10
4.9534616
 20
32.528092
 40
11.523461
 50
184.47945
 51
216.00833
  0
ARC
  8
0
  6
CONTINUOUS
 62
     7
 10
4.9534616
 20
32.528092
 40
9.7234612
 50
185.31088
 51
216.00833
  0
ARC
  8
0
  6
CONTINUOUS
 62
     7
 10
-4.9534616
 20
32.528091
 40
11.523461
 50
4.4794498
 51
36.008327
  0
ENDBLK
  8
0
  0
ENDSEC
  0
SECTION
  2
ENTITIES
  0
POINT
  8
0
  6
CONTINUOUS
 62
     7
 10
-30
 20
10
  0
POINT
  8
0
  6
CONTINUOUS
 62
     7
 10
-297
 20
-210
  0
POINT
  8
0
  6
CONTINUOUS
 62
     7
 10
297
 20
-210
  0
POINT
  8
0
  6
CONTINUOUS
 62
     7
 10
-297
 20
210
  0
POINT
  8
0
  6
CONTINUOUS
 62
     7
 10
297
 20
210
  0
POINT
  8
0
  6
CONTINUOUS
 62
     7
 10
-255
 20
150
  0
POINT
  8
0
  6
CONTINUOUS
 62
     7
 10
-200
 20
150
  0
POINT
  8
0
  6
CONTINUOUS
 62
     7
 10
-140
 20
150
  0
POINT
  8
0
  6
CONTINUOUS
 62
     7
 10
-75
 20
150
  0
POINT
  8
0
  6
CONTINUOUS
 62
     7
 10
-5
 20
150
  0
POINT
  8
0
  6
CONTINUOUS
 62
     7
 10
70
 20
150
  0
POINT
  8
0
  6
CONTINUOUS
 62
     7
 10
160
 20
150
  0
POINT
  8
0
  6
CONTINUOUS
 62
     7
 10
245
 20
150
  0
POINT
  8
0
  6
CONTINUOUS
 62
     7
 10
212.5
 20
35
  0
POINT
  8
0
  6
CONTINUOUS
 62
     7
 10
212.5
 20
35
  0
POINT
  8
0
  6
CONTINUOUS
 62
     7
 10
70
 20
35
  0
POINT
  8
0
  6
CONTINUOUS
 62
     7
 10
-55
 20
35
  0
POINT
  8
0
  6
CONTINUOUS
 62
     7
 10
-190
 20
35
  0
POINT
  8
0
  6
CONTINUOUS
 62
     7
 10
-165
 20
-105
  0
POINT
  8
0
  6
CONTINUOUS
 62
     7
 10
0
 20
-105
  0
LINE
  8
0
  6
CONTINUOUS
 62
     7
 10
287
 20
200
 11
287
 21
-200
  0
LINE
  8
0
  6
CONTINUOUS
 62
     7
 10
-287
 20
200
 11
287
 21
200
  0
LINE
  8
0
  6
CONTINUOUS
 62
     7
 10
-287
 20
200
 11
-287
 21
-200
  0
LINE
  8
0
  6
CONTINUOUS
 62
     7
 10
-287
 20
-200
 11
287
 21
-200
  0
TEXT
  8
0
  6
CONTINUOUS
 62
     7
 10
-47.8575
 20
181
 40
8
 41
0.85127006
  1
ニップル
  0
INSERT
  8
0
  6
CONTINUOUS
 62
     7
  2
KOZU1
 10
-255
 20
150
  0
INSERT
  8
0
  6
CONTINUOUS
 62
     7
  2
KOZU2
 10
-200
 20
150
  0
INSERT
  8
0
  6
CONTINUOUS
 62
     7
  2
KOZU3
 10
-140
 20
150
  0
INSERT
  8
0
  6
CONTINUOUS
 62
     7
  2
KOZU4
 10
-75
 20
150
  0
INSERT
  8
0
  6
CONTINUOUS
 62
     7
  2
KOZU5
 10
-5
 20
150
  0
INSERT
  8
0
  6
CONTINUOUS
 62
     7
  2
KOZU6
 10
70
 20
150
  0
INSERT
  8
0
  6
CONTINUOUS
 62
     7
  2
KOZU7
 10
160
 20
150
  0
INSERT
  8
0
  6
CONTINUOUS
 62
     7
  2
KOZU8
 10
245
 20
150
  0
INSERT
  8
0
  6
CONTINUOUS
 62
     7
  2
KOZU9
 10
-190
 20
35
  0
INSERT
  8
0
  6
CONTINUOUS
 62
     7
  2
KOZU10
 10
-55
 20
35
  0
INSERT
  8
0
  6
CONTINUOUS
 62
     7
  2
KOZU11
 10
70
 20
35
  0
INSERT
  8
0
  6
CONTINUOUS
 62
     7
  2
KOZU12
 10
212.5
 20
35
  0
INSERT
  8
0
  6
CONTINUOUS
 62
     7
  2
KOZU13
 10
-165
 20
-105
  0
INSERT
  8
0
  6
CONTINUOUS
 62
     7
  2
KOZU14
 10
0
 20
-105
  0
ENDSEC
  0
EOF
