  0
SECTION
  2
HEADER
  9
$EXTMAX
 10
297.25922
 20
211.66544
  9
$EXTMIN
 10
-297.25922
 20
-210.82214
  0
ENDSEC
  0
SECTION
  2
TABLES
  0
TABLE
  2
LTYPE
 70
    22
  0
LTYPE
  2
CONTINUOUS
 70
    64
  3
Solid line
 72
    65
 73
     0
 40
0.000000
  0
LTYPE
  2
DASHED
 70
    64
  3
__ __ __ __ __ __ __ __ __ __ __ __ __ __ __
 72
    65
 73
     2
 40
3.500000
 49
2.000000
 49
-1.500000
  0
LTYPE
  2
CENTER
 70
    64
  3
____ _ ____ _ ____ _ ____ _ ____ _ ____ _ ____
 72
    65
 73
     4
 40
17.500000
 49
13.000000
 49
-1.500000
 49
1.500000
 49
-1.500000
  0
LTYPE
  2
PHANTOM
 70
    64
  3
_____ _ _ _____ _ _ _____ _ _ _____ _ _ ____  
 72
    65
 73
     6
 40
15.500000
 49
8.000000
 49
-1.500000
 49
1.500000
 49
-1.500000
 49
1.500000
 49
-1.500000
  0
LTYPE
  2
DOT
 70
    64
  3
. . . . . . . . . . . . . . . . . . . . . . . .
 72
    65
 73
     2
 40
0.25
 49
0.0
 49
-0.25
  0
ENDTAB
  0
TABLE
  2
LAYER
 70
     1
  0
LAYER
  2
0
 70
     0
 62
     7
  6
CONTINUOUS
  0
ENDTAB
  0
TABLE
  2
STYLE
 70
     1
  0
STYLE
  2
STANDARD
 70
     0
 40
0.000000
 41
1.000000
 50
0.000000
 71
     0
 42
0.200000
  3
txt
  4
BIGFONT
  0
ENDTAB
  0
TABLE
  2
VIEW
 70
     0
  0
ENDTAB
  0
ENDSEC
  0
SECTION
  2
BLOCKS
  0
ENDSEC
  0
SECTION
  2
ENTITIES
  0
POINT
  8
0
  6
CONTINUOUS
 62
     7
 10
-210.27118
 20
142.92375
  0
POINT
  8
0
  6
CONTINUOUS
 62
     7
 10
-148.77118
 20
142.92375
  0
POINT
  8
0
  6
CONTINUOUS
 62
     7
 10
-83.271194
 20
142.92375
  0
POINT
  8
0
  6
CONTINUOUS
 62
     7
 10
-11.771179
 20
142.92375
  0
POINT
  8
0
  6
CONTINUOUS
 62
     7
 10
66.728821
 20
142.92375
  0
POINT
  8
0
  6
CONTINUOUS
 62
     7
 10
156.72882
 20
142.92375
  0
POINT
  8
0
  6
CONTINUOUS
 62
     7
 10
-148.86563
 20
49.17271
  0
POINT
  8
0
  6
CONTINUOUS
 62
     7
 10
-28.865635
 20
49.17271
  0
POINT
  8
0
  6
CONTINUOUS
 62
     7
 10
101.13437
 20
49.17271
  0
POINT
  8
0
  6
CONTINUOUS
 62
     7
 10
151.58699
 20
-87.251427
  0
POINT
  8
0
  6
CONTINUOUS
 62
     7
 10
-38.413006
 20
-87.251427
  0
POINT
  8
0
  6
CONTINUOUS
 62
     7
 10
-208.41301
 20
-87.251427
  0
POINT
  8
0
  6
CONTINUOUS
 62
     7
 10
637.44092
 20
2.4926636
  0
POINT
  8
0
  6
CONTINUOUS
 62
     7
 10
897.44092
 20
2.4926636
  0
LINE
  8
0
  6
CONTINUOUS
 62
     7
 10
1071
 20
200
 11
1071
 21
-200
  0
LINE
  8
0
  6
CONTINUOUS
 62
     7
 10
497
 20
200
 11
1071
 21
200
  0
LINE
  8
0
  6
CONTINUOUS
 62
     7
 10
497
 20
200
 11
497
 21
-200
  0
LINE
  8
0
  6
CONTINUOUS
 62
     7
 10
497
 20
-200
 11
1071
 21
-200
  0
LINE
  8
0
  6
CONTINUOUS
 62
     7
 10
-217.77118
 20
135.42375
 11
-217.77118
 21
125.92375
  0
LINE
  8
0
  6
CONTINUOUS
 62
     7
 10
-202.77118
 20
150.42375
 11
-193.27118
 21
150.42375
  0
LINE
  8
0
  6
CONTINUOUS
 62
     7
 10
-199.77118
 20
135.42375
 11
-193.27118
 21
135.42375
  0
LINE
  8
0
  6
CONTINUOUS
 62
     7
 10
-202.77118
 20
132.42375
 11
-202.77118
 21
125.92375
  0
LINE
  8
0
  6
CENTER
 62
     7
 10
-219.6778
 20
142.92375
 11
-190.27118
 21
142.92375
  0
LINE
  8
0
  6
CENTER
 62
     7
 10
-210.27118
 20
151.5032
 11
-210.27118
 21
122.92375
  0
LINE
  8
0
  6
CONTINUOUS
 62
     7
 10
-217.77118
 20
125.92375
 11
-202.77118
 21
125.92375
  0
LINE
  8
0
  6
CONTINUOUS
 62
     7
 10
-193.27118
 20
135.42375
 11
-193.27118
 21
150.42375
  0
LINE
  8
0
  6
CENTER
 62
     7
 10
-158.65053
 20
142.92375
 11
-125.77118
 21
142.92375
  0
LINE
  8
0
  6
CENTER
 62
     7
 10
-148.77118
 20
153.20547
 11
-148.77118
 21
119.92375
  0
LINE
  8
0
  6
CONTINUOUS
 62
     7
 10
-158.27118
 20
133.42375
 11
-158.27118
 21
123.92375
  0
LINE
  8
0
  6
CONTINUOUS
 62
     7
 10
-139.27118
 20
152.42375
 11
-129.77118
 21
152.42375
  0
LINE
  8
0
  6
CONTINUOUS
 62
     7
 10
-139.27118
 20
130.42375
 11
-139.27118
 21
123.92375
  0
LINE
  8
0
  6
CONTINUOUS
 62
     7
 10
-136.27118
 20
133.42375
 11
-129.77118
 21
133.42375
  0
LINE
  8
0
  6
CONTINUOUS
 62
     7
 10
-129.77119
 20
133.42375
 11
-129.77119
 21
152.42375
  0
LINE
  8
0
  6
CONTINUOUS
 62
     7
 10
-158.27118
 20
123.92384
 11
-139.27118
 21
123.92384
  0
LINE
  8
0
  6
CENTER
 62
     7
 10
-96.863754
 20
142.92375
 11
-56.271194
 21
142.92375
  0
LINE
  8
0
  6
CENTER
 62
     7
 10
-83.271194
 20
156.89091
 11
-83.271194
 21
115.92375
  0
LINE
  8
0
  6
CONTINUOUS
 62
     7
 10
-71.771194
 20
154.42375
 11
-60.271194
 21
154.42375
  0
LINE
  8
0
  6
CONTINUOUS
 62
     7
 10
-94.771194
 20
131.42375
 11
-94.771194
 21
119.92375
  0
LINE
  8
0
  6
CONTINUOUS
 62
     7
 10
-68.771194
 20
131.42375
 11
-60.271194
 21
131.42375
  0
LINE
  8
0
  6
CONTINUOUS
 62
     7
 10
-71.771194
 20
128.42375
 11
-71.771194
 21
119.92375
  0
LINE
  8
0
  6
CONTINUOUS
 62
     7
 10
-94.771194
 20
119.92374
 11
-71.771194
 21
119.92374
  0
LINE
  8
0
  6
CONTINUOUS
 62
     7
 10
-60.271179
 20
131.42375
 11
-60.271179
 21
154.42375
  0
LINE
  8
0
  6
CENTER
 62
     7
 10
-28.352798
 20
142.92375
 11
19.428818
 21
142.92375
  0
LINE
  8
0
  6
CENTER
 62
     7
 10
-11.771179
 20
158.77309
 11
-11.771179
 21
111.72375
  0
LINE
  8
0
  6
CONTINUOUS
 62
     7
 10
1.7288208
 20
156.42375
 11
15.228821
 21
156.42375
  0
LINE
  8
0
  6
CONTINUOUS
 62
     7
 10
-25.271179
 20
129.42375
 11
-25.271179
 21
115.92375
  0
LINE
  8
0
  6
CONTINUOUS
 62
     7
 10
1.7288208
 20
126.42375
 11
1.7288208
 21
115.92375
  0
LINE
  8
0
  6
CONTINUOUS
 62
     7
 10
4.7288208
 20
129.42375
 11
15.228821
 21
129.42375
  0
LINE
  8
0
  6
CONTINUOUS
 62
     7
 10
15.228821
 20
129.42375
 11
15.228821
 21
156.42375
  0
LINE
  8
0
  6
CONTINUOUS
 62
     7
 10
-25.271179
 20
115.92375
 11
1.7288208
 21
115.92375
  0
LINE
  8
0
  6
CENTER
 62
     7
 10
46.653732
 20
142.92375
 11
102.92882
 21
142.92375
  0
LINE
  8
0
  6
CENTER
 62
     7
 10
66.728821
 20
162.90662
 11
66.728821
 21
106.72375
  0
LINE
  8
0
  6
CONTINUOUS
 62
     7
 10
83.228821
 20
159.42375
 11
98.728821
 21
159.42375
  0
LINE
  8
0
  6
CONTINUOUS
 62
     7
 10
50.228821
 20
126.42375
 11
50.228821
 21
110.92375
  0
LINE
  8
0
  6
CONTINUOUS
 62
     7
 10
83.228821
 20
122.42375
 11
83.228821
 21
110.92375
  0
LINE
  8
0
  6
CONTINUOUS
 62
     7
 10
87.228821
 20
126.42375
 11
98.728821
 21
126.42375
  0
LINE
  8
0
  6
CONTINUOUS
 62
     7
 10
50.228821
 20
110.92375
 11
83.228821
 21
110.92375
  0
LINE
  8
0
  6
CONTINUOUS
 62
     7
 10
98.728821
 20
126.42375
 11
98.728821
 21
159.42375
  0
LINE
  8
0
  6
CENTER
 62
     7
 10
133.97447
 20
142.92375
 11
199.72882
 21
142.92375
  0
LINE
  8
0
  6
CENTER
 62
     7
 10
156.72882
 20
165.36684
 11
156.72882
 21
99.923752
  0
LINE
  8
0
  6
CONTINUOUS
 62
     7
 10
177.22882
 20
163.42375
 11
194.72882
 21
163.42375
  0
LINE
  8
0
  6
CONTINUOUS
 62
     7
 10
136.22882
 20
122.42375
 11
136.22882
 21
104.92375
  0
LINE
  8
0
  6
CONTINUOUS
 62
     7
 10
177.22882
 20
118.42375
 11
177.22882
 21
104.92375
  0
LINE
  8
0
  6
CONTINUOUS
 62
     7
 10
181.22882
 20
122.42375
 11
194.72882
 21
122.42375
  0
LINE
  8
0
  6
CONTINUOUS
 62
     7
 10
194.72882
 20
122.42375
 11
194.72882
 21
163.42375
  0
LINE
  8
0
  6
CONTINUOUS
 62
     7
 10
136.22882
 20
104.92375
 11
177.22882
 21
104.92375
  0
LINE
  8
0
  6
CENTER
 62
     7
 10
-179.33475
 20
49.17271
 11
-97.865631
 21
49.17271
  0
LINE
  8
0
  6
CENTER
 62
     7
 10
-148.86563
 20
76.904297
 11
-148.86563
 21
-1.8272892
  0
LINE
  8
0
  6
CONTINUOUS
 62
     7
 10
-123.86563
 20
74.172714
 11
-102.86563
 21
74.172714
  0
LINE
  8
0
  6
CONTINUOUS
 62
     7
 10
-173.86563
 20
24.17271
 11
-173.86563
 21
3.1727109
  0
LINE
  8
0
  6
CONTINUOUS
 62
     7
 10
-123.86563
 20
19.17271
 11
-123.86563
 21
3.1727109
  0
LINE
  8
0
  6
CONTINUOUS
 62
     7
 10
-118.86563
 20
24.17271
 11
-102.86563
 21
24.17271
  0
LINE
  8
0
  6
CONTINUOUS
 62
     7
 10
-173.86563
 20
3.1727109
 11
-123.86563
 21
3.1727109
  0
LINE
  8
0
  6
CONTINUOUS
 62
     7
 10
-102.86563
 20
24.17271
 11
-102.86563
 21
74.172714
  0
LINE
  8
0
  6
CENTER
 62
     7
 10
-64.409187
 20
49.17271
 11
24.134367
 21
49.17271
  0
LINE
  8
0
  6
CENTER
 62
     7
 10
-28.865635
 20
80.291931
 11
-28.865635
 21
-3.8272891
  0
LINE
  8
0
  6
CONTINUOUS
 62
     7
 10
-0.86563259
 20
77.172714
 11
19.134367
 21
77.172714
  0
LINE
  8
0
  6
CONTINUOUS
 62
     7
 10
-56.865631
 20
21.17271
 11
-56.865631
 21
1.1727108
  0
LINE
  8
0
  6
CONTINUOUS
 62
     7
 10
-0.86563259
 20
15.17271
 11
-0.86563259
 21
1.1727108
  0
LINE
  8
0
  6
CONTINUOUS
 62
     7
 10
5.1343675
 20
21.17271
 11
19.134367
 21
21.17271
  0
LINE
  8
0
  6
CONTINUOUS
 62
     7
 10
19.134367
 20
21.17271
 11
19.134367
 21
77.172714
  0
LINE
  8
0
  6
CONTINUOUS
 62
     7
 10
-56.865631
 20
1.172726
 11
-0.86563259
 21
1.172726
  0
LINE
  8
0
  6
CENTER
 62
     7
 10
62.073627
 20
49.17271
 11
163.13437
 21
49.17271
  0
LINE
  8
0
  6
CENTER
 62
     7
 10
101.13437
 20
86.185463
 11
101.13437
 21
-12.82729
  0
LINE
  8
0
  6
CONTINUOUS
 62
     7
 10
135.63437
 20
83.672714
 11
158.13437
 21
83.672714
  0
LINE
  8
0
  6
CONTINUOUS
 62
     7
 10
66.634369
 20
14.67271
 11
66.634369
 21
-7.8272891
  0
LINE
  8
0
  6
CONTINUOUS
 62
     7
 10
135.63437
 20
7.6727109
 11
135.63437
 21
-7.8272891
  0
LINE
  8
0
  6
CONTINUOUS
 62
     7
 10
142.63437
 20
14.67271
 11
158.13437
 21
14.67271
  0
LINE
  8
0
  6
CONTINUOUS
 62
     7
 10
66.634369
 20
-7.8272891
 11
135.63437
 21
-7.8272891
  0
LINE
  8
0
  6
CONTINUOUS
 62
     7
 10
158.13437
 20
14.67271
 11
158.13437
 21
83.672714
  0
LINE
  8
0
  6
CENTER
 62
     7
 10
-254.30031
 20
-87.251427
 11
-132.41301
 21
-87.251427
  0
LINE
  8
0
  6
CENTER
 62
     7
 10
-208.41301
 20
-42.317436
 11
-208.41301
 21
-163.25143
  0
LINE
  8
0
  6
CONTINUOUS
 62
     7
 10
-151.41301
 20
-41.751431
 11
-139.41301
 21
-41.751431
  0
LINE
  8
0
  6
CONTINUOUS
 62
     7
 10
-151.41301
 20
-132.75143
 11
-139.41301
 21
-132.75143
  0
LINE
  8
0
  6
CONTINUOUS
 62
     7
 10
-165.41301
 20
-44.251431
 11
-156.28641
 21
-44.251431
  0
LINE
  8
0
  6
CONTINUOUS
 62
     7
 10
-157.91301
 20
-130.25143
 11
-156.28641
 21
-130.25143
  0
LINE
  8
0
  6
CONTINUOUS
 62
     7
 10
-162.91301
 20
-144.25143
 11
-162.91301
 21
-156.25143
  0
LINE
  8
0
  6
CONTINUOUS
 62
     7
 10
-253.91301
 20
-144.25143
 11
-253.91301
 21
-156.25143
  0
LINE
  8
0
  6
CONTINUOUS
 62
     7
 10
-165.41301
 20
-137.75143
 11
-165.41301
 21
-139.37804
  0
LINE
  8
0
  6
CONTINUOUS
 62
     7
 10
-251.41301
 20
-130.25143
 11
-251.41301
 21
-139.37804
  0
LINE
  8
0
  6
CONTINUOUS
 62
     7
 10
-253.91306
 20
-156.25143
 11
-162.91301
 21
-156.25143
  0
LINE
  8
0
  6
CONTINUOUS
 62
     7
 10
-253.91301
 20
-144.25143
 11
-162.91301
 21
-144.25143
  0
LINE
  8
0
  6
CONTINUOUS
 62
     7
 10
-139.41301
 20
-132.75143
 11
-139.41301
 21
-41.751431
  0
LINE
  8
0
  6
CONTINUOUS
 62
     7
 10
-151.41301
 20
-132.75143
 11
-151.41301
 21
-41.751431
  0
LINE
  8
0
  6
CONTINUOUS
 62
     7
 10
26.586979
 20
-34.751431
 11
39.586979
 21
-34.751431
  0
LINE
  8
0
  6
CONTINUOUS
 62
     7
 10
26.586979
 20
-139.75143
 11
39.586979
 21
-139.75143
  0
LINE
  8
0
  6
CONTINUOUS
 62
     7
 10
11.086979
 20
-37.751431
 11
19.445545
 21
-37.751431
  0
LINE
  8
0
  6
CONTINUOUS
 62
     7
 10
19.086979
 20
-136.75143
 11
19.445545
 21
-136.75143
  0
LINE
  8
0
  6
CONTINUOUS
 62
     7
 10
14.086979
 20
-152.25143
 11
14.086979
 21
-165.25143
  0
LINE
  8
0
  6
CONTINUOUS
 62
     7
 10
-90.91301
 20
-152.25143
 11
-90.91301
 21
-165.25143
  0
LINE
  8
0
  6
CONTINUOUS
 62
     7
 10
11.086979
 20
-144.75143
 11
11.086979
 21
-145.10999
  0
LINE
  8
0
  6
CONTINUOUS
 62
     7
 10
-87.91301
 20
-136.75143
 11
-87.91301
 21
-145.11
  0
LINE
  8
0
  6
CENTER
 62
     7
 10
-38.413006
 20
-31.46777
 11
-38.413006
 21
-172.65143
  0
LINE
  8
0
  6
CENTER
 62
     7
 10
-95.52916
 20
-87.251427
 11
46.986973
 21
-87.251427
  0
LINE
  8
0
  6
CONTINUOUS
 62
     7
 10
-90.91301
 20
-165.2514
 11
14.086979
 21
-165.2514
  0
LINE
  8
0
  6
CONTINUOUS
 62
     7
 10
-90.91301
 20
-152.25142
 11
14.086979
 21
-152.25142
  0
LINE
  8
0
  6
CONTINUOUS
 62
     7
 10
39.586964
 20
-139.75143
 11
39.586964
 21
-34.751431
  0
LINE
  8
0
  6
CONTINUOUS
 62
     7
 10
26.586964
 20
-139.75143
 11
26.586964
 21
-34.751431
  0
LINE
  8
0
  6
CONTINUOUS
 62
     7
 10
-287
 20
-200
 11
287
 21
-200
  0
LINE
  8
0
  6
CONTINUOUS
 62
     7
 10
-287
 20
200
 11
-287
 21
-200
  0
LINE
  8
0
  6
CONTINUOUS
 62
     7
 10
-287
 20
200
 11
287
 21
200
  0
LINE
  8
0
  6
CONTINUOUS
 62
     7
 10
287
 20
200
 11
287
 21
-200
  0
LINE
  8
0
  6
CENTER
 62
     7
 10
79.909096
 20
-87.251427
 11
254.78697
 21
-87.251427
  0
LINE
  8
0
  6
CONTINUOUS
 62
     7
 10
232.58699
 20
-20.751431
 11
248.58699
 21
-20.751431
  0
LINE
  8
0
  6
CONTINUOUS
 62
     7
 10
232.58699
 20
-153.75143
 11
248.58699
 21
-153.75143
  0
LINE
  8
0
  6
CONTINUOUS
 62
     7
 10
215.08699
 20
-23.751431
 11
225.44556
 21
-23.751431
  0
LINE
  8
0
  6
CONTINUOUS
 62
     7
 10
218.08699
 20
-168.25143
 11
218.08699
 21
-184.25143
  0
LINE
  8
0
  6
CONTINUOUS
 62
     7
 10
85.08699
 20
-168.25143
 11
85.08699
 21
-184.25143
  0
LINE
  8
0
  6
CONTINUOUS
 62
     7
 10
88.08699
 20
-150.75143
 11
88.08699
 21
-161.11
  0
LINE
  8
0
  6
CONTINUOUS
 62
     7
 10
225.08699
 20
-150.75143
 11
225.44556
 21
-150.75143
  0
LINE
  8
0
  6
CONTINUOUS
 62
     7
 10
215.08699
 20
-160.75143
 11
215.08699
 21
-161.11
  0
LINE
  8
0
  6
CENTER
 62
     7
 10
151.58699
 20
-20.156469
 11
151.58699
 21
-192.45143
  0
LINE
  8
0
  6
CONTINUOUS
 62
     7
 10
85.08699
 20
-184.25143
 11
218.08699
 21
-184.25143
  0
LINE
  8
0
  6
CONTINUOUS
 62
     7
 10
85.08699
 20
-168.25143
 11
218.08699
 21
-168.25143
  0
LINE
  8
0
  6
CONTINUOUS
 62
     7
 10
232.58699
 20
-153.75143
 11
232.58699
 21
-20.751431
  0
LINE
  8
0
  6
CONTINUOUS
 62
     7
 10
248.58698
 20
-153.75143
 11
248.58698
 21
-20.751431
  0
LINE
  8
0
  6
CENTER
 62
     7
 10
897.44092
 20
101.45564
 11
897.44092
 21
-137.70734
  0
LINE
  8
0
  6
CENTER
 62
     7
 10
792.41534
 20
2.4926636
 11
1037.641
 21
2.4926636
  0
LINE
  8
0
  6
CONTINUOUS
 62
     7
 10
1009.4409
 20
96.992661
 11
1029.4409
 21
96.992661
  0
LINE
  8
0
  6
CONTINUOUS
 62
     7
 10
1009.4409
 20
-92.007339
 11
1029.4409
 21
-92.007339
  0
LINE
  8
0
  6
CONTINUOUS
 62
     7
 10
988.44092
 20
93.492661
 11
1001.8416
 21
93.492661
  0
LINE
  8
0
  6
CONTINUOUS
 62
     7
 10
991.94092
 20
-109.50732
 11
991.94092
 21
-129.50734
  0
LINE
  8
0
  6
CONTINUOUS
 62
     7
 10
802.94092
 20
-109.50734
 11
802.94092
 21
-129.50734
  0
LINE
  8
0
  6
CONTINUOUS
 62
     7
 10
806.44092
 20
-88.507339
 11
806.44092
 21
-101.908
  0
LINE
  8
0
  6
CONTINUOUS
 62
     7
 10
988.44092
 20
-100.50734
 11
988.44092
 21
-101.90799
  0
LINE
  8
0
  6
CONTINUOUS
 62
     7
 10
1000.4409
 20
-88.507339
 11
1001.8416
 21
-88.507339
  0
LINE
  8
0
  6
CONTINUOUS
 62
     7
 10
802.94073
 20
-129.50731
 11
991.94092
 21
-129.50731
  0
LINE
  8
0
  6
CONTINUOUS
 62
     7
 10
802.94092
 20
-109.50734
 11
991.94092
 21
-109.50734
  0
LINE
  8
0
  6
CONTINUOUS
 62
     7
 10
1029.4409
 20
-92.007339
 11
1029.4409
 21
96.992661
  0
LINE
  8
0
  6
CONTINUOUS
 62
     7
 10
1009.4409
 20
-92.007339
 11
1009.4409
 21
96.992661
  0
LINE
  8
0
  6
CENTER
 62
     7
 10
637.44092
 20
85.774696
 11
637.44092
 21
-118.70734
  0
LINE
  8
0
  6
CENTER
 62
     7
 10
549.56342
 20
2.4926636
 11
758.64093
 21
2.4926636
  0
LINE
  8
0
  6
CONTINUOUS
 62
     7
 10
732.44092
 20
82.992661
 11
750.44092
 21
82.992661
  0
LINE
  8
0
  6
CONTINUOUS
 62
     7
 10
732.44092
 20
-78.007347
 11
750.44092
 21
-78.007347
  0
LINE
  8
0
  6
CONTINUOUS
 62
     7
 10
714.44092
 20
79.492661
 11
724.84161
 21
79.492661
  0
LINE
  8
0
  6
CONTINUOUS
 62
     7
 10
717.94092
 20
-92.507332
 11
717.94092
 21
-110.50733
  0
LINE
  8
0
  6
CONTINUOUS
 62
     7
 10
556.94092
 20
-92.507347
 11
556.94092
 21
-110.50735
  0
LINE
  8
0
  6
CONTINUOUS
 62
     7
 10
560.44092
 20
-74.507339
 11
560.44092
 21
-84.908005
  0
LINE
  8
0
  6
CONTINUOUS
 62
     7
 10
724.44092
 20
-74.507347
 11
724.84161
 21
-74.507347
  0
LINE
  8
0
  6
CONTINUOUS
 62
     7
 10
714.44092
 20
-84.507347
 11
714.44092
 21
-84.90799
  0
LINE
  8
0
  6
CONTINUOUS
 62
     7
 10
556.94092
 20
-92.507355
 11
717.94092
 21
-92.507355
  0
LINE
  8
0
  6
CONTINUOUS
 62
     7
 10
556.94092
 20
-110.50735
 11
717.94092
 21
-110.50735
  0
LINE
  8
0
  6
CONTINUOUS
 62
     7
 10
732.44098
 20
-78.007347
 11
732.44098
 21
82.992661
  0
LINE
  8
0
  6
CONTINUOUS
 62
     7
 10
750.44092
 20
-78.007347
 11
750.44092
 21
82.992661
  0
LINE
  8
0
  6
CONTINUOUS
 62
     7
 10
158.91476
 20
141.58633
 11
160.07686
 21
140.42422
  0
LINE
  8
0
  6
CONTINUOUS
 62
     7
 10
158.06624
 20
140.73781
 11
159.22833
 21
139.5757
  0
LINE
  8
0
  6
CONTINUOUS
 62
     7
 10
165.3894
 20
133.41463
 11
166.55151
 21
132.25253
  0
LINE
  8
0
  6
CONTINUOUS
 62
     7
 10
166.23793
 20
134.26315
 11
167.40004
 21
133.10106
  0
LINE
  8
0
  6
CONTINUOUS
 62
     7
 10
160.07996
 20
138.72409
 11
162.30887
 21
136.49516
  0
LINE
  8
0
  6
CONTINUOUS
 62
     7
 10
160.92848
 20
139.57262
 11
163.15739
 21
137.34369
  0
LINE
  8
0
  6
CONTINUOUS
 62
     7
 10
-145.36168
 20
46.517292
 11
-144.19957
 21
45.355179
  0
LINE
  8
0
  6
CONTINUOUS
 62
     7
 10
-146.21022
 20
45.668762
 11
-145.0481
 21
44.506645
  0
LINE
  8
0
  6
CONTINUOUS
 62
     7
 10
-138.88704
 20
38.345585
 11
-137.72493
 21
37.183475
  0
LINE
  8
0
  6
CONTINUOUS
 62
     7
 10
-138.03851
 20
39.194115
 11
-136.8764
 21
38.032005
  0
LINE
  8
0
  6
CONTINUOUS
 62
     7
 10
-144.19649
 20
43.655033
 11
-141.96758
 21
41.426121
  0
LINE
  8
0
  6
CONTINUOUS
 62
     7
 10
-143.34796
 20
44.503567
 11
-141.11905
 21
42.274651
  0
LINE
  8
0
  6
CONTINUOUS
 62
     7
 10
-24.483
 20
45.638603
 11
-23.320894
 21
44.476498
  0
LINE
  8
0
  6
CONTINUOUS
 62
     7
 10
-25.331528
 20
44.790077
 11
-24.169422
 21
43.627968
  0
LINE
  8
0
  6
CONTINUOUS
 62
     7
 10
-18.008354
 20
37.4669
 11
-16.846247
 21
36.304794
  0
LINE
  8
0
  6
CONTINUOUS
 62
     7
 10
-17.159826
 20
38.31543
 11
-15.997719
 21
37.153324
  0
LINE
  8
0
  6
CONTINUOUS
 62
     7
 10
-23.31781
 20
42.776356
 11
-21.088888
 21
40.547436
  0
LINE
  8
0
  6
CONTINUOUS
 62
     7
 10
-22.469282
 20
43.624886
 11
-20.24036
 21
41.395962
  0
LINE
  8
0
  6
CONTINUOUS
 62
     7
 10
-29.642361
 20
-94.749283
 11
-27.899202
 21
-96.492447
  0
LINE
  8
0
  6
CONTINUOUS
 62
     7
 10
-30.915154
 20
-96.022079
 11
-29.171995
 21
-97.765236
  0
LINE
  8
0
  6
CONTINUOUS
 62
     7
 10
-19.930391
 20
-107.00684
 11
-18.187235
 21
-108.75
  0
LINE
  8
0
  6
CONTINUOUS
 62
     7
 10
-18.657597
 20
-105.73405
 11
-16.91444
 21
-107.4772
  0
LINE
  8
0
  6
CONTINUOUS
 62
     7
 10
-27.894579
 20
-99.042656
 11
-24.551193
 21
-102.38604
  0
LINE
  8
0
  6
CONTINUOUS
 62
     7
 10
-26.621784
 20
-97.769859
 11
-23.278399
 21
-101.11324
  0
LINE
  8
0
  6
CONTINUOUS
 62
     7
 10
164.45815
 20
-98.849792
 11
166.20131
 21
-100.59296
  0
LINE
  8
0
  6
CONTINUOUS
 62
     7
 10
163.18535
 20
-100.12258
 11
164.92853
 21
-101.86575
  0
LINE
  8
0
  6
CONTINUOUS
 62
     7
 10
174.17012
 20
-111.10735
 11
175.91328
 21
-112.8505
  0
LINE
  8
0
  6
CONTINUOUS
 62
     7
 10
175.44292
 20
-109.83456
 11
177.18607
 21
-111.57771
  0
LINE
  8
0
  6
CONTINUOUS
 62
     7
 10
166.20593
 20
-103.14317
 11
169.54932
 21
-106.48654
  0
LINE
  8
0
  6
CONTINUOUS
 62
     7
 10
167.47873
 20
-101.87037
 11
170.82211
 21
-105.21375
  0
LINE
  8
0
  6
CONTINUOUS
 62
     7
 10
106.46621
 20
44.901524
 11
107.91884
 21
43.448891
  0
LINE
  8
0
  6
CONTINUOUS
 62
     7
 10
105.40555
 20
43.840862
 11
106.85818
 21
42.388229
  0
LINE
  8
0
  6
CONTINUOUS
 62
     7
 10
114.55952
 20
34.686893
 11
116.01215
 21
33.234261
  0
LINE
  8
0
  6
CONTINUOUS
 62
     7
 10
115.62018
 20
35.747555
 11
117.07281
 21
34.294922
  0
LINE
  8
0
  6
CONTINUOUS
 62
     7
 10
107.9227
 20
41.323715
 11
110.70885
 21
38.537563
  0
LINE
  8
0
  6
CONTINUOUS
 62
     7
 10
108.98335
 20
42.384377
 11
111.76951
 21
39.598221
  0
LINE
  8
0
  6
CONTINUOUS
 62
     7
 10
68.697777
 20
141.5912
 11
69.569359
 21
140.71962
  0
LINE
  8
0
  6
CONTINUOUS
 62
     7
 10
68.061386
 20
140.9548
 11
68.932968
 21
140.08322
  0
LINE
  8
0
  6
CONTINUOUS
 62
     7
 10
73.553772
 20
135.46243
 11
74.425346
 21
134.59085
  0
LINE
  8
0
  6
CONTINUOUS
 62
     7
 10
74.190163
 20
136.09882
 11
75.061737
 21
135.22723
  0
LINE
  8
0
  6
CONTINUOUS
 62
     7
 10
69.571678
 20
139.44452
 11
71.24337
 21
137.77283
  0
LINE
  8
0
  6
CONTINUOUS
 62
     7
 10
70.208069
 20
140.0809
 11
71.879761
 21
138.40921
  0
LINE
  8
0
  6
CONTINUOUS
 62
     7
 10
-82.766708
 20
143.05566
 11
-81.895119
 21
142.18408
  0
LINE
  8
0
  6
CONTINUOUS
 62
     7
 10
-83.403099
 20
142.41927
 11
-82.531517
 21
141.54768
  0
LINE
  8
0
  6
CONTINUOUS
 62
     7
 10
-77.910728
 20
136.92688
 11
-77.039139
 21
136.0553
  0
LINE
  8
0
  6
CONTINUOUS
 62
     7
 10
-77.27433
 20
137.56328
 11
-76.40274
 21
136.6917
  0
LINE
  8
0
  6
CONTINUOUS
 62
     7
 10
-81.892815
 20
140.90898
 11
-80.221123
 21
139.23729
  0
LINE
  8
0
  6
CONTINUOUS
 62
     7
 10
-81.256424
 20
141.54538
 11
-79.584724
 21
139.87369
  0
LINE
  8
0
  6
CONTINUOUS
 62
     7
 10
-10.680904
 20
142.46988
 11
-9.8093262
 21
141.5983
  0
LINE
  8
0
  6
CONTINUOUS
 62
     7
 10
-11.317302
 20
141.83348
 11
-10.445724
 21
140.9619
  0
LINE
  8
0
  6
CONTINUOUS
 62
     7
 10
-5.8249183
 20
136.34109
 11
-4.9533405
 21
135.46951
  0
LINE
  8
0
  6
CONTINUOUS
 62
     7
 10
-5.1885214
 20
136.97749
 11
-4.3169432
 21
136.10591
  0
LINE
  8
0
  6
CONTINUOUS
 62
     7
 10
-9.8070116
 20
140.32318
 11
-8.1353207
 21
138.65149
  0
LINE
  8
0
  6
CONTINUOUS
 62
     7
 10
-9.1706152
 20
140.95958
 11
-7.4989238
 21
139.28789
  0
LINE
  8
0
  6
CONTINUOUS
 62
     7
 10
-203.08116
 20
-91.522614
 11
-201.62854
 21
-92.97525
  0
LINE
  8
0
  6
CONTINUOUS
 62
     7
 10
-204.14183
 20
-92.583275
 11
-202.68919
 21
-94.035904
  0
LINE
  8
0
  6
CONTINUOUS
 62
     7
 10
-194.98785
 20
-101.73724
 11
-193.53522
 21
-103.18987
  0
LINE
  8
0
  6
CONTINUOUS
 62
     7
 10
-193.9272
 20
-100.67658
 11
-192.47456
 21
-102.12922
  0
LINE
  8
0
  6
CONTINUOUS
 62
     7
 10
-201.62468
 20
-95.100426
 11
-198.83853
 21
-97.886574
  0
LINE
  8
0
  6
CONTINUOUS
 62
     7
 10
-200.56401
 20
-94.039764
 11
-197.77786
 21
-96.825912
  0
LINE
  8
0
  6
CONTINUOUS
 62
     7
 10
-147.89787
 20
142.47472
 11
-147.31683
 21
141.89366
  0
LINE
  8
0
  6
CONTINUOUS
 62
     7
 10
-148.32214
 20
142.05045
 11
-147.74109
 21
141.46941
  0
LINE
  8
0
  6
CONTINUOUS
 62
     7
 10
-144.66055
 20
138.38887
 11
-144.0795
 21
137.80782
  0
LINE
  8
0
  6
CONTINUOUS
 62
     7
 10
-144.2363
 20
138.81313
 11
-143.65524
 21
138.23207
  0
LINE
  8
0
  6
CONTINUOUS
 62
     7
 10
-147.31529
 20
141.04359
 11
-146.20082
 21
139.92914
  0
LINE
  8
0
  6
CONTINUOUS
 62
     7
 10
-146.89102
 20
141.46786
 11
-145.77657
 21
140.35339
  0
LINE
  8
0
  6
CONTINUOUS
 62
     7
 10
-209.98366
 20
143.0605
 11
-209.40262
 21
142.47945
  0
LINE
  8
0
  6
CONTINUOUS
 62
     7
 10
-210.40793
 20
142.63623
 11
-209.82687
 21
142.05519
  0
LINE
  8
0
  6
CONTINUOUS
 62
     7
 10
-206.74634
 20
138.97466
 11
-206.16528
 21
138.3936
  0
LINE
  8
0
  6
CONTINUOUS
 62
     7
 10
-206.32208
 20
139.39891
 11
-205.74103
 21
138.81786
  0
LINE
  8
0
  6
CONTINUOUS
 62
     7
 10
-209.40108
 20
141.62938
 11
-208.28661
 21
140.51492
  0
LINE
  8
0
  6
CONTINUOUS
 62
     7
 10
-208.97681
 20
142.05365
 11
-207.86235
 21
140.93918
  0
LINE
  8
0
  6
CONTINUOUS
 62
     7
 10
652.35693
 20
-10.726301
 11
654.68115
 21
-13.050509
  0
LINE
  8
0
  6
CONTINUOUS
 62
     7
 10
650.65991
 20
-12.423353
 11
652.98413
 21
-14.747561
  0
LINE
  8
0
  6
CONTINUOUS
 62
     7
 10
665.30627
 20
-27.069708
 11
667.63049
 21
-29.393917
  0
LINE
  8
0
  6
CONTINUOUS
 62
     7
 10
667.0033
 20
-25.372656
 11
669.32751
 21
-27.696865
  0
LINE
  8
0
  6
CONTINUOUS
 62
     7
 10
654.68732
 20
-16.450785
 11
659.1452
 21
-20.908634
  0
LINE
  8
0
  6
CONTINUOUS
 62
     7
 10
656.3844
 20
-14.753733
 11
660.84222
 21
-19.211582
  0
LINE
  8
0
  6
CONTINUOUS
 62
     7
 10
916.45752
 20
-14.8268
 11
918.78174
 21
-17.151009
  0
LINE
  8
0
  6
CONTINUOUS
 62
     7
 10
914.76044
 20
-16.523874
 11
917.08466
 21
-18.848082
  0
LINE
  8
0
  6
CONTINUOUS
 62
     7
 10
929.4068
 20
-31.170229
 11
931.73102
 21
-33.494438
  0
LINE
  8
0
  6
CONTINUOUS
 62
     7
 10
931.10388
 20
-29.473154
 11
933.4281
 21
-31.797363
  0
LINE
  8
0
  6
CONTINUOUS
 62
     7
 10
918.78784
 20
-20.551283
 11
923.24573
 21
-25.009155
  0
LINE
  8
0
  6
CONTINUOUS
 62
     7
 10
920.48492
 20
-18.85421
 11
924.94281
 21
-23.312082
  0
ARC
  8
0
  6
CONTINUOUS
 62
     7
 10
-199.77118
 20
132.42375
 40
3
 50
89.999982
 51
179.99996
  0
ARC
  8
0
  6
CONTINUOUS
 62
     7
 10
-202.77118
 20
135.42375
 40
15
 50
89.999982
 51
179.99996
  0
ARC
  8
0
  6
CENTER
 62
     7
 10
-202.77118
 20
135.42375
 40
7.5
 50
89.999982
 51
179.99996
  0
ARC
  8
0
  6
CONTINUOUS
 62
     7
 10
-136.27118
 20
130.42375
 40
3
 50
89.999982
 51
179.99996
  0
ARC
  8
0
  6
CONTINUOUS
 62
     7
 10
-139.27118
 20
133.42375
 40
19
 50
89.999982
 51
179.99996
  0
ARC
  8
0
  6
CENTER
 62
     7
 10
-139.27118
 20
133.42375
 40
9.5
 50
89.999982
 51
179.99996
  0
ARC
  8
0
  6
CONTINUOUS
 62
     7
 10
-68.771194
 20
128.42375
 40
3
 50
89.999982
 51
179.99996
  0
ARC
  8
0
  6
CONTINUOUS
 62
     7
 10
-71.771194
 20
131.42375
 40
23
 50
89.999982
 51
179.99996
  0
ARC
  8
0
  6
CENTER
 62
     7
 10
-71.771194
 20
131.42375
 40
11.5
 50
89.999982
 51
179.99996
  0
ARC
  8
0
  6
CONTINUOUS
 62
     7
 10
4.7288208
 20
126.42375
 40
3
 50
89.999982
 51
179.99996
  0
ARC
  8
0
  6
CONTINUOUS
 62
     7
 10
1.7288208
 20
129.42375
 40
27
 50
89.999982
 51
179.99996
  0
ARC
  8
0
  6
CENTER
 62
     7
 10
1.7288208
 20
129.42375
 40
13.5
 50
89.999982
 51
179.99996
  0
ARC
  8
0
  6
CONTINUOUS
 62
     7
 10
87.228821
 20
122.42375
 40
4
 50
89.999982
 51
179.99996
  0
ARC
  8
0
  6
CONTINUOUS
 62
     7
 10
83.228821
 20
126.42375
 40
33
 50
89.999982
 51
179.99996
  0
ARC
  8
0
  6
CENTER
 62
     7
 10
83.228821
 20
126.42375
 40
16.5
 50
89.999982
 51
179.99996
  0
ARC
  8
0
  6
CONTINUOUS
 62
     7
 10
181.22882
 20
118.42375
 40
4
 50
89.999982
 51
179.99996
  0
ARC
  8
0
  6
CONTINUOUS
 62
     7
 10
177.22882
 20
122.42375
 40
41
 50
89.999982
 51
179.99996
  0
ARC
  8
0
  6
CENTER
 62
     7
 10
177.22882
 20
122.42375
 40
20.5
 50
89.999982
 51
179.68247
  0
ARC
  8
0
  6
CONTINUOUS
 62
     7
 10
-118.86563
 20
19.17271
 40
5
 50
89.999982
 51
179.99996
  0
ARC
  8
0
  6
CONTINUOUS
 62
     7
 10
-123.86563
 20
24.17271
 40
50
 50
89.999982
 51
179.99996
  0
ARC
  8
0
  6
CENTER
 62
     7
 10
-123.86563
 20
24.17271
 40
25
 50
89.999982
 51
179.99996
  0
ARC
  8
0
  6
CONTINUOUS
 62
     7
 10
-51.844147
 20
16.67271
 40
2.5
 50
62.964796
 51
67.585159
  0
ARC
  8
0
  6
CONTINUOUS
 62
     7
 10
5.1343675
 20
15.17271
 40
6
 50
89.999982
 51
179.99996
  0
ARC
  8
0
  6
CONTINUOUS
 62
     7
 10
-0.86563259
 20
21.17271
 40
56
 50
89.999982
 51
179.99996
  0
ARC
  8
0
  6
CENTER
 62
     7
 10
-0.86563259
 20
21.17271
 40
28
 50
89.999982
 51
179.99996
  0
ARC
  8
0
  6
CONTINUOUS
 62
     7
 10
142.63437
 20
7.6727109
 40
7
 50
89.999982
 51
179.99996
  0
ARC
  8
0
  6
CONTINUOUS
 62
     7
 10
135.63437
 20
14.67271
 40
69
 50
89.999982
 51
179.99996
  0
ARC
  8
0
  6
CENTER
 62
     7
 10
135.63437
 20
14.67271
 40
34.5
 50
89.999982
 51
179.27238
  0
ARC
  8
0
  6
CENTER
 62
     7
 10
-173.91301
 20
-121.75143
 40
34.5
 50
89.999982
 51
179.27238
  0
ARC
  8
0
  6
CONTINUOUS
 62
     7
 10
-156.28641
 20
-38.251431
 40
6
 50
270
 51
324.31468
  0
ARC
  8
0
  6
CONTINUOUS
 62
     7
 10
-156.28641
 20
-136.25143
 40
6
 50
35.685334
 51
90.000003
  0
ARC
  8
0
  6
CONTINUOUS
 62
     7
 10
-159.41301
 20
-139.37804
 40
6
 50
180.00001
 51
234.31468
  0
ARC
  8
0
  6
CONTINUOUS
 62
     7
 10
-257.41302
 20
-139.37804
 40
6
 50
305.68534
 51
6.8301892E-006
  0
ARC
  8
0
  6
CONTINUOUS
 62
     7
 10
-157.91301
 20
-137.75143
 40
7.5
 50
89.999982
 51
179.99996
  0
ARC
  8
0
  6
CONTINUOUS
 62
     7
 10
-165.41301
 20
-130.25143
 40
86
 50
89.999982
 51
179.99996
  0
ARC
  8
0
  6
CONTINUOUS
 62
     7
 10
19.445545
 20
-27.751431
 40
10
 50
270
 51
315.57299
  0
ARC
  8
0
  6
CONTINUOUS
 62
     7
 10
19.445545
 20
-146.75143
 40
10
 50
44.427003
 51
90.000003
  0
ARC
  8
0
  6
CONTINUOUS
 62
     7
 10
21.086979
 20
-145.10999
 40
10
 50
180.00001
 51
225.573
  0
ARC
  8
0
  6
CONTINUOUS
 62
     7
 10
-97.91301
 20
-145.11
 40
10
 50
314.42701
 51
6.8301892E-006
  0
ARC
  8
0
  6
CONTINUOUS
 62
     7
 10
19.086979
 20
-144.75143
 40
8
 50
89.999982
 51
179.99996
  0
ARC
  8
0
  6
CONTINUOUS
 62
     7
 10
11.086979
 20
-136.75143
 40
99
 50
89.999982
 51
179.99996
  0
ARC
  8
0
  6
CENTER
 62
     7
 10
11.086979
 20
-136.75143
 40
49.5
 50
89.949357
 51
180.0506
  0
ARC
  8
0
  6
CONTINUOUS
 62
     7
 10
225.44556
 20
-13.75143
 40
10
 50
270
 51
315.57299
  0
ARC
  8
0
  6
CONTINUOUS
 62
     7
 10
225.44556
 20
-160.75143
 40
10
 50
44.427003
 51
90.000003
  0
ARC
  8
0
  6
CONTINUOUS
 62
     7
 10
225.08699
 20
-161.11
 40
10
 50
180.00001
 51
225.573
  0
ARC
  8
0
  6
CONTINUOUS
 62
     7
 10
78.08699
 20
-161.11002
 40
10
 50
314.42701
 51
6.8301892E-006
  0
ARC
  8
0
  6
CONTINUOUS
 62
     7
 10
225.08699
 20
-160.75143
 40
10
 50
89.999982
 51
179.99996
  0
ARC
  8
0
  6
CONTINUOUS
 62
     7
 10
215.08699
 20
-150.75143
 40
127
 50
89.999982
 51
179.99996
  0
ARC
  8
0
  6
CENTER
 62
     7
 10
215.08699
 20
-150.75143
 40
63.5
 50
89.999982
 51
179.99996
  0
ARC
  8
0
  6
CONTINUOUS
 62
     7
 10
1001.8416
 20
103.49266
 40
10
 50
270
 51
319.45841
  0
ARC
  8
0
  6
CONTINUOUS
 62
     7
 10
1001.8416
 20
-98.507339
 40
10
 50
40.541602
 51
90.000003
  0
ARC
  8
0
  6
CONTINUOUS
 62
     7
 10
999.94092
 20
83.590683
 40
3.5
 50
205.9704
 51
210.14957
  0
ARC
  8
0
  6
CONTINUOUS
 62
     7
 10
998.44092
 20
-101.90799
 40
10
 50
180.00001
 51
229.45842
  0
ARC
  8
0
  6
CONTINUOUS
 62
     7
 10
796.44092
 20
-101.908
 40
10
 50
310.54161
 51
6.8301892E-006
  0
ARC
  8
0
  6
CONTINUOUS
 62
     7
 10
1000.4409
 20
-100.50734
 40
12
 50
89.999982
 51
179.99996
  0
ARC
  8
0
  6
CONTINUOUS
 62
     7
 10
988.44092
 20
-88.507339
 40
182
 50
89.999982
 51
179.99996
  0
ARC
  8
0
  6
CENTER
 62
     7
 10
988.44092
 20
-88.507339
 40
91
 50
89.999982
 51
179.99996
  0
ARC
  8
0
  6
CONTINUOUS
 62
     7
 10
724.84161
 20
89.492645
 40
10
 50
270
 51
319.45841
  0
ARC
  8
0
  6
CONTINUOUS
 62
     7
 10
723.94092
 20
70.84967
 40
3.5
 50
207.55322
 51
207.63285
  0
ARC
  8
0
  6
CONTINUOUS
 62
     7
 10
723.94092
 20
-65.864357
 40
3.5
 50
152.36715
 51
152.44678
  0
ARC
  8
0
  6
CONTINUOUS
 62
     7
 10
724.84161
 20
-84.507347
 40
10
 50
40.541602
 51
90.000003
  0
ARC
  8
0
  6
CONTINUOUS
 62
     7
 10
724.44092
 20
-84.907997
 40
10
 50
180.00001
 51
229.45842
  0
ARC
  8
0
  6
CONTINUOUS
 62
     7
 10
550.44092
 20
-84.908005
 40
10
 50
310.54161
 51
6.8301892E-006
  0
ARC
  8
0
  6
CONTINUOUS
 62
     7
 10
724.44092
 20
-84.507347
 40
10
 50
89.999982
 51
179.99996
  0
ARC
  8
0
  6
CONTINUOUS
 62
     7
 10
714.44092
 20
-74.507339
 40
154
 50
89.999982
 51
179.99996
  0
ARC
  8
0
  6
CENTER
 62
     7
 10
714.44092
 20
-74.507339
 40
77
 50
90.000003
 51
179.99996
  0
ARC
  8
0
  6
CONTINUOUS
 62
     7
 10
164.43019
 20
138.61649
 40
2.4000001
 50
351.00832
 51
98.991673
  0
ARC
  8
0
  6
CONTINUOUS
 62
     7
 10
164.43019
 20
138.61649
 40
3.5999999
 50
351.00832
 51
98.991673
  0
ARC
  8
0
  6
CONTINUOUS
 62
     7
 10
161.03609
 20
135.22238
 40
2.4000001
 50
171.00833
 51
278.99167
  0
ARC
  8
0
  6
CONTINUOUS
 62
     7
 10
161.03609
 20
135.22238
 40
3.5999999
 50
171.00833
 51
278.99167
  0
ARC
  8
0
  6
CONTINUOUS
 62
     7
 10
165.06822
 20
134.58435
 40
7.6823077
 50
98.991673
 51
130.52056
  0
ARC
  8
0
  6
CONTINUOUS
 62
     7
 10
165.06822
 20
134.58435
 40
6.4823079
 50
98.991673
 51
129.68912
  0
ARC
  8
0
  6
CONTINUOUS
 62
     7
 10
160.39806
 20
139.25452
 40
6.4823079
 50
278.99167
 51
351.00832
  0
ARC
  8
0
  6
CONTINUOUS
 62
     7
 10
160.39806
 20
139.25452
 40
7.6823077
 50
278.99167
 51
310.52055
  0
ARC
  8
0
  6
CONTINUOUS
 62
     7
 10
158.8087
 20
140.84387
 40
0.75
 50
81.869899
 51
188.1301
  0
ARC
  8
0
  6
CONTINUOUS
 62
     7
 10
162.41495
 20
137.23763
 40
0.75
 50
261.8699
 51
8.1301031
  0
ARC
  8
0
  6
CONTINUOUS
 62
     7
 10
166.65758
 20
132.995
 40
0.75
 50
261.8699
 51
8.1301031
  0
ARC
  8
0
  6
CONTINUOUS
 62
     7
 10
165.06822
 20
134.58435
 40
6.4823079
 50
140.31088
 51
171.00833
  0
ARC
  8
0
  6
CONTINUOUS
 62
     7
 10
165.06822
 20
134.58435
 40
7.6823077
 50
139.47946
 51
171.00833
  0
ARC
  8
0
  6
CONTINUOUS
 62
     7
 10
160.39806
 20
139.25452
 40
7.6823077
 50
319.47945
 51
351.00832
  0
ARC
  8
0
  6
CONTINUOUS
 62
     7
 10
-139.84625
 20
43.547436
 40
2.4000001
 50
351.00832
 51
98.991673
  0
ARC
  8
0
  6
CONTINUOUS
 62
     7
 10
-139.84625
 20
43.547436
 40
3.5999999
 50
351.00832
 51
98.991673
  0
ARC
  8
0
  6
CONTINUOUS
 62
     7
 10
-143.24036
 20
40.153324
 40
2.4000001
 50
171.00833
 51
278.99167
  0
ARC
  8
0
  6
CONTINUOUS
 62
     7
 10
-143.24036
 20
40.153324
 40
3.5999999
 50
171.00833
 51
278.99167
  0
ARC
  8
0
  6
CONTINUOUS
 62
     7
 10
-139.20822
 20
39.515297
 40
7.6823077
 50
98.991673
 51
130.52056
  0
ARC
  8
0
  6
CONTINUOUS
 62
     7
 10
-139.20822
 20
39.515297
 40
6.4823079
 50
98.991673
 51
129.68912
  0
ARC
  8
0
  6
CONTINUOUS
 62
     7
 10
-143.87839
 20
44.185463
 40
6.4823079
 50
278.99167
 51
351.00832
  0
ARC
  8
0
  6
CONTINUOUS
 62
     7
 10
-143.87839
 20
44.185463
 40
7.6823077
 50
278.99167
 51
310.52055
  0
ARC
  8
0
  6
CONTINUOUS
 62
     7
 10
-145.46774
 20
45.774822
 40
0.75
 50
81.869899
 51
188.1301
  0
ARC
  8
0
  6
CONTINUOUS
 62
     7
 10
-141.8615
 20
42.168579
 40
0.75
 50
261.8699
 51
8.1301031
  0
ARC
  8
0
  6
CONTINUOUS
 62
     7
 10
-137.61887
 20
37.925938
 40
0.75
 50
261.8699
 51
8.1301031
  0
ARC
  8
0
  6
CONTINUOUS
 62
     7
 10
-139.20822
 20
39.515297
 40
6.4823079
 50
140.31088
 51
171.00833
  0
ARC
  8
0
  6
CONTINUOUS
 62
     7
 10
-139.20822
 20
39.515297
 40
7.6823077
 50
139.47946
 51
171.00833
  0
ARC
  8
0
  6
CONTINUOUS
 62
     7
 10
-143.87839
 20
44.185463
 40
7.6823077
 50
319.47945
 51
351.00832
  0
ARC
  8
0
  6
CONTINUOUS
 62
     7
 10
-18.967567
 20
42.668755
 40
2.4000001
 50
351.00832
 51
98.991673
  0
ARC
  8
0
  6
CONTINUOUS
 62
     7
 10
-18.967567
 20
42.668755
 40
3.5999999
 50
351.00832
 51
98.991673
  0
ARC
  8
0
  6
CONTINUOUS
 62
     7
 10
-22.361679
 20
39.274643
 40
2.4000001
 50
171.00833
 51
278.99167
  0
ARC
  8
0
  6
CONTINUOUS
 62
     7
 10
-22.361679
 20
39.274643
 40
3.5999999
 50
171.00833
 51
278.99167
  0
ARC
  8
0
  6
CONTINUOUS
 62
     7
 10
-18.329538
 20
38.636616
 40
7.6823077
 50
98.991673
 51
130.52056
  0
ARC
  8
0
  6
CONTINUOUS
 62
     7
 10
-18.329538
 20
38.636616
 40
6.4823079
 50
98.991673
 51
129.68912
  0
ARC
  8
0
  6
CONTINUOUS
 62
     7
 10
-22.999708
 20
43.306782
 40
6.4823079
 50
278.99167
 51
351.00832
  0
ARC
  8
0
  6
CONTINUOUS
 62
     7
 10
-22.999708
 20
43.306782
 40
7.6823077
 50
278.99167
 51
310.52055
  0
ARC
  8
0
  6
CONTINUOUS
 62
     7
 10
-24.589066
 20
44.896141
 40
0.75
 50
81.869899
 51
188.1301
  0
ARC
  8
0
  6
CONTINUOUS
 62
     7
 10
-20.982821
 20
41.289898
 40
0.75
 50
261.8699
 51
8.1301031
  0
ARC
  8
0
  6
CONTINUOUS
 62
     7
 10
-16.740181
 20
37.047256
 40
0.75
 50
261.8699
 51
8.1301031
  0
ARC
  8
0
  6
CONTINUOUS
 62
     7
 10
-18.329538
 20
38.636616
 40
6.4823079
 50
140.31088
 51
171.00833
  0
ARC
  8
0
  6
CONTINUOUS
 62
     7
 10
-18.329538
 20
38.636616
 40
7.6823077
 50
139.47946
 51
171.00833
  0
ARC
  8
0
  6
CONTINUOUS
 62
     7
 10
-22.999708
 20
43.306782
 40
7.6823077
 50
319.47945
 51
351.00832
  0
ARC
  8
0
  6
CONTINUOUS
 62
     7
 10
-21.369211
 20
-99.204056
 40
3.5999999
 50
351.00832
 51
98.991673
  0
ARC
  8
0
  6
CONTINUOUS
 62
     7
 10
-21.369211
 20
-99.204056
 40
5.4000001
 50
351.00832
 51
98.991673
  0
ARC
  8
0
  6
CONTINUOUS
 62
     7
 10
-26.460379
 20
-104.29523
 40
3.5999999
 50
171.00833
 51
278.99167
  0
ARC
  8
0
  6
CONTINUOUS
 62
     7
 10
-26.460379
 20
-104.29523
 40
5.4000001
 50
171.00833
 51
278.99167
  0
ARC
  8
0
  6
CONTINUOUS
 62
     7
 10
-20.412169
 20
-105.25227
 40
11.523461
 50
98.991673
 51
130.52056
  0
ARC
  8
0
  6
CONTINUOUS
 62
     7
 10
-20.412169
 20
-105.25227
 40
9.7234612
 50
98.991673
 51
129.68912
  0
ARC
  8
0
  6
CONTINUOUS
 62
     7
 10
-27.417421
 20
-98.247017
 40
9.7234612
 50
278.99167
 51
351.00832
  0
ARC
  8
0
  6
CONTINUOUS
 62
     7
 10
-27.417421
 20
-98.247017
 40
11.523461
 50
278.99167
 51
310.52055
  0
ARC
  8
0
  6
CONTINUOUS
 62
     7
 10
-29.801458
 20
-95.862976
 40
1.125
 50
81.869899
 51
188.1301
  0
ARC
  8
0
  6
CONTINUOUS
 62
     7
 10
-24.392092
 20
-101.27235
 40
1.125
 50
261.8699
 51
8.1301031
  0
ARC
  8
0
  6
CONTINUOUS
 62
     7
 10
-18.028131
 20
-107.63631
 40
1.125
 50
261.8699
 51
8.1301031
  0
ARC
  8
0
  6
CONTINUOUS
 62
     7
 10
-20.412169
 20
-105.25227
 40
11.523461
 50
139.47946
 51
171.00833
  0
ARC
  8
0
  6
CONTINUOUS
 62
     7
 10
-20.412169
 20
-105.25227
 40
9.7234612
 50
140.31088
 51
171.00833
  0
ARC
  8
0
  6
CONTINUOUS
 62
     7
 10
-27.417421
 20
-98.247017
 40
11.523461
 50
319.47945
 51
351.00832
  0
ARC
  8
0
  6
CONTINUOUS
 62
     7
 10
172.73129
 20
-103.30457
 40
3.5999999
 50
351.00832
 51
98.991673
  0
ARC
  8
0
  6
CONTINUOUS
 62
     7
 10
172.73129
 20
-103.30457
 40
5.4000001
 50
351.00832
 51
98.991673
  0
ARC
  8
0
  6
CONTINUOUS
 62
     7
 10
167.64014
 20
-108.39574
 40
3.5999999
 50
171.00833
 51
278.99167
  0
ARC
  8
0
  6
CONTINUOUS
 62
     7
 10
167.64014
 20
-108.39574
 40
5.4000001
 50
171.00833
 51
278.99167
  0
ARC
  8
0
  6
CONTINUOUS
 62
     7
 10
173.68834
 20
-109.35278
 40
11.523461
 50
98.991673
 51
130.52056
  0
ARC
  8
0
  6
CONTINUOUS
 62
     7
 10
173.68834
 20
-109.35278
 40
9.7234612
 50
98.991673
 51
129.68912
  0
ARC
  8
0
  6
CONTINUOUS
 62
     7
 10
166.68309
 20
-102.34753
 40
9.7234612
 50
278.99167
 51
351.00832
  0
ARC
  8
0
  6
CONTINUOUS
 62
     7
 10
166.68309
 20
-102.34753
 40
11.523461
 50
278.99167
 51
310.52055
  0
ARC
  8
0
  6
CONTINUOUS
 62
     7
 10
164.29906
 20
-99.963486
 40
1.125
 50
81.869899
 51
188.1301
  0
ARC
  8
0
  6
CONTINUOUS
 62
     7
 10
169.70842
 20
-105.37286
 40
1.125
 50
261.8699
 51
8.1301031
  0
ARC
  8
0
  6
CONTINUOUS
 62
     7
 10
176.07237
 20
-111.73682
 40
1.125
 50
261.8699
 51
8.1301031
  0
ARC
  8
0
  6
CONTINUOUS
 62
     7
 10
173.68834
 20
-109.35278
 40
11.523461
 50
139.47946
 51
171.00833
  0
ARC
  8
0
  6
CONTINUOUS
 62
     7
 10
173.68834
 20
-109.35278
 40
9.7234612
 50
140.31088
 51
171.00833
  0
ARC
  8
0
  6
CONTINUOUS
 62
     7
 10
166.68309
 20
-102.34753
 40
11.523461
 50
319.47945
 51
351.00832
  0
ARC
  8
0
  6
CONTINUOUS
 62
     7
 10
113.3605
 20
41.189213
 40
3
 50
351.00832
 51
98.991673
  0
ARC
  8
0
  6
CONTINUOUS
 62
     7
 10
113.3605
 20
41.189213
 40
4.5
 50
351.00832
 51
98.991673
  0
ARC
  8
0
  6
CONTINUOUS
 62
     7
 10
109.11786
 20
36.946575
 40
3
 50
171.00833
 51
278.99167
  0
ARC
  8
0
  6
CONTINUOUS
 62
     7
 10
109.11786
 20
36.946575
 40
4.5
 50
171.00833
 51
278.99167
  0
ARC
  8
0
  6
CONTINUOUS
 62
     7
 10
114.15804
 20
36.14904
 40
9.6028843
 50
98.991673
 51
130.52056
  0
ARC
  8
0
  6
CONTINUOUS
 62
     7
 10
114.15804
 20
36.14904
 40
8.1028843
 50
98.991673
 51
129.68912
  0
ARC
  8
0
  6
CONTINUOUS
 62
     7
 10
108.32033
 20
41.986748
 40
8.1028843
 50
278.99167
 51
351.00832
  0
ARC
  8
0
  6
CONTINUOUS
 62
     7
 10
108.32033
 20
41.986748
 40
9.6028843
 50
278.99167
 51
310.52055
  0
ARC
  8
0
  6
CONTINUOUS
 62
     7
 10
106.33363
 20
43.973446
 40
0.9375
 50
81.869899
 51
188.1301
  0
ARC
  8
0
  6
CONTINUOUS
 62
     7
 10
110.84143
 20
39.465641
 40
0.9375
 50
261.8699
 51
8.1301031
  0
ARC
  8
0
  6
CONTINUOUS
 62
     7
 10
116.14474
 20
34.162342
 40
0.9375
 50
261.8699
 51
8.1301031
  0
ARC
  8
0
  6
CONTINUOUS
 62
     7
 10
114.15804
 20
36.14904
 40
9.6028843
 50
139.47946
 51
171.00833
  0
ARC
  8
0
  6
CONTINUOUS
 62
     7
 10
114.15804
 20
36.14904
 40
8.1028843
 50
140.31088
 51
171.00833
  0
ARC
  8
0
  6
CONTINUOUS
 62
     7
 10
108.32033
 20
41.986748
 40
9.6028843
 50
319.47945
 51
351.00832
  0
ARC
  8
0
  6
CONTINUOUS
 62
     7
 10
72.834351
 20
139.36382
 40
1.8
 50
351.00832
 51
98.991673
  0
ARC
  8
0
  6
CONTINUOUS
 62
     7
 10
72.834351
 20
139.36382
 40
2.7
 50
351.00832
 51
98.991673
  0
ARC
  8
0
  6
CONTINUOUS
 62
     7
 10
70.288773
 20
136.81822
 40
1.8
 50
171.00833
 51
278.99167
  0
ARC
  8
0
  6
CONTINUOUS
 62
     7
 10
70.288773
 20
136.81822
 40
2.7
 50
171.00833
 51
278.99167
  0
ARC
  8
0
  6
CONTINUOUS
 62
     7
 10
73.312874
 20
136.33971
 40
5.7617307
 50
98.991673
 51
130.52056
  0
ARC
  8
0
  6
CONTINUOUS
 62
     7
 10
73.312874
 20
136.33971
 40
4.8617306
 50
98.991673
 51
129.68912
  0
ARC
  8
0
  6
CONTINUOUS
 62
     7
 10
69.810249
 20
139.84233
 40
4.8617306
 50
278.99167
 51
351.00832
  0
ARC
  8
0
  6
CONTINUOUS
 62
     7
 10
69.810249
 20
139.84233
 40
5.7617307
 50
278.99167
 51
310.52055
  0
ARC
  8
0
  6
CONTINUOUS
 62
     7
 10
68.618233
 20
141.03435
 40
0.5625
 50
81.869899
 51
188.1301
  0
ARC
  8
0
  6
CONTINUOUS
 62
     7
 10
71.322914
 20
138.32967
 40
0.5625
 50
261.8699
 51
8.1301031
  0
ARC
  8
0
  6
CONTINUOUS
 62
     7
 10
74.50489
 20
135.14769
 40
0.5625
 50
261.8699
 51
8.1301031
  0
ARC
  8
0
  6
CONTINUOUS
 62
     7
 10
73.312874
 20
136.33971
 40
5.7617307
 50
139.47946
 51
171.00833
  0
ARC
  8
0
  6
CONTINUOUS
 62
     7
 10
73.312874
 20
136.33971
 40
4.8617306
 50
140.31088
 51
171.00833
  0
ARC
  8
0
  6
CONTINUOUS
 62
     7
 10
69.810249
 20
139.84233
 40
5.7617307
 50
319.47945
 51
351.00832
  0
ARC
  8
0
  6
CONTINUOUS
 62
     7
 10
-78.630135
 20
140.82828
 40
1.8
 50
351.00832
 51
98.991673
  0
ARC
  8
0
  6
CONTINUOUS
 62
     7
 10
-78.630135
 20
140.82828
 40
2.7
 50
351.00832
 51
98.991673
  0
ARC
  8
0
  6
CONTINUOUS
 62
     7
 10
-81.175713
 20
138.28268
 40
1.8
 50
171.00833
 51
278.99167
  0
ARC
  8
0
  6
CONTINUOUS
 62
     7
 10
-81.175713
 20
138.28268
 40
2.7
 50
171.00833
 51
278.99167
  0
ARC
  8
0
  6
CONTINUOUS
 62
     7
 10
-78.151611
 20
137.80417
 40
5.7617307
 50
98.991673
 51
130.52056
  0
ARC
  8
0
  6
CONTINUOUS
 62
     7
 10
-78.151611
 20
137.80417
 40
4.8617306
 50
98.991673
 51
129.68912
  0
ARC
  8
0
  6
CONTINUOUS
 62
     7
 10
-81.654236
 20
141.30679
 40
4.8617306
 50
278.99167
 51
351.00832
  0
ARC
  8
0
  6
CONTINUOUS
 62
     7
 10
-81.654236
 20
141.30679
 40
5.7617307
 50
278.99167
 51
310.52055
  0
ARC
  8
0
  6
CONTINUOUS
 62
     7
 10
-82.846252
 20
142.49881
 40
0.5625
 50
81.869899
 51
188.1301
  0
ARC
  8
0
  6
CONTINUOUS
 62
     7
 10
-80.141571
 20
139.79413
 40
0.5625
 50
261.8699
 51
8.1301031
  0
ARC
  8
0
  6
CONTINUOUS
 62
     7
 10
-76.959595
 20
136.61215
 40
0.5625
 50
261.8699
 51
8.1301031
  0
ARC
  8
0
  6
CONTINUOUS
 62
     7
 10
-78.151611
 20
137.80417
 40
5.7617307
 50
139.47946
 51
171.00833
  0
ARC
  8
0
  6
CONTINUOUS
 62
     7
 10
-78.151611
 20
137.80417
 40
4.8617306
 50
140.31088
 51
171.00833
  0
ARC
  8
0
  6
CONTINUOUS
 62
     7
 10
-81.654236
 20
141.30679
 40
5.7617307
 50
319.47945
 51
351.00832
  0
ARC
  8
0
  6
CONTINUOUS
 62
     7
 10
-6.5443282
 20
140.24249
 40
1.8
 50
351.00832
 51
98.991673
  0
ARC
  8
0
  6
CONTINUOUS
 62
     7
 10
-6.5443282
 20
140.24249
 40
2.7
 50
351.00832
 51
98.991673
  0
ARC
  8
0
  6
CONTINUOUS
 62
     7
 10
-9.0899124
 20
137.6969
 40
1.8
 50
171.00833
 51
278.99167
  0
ARC
  8
0
  6
CONTINUOUS
 62
     7
 10
-9.0899124
 20
137.6969
 40
2.7
 50
171.00833
 51
278.99167
  0
ARC
  8
0
  6
CONTINUOUS
 62
     7
 10
-6.0658073
 20
137.21838
 40
5.7617307
 50
98.991673
 51
130.52056
  0
ARC
  8
0
  6
CONTINUOUS
 62
     7
 10
-6.0658073
 20
137.21838
 40
4.8617306
 50
98.991673
 51
129.68912
  0
ARC
  8
0
  6
CONTINUOUS
 62
     7
 10
-9.5684338
 20
140.72101
 40
4.8617306
 50
278.99167
 51
351.00832
  0
ARC
  8
0
  6
CONTINUOUS
 62
     7
 10
-9.5684338
 20
140.72101
 40
5.7617307
 50
278.99167
 51
310.52055
  0
ARC
  8
0
  6
CONTINUOUS
 62
     7
 10
-10.760452
 20
141.91302
 40
0.5625
 50
81.869899
 51
188.1301
  0
ARC
  8
0
  6
CONTINUOUS
 62
     7
 10
-8.055769
 20
139.20834
 40
0.5625
 50
261.8699
 51
8.1301031
  0
ARC
  8
0
  6
CONTINUOUS
 62
     7
 10
-4.8737888
 20
136.02637
 40
0.5625
 50
261.8699
 51
8.1301031
  0
ARC
  8
0
  6
CONTINUOUS
 62
     7
 10
-6.0658073
 20
137.21838
 40
5.7617307
 50
139.47946
 51
171.00833
  0
ARC
  8
0
  6
CONTINUOUS
 62
     7
 10
-6.0658073
 20
137.21838
 40
4.8617306
 50
140.31088
 51
171.00833
  0
ARC
  8
0
  6
CONTINUOUS
 62
     7
 10
-9.5684338
 20
140.72101
 40
5.7617307
 50
319.47945
 51
351.00832
  0
ARC
  8
0
  6
CONTINUOUS
 62
     7
 10
-196.18687
 20
-95.234924
 40
3
 50
351.00832
 51
98.991673
  0
ARC
  8
0
  6
CONTINUOUS
 62
     7
 10
-196.18687
 20
-95.234924
 40
4.5
 50
351.00832
 51
98.991673
  0
ARC
  8
0
  6
CONTINUOUS
 62
     7
 10
-200.42952
 20
-99.47757
 40
3
 50
171.00833
 51
278.99167
  0
ARC
  8
0
  6
CONTINUOUS
 62
     7
 10
-200.42952
 20
-99.47757
 40
4.5
 50
171.00833
 51
278.99167
  0
ARC
  8
0
  6
CONTINUOUS
 62
     7
 10
-195.38934
 20
-100.2751
 40
9.6028843
 50
98.991673
 51
130.52056
  0
ARC
  8
0
  6
CONTINUOUS
 62
     7
 10
-195.38934
 20
-100.2751
 40
8.1028843
 50
98.991673
 51
129.68912
  0
ARC
  8
0
  6
CONTINUOUS
 62
     7
 10
-201.22705
 20
-94.437393
 40
8.1028843
 50
278.99167
 51
351.00832
  0
ARC
  8
0
  6
CONTINUOUS
 62
     7
 10
-201.22705
 20
-94.437393
 40
9.6028843
 50
278.99167
 51
310.52055
  0
ARC
  8
0
  6
CONTINUOUS
 62
     7
 10
-203.21375
 20
-92.450691
 40
0.9375
 50
81.869899
 51
188.1301
  0
ARC
  8
0
  6
CONTINUOUS
 62
     7
 10
-198.70595
 20
-96.958496
 40
0.9375
 50
261.8699
 51
8.1301031
  0
ARC
  8
0
  6
CONTINUOUS
 62
     7
 10
-193.40265
 20
-102.2618
 40
0.9375
 50
261.8699
 51
8.1301031
  0
ARC
  8
0
  6
CONTINUOUS
 62
     7
 10
-195.38934
 20
-100.2751
 40
9.6028843
 50
139.47946
 51
171.00833
  0
ARC
  8
0
  6
CONTINUOUS
 62
     7
 10
-195.38934
 20
-100.2751
 40
8.1028843
 50
140.31088
 51
171.00833
  0
ARC
  8
0
  6
CONTINUOUS
 62
     7
 10
-201.22705
 20
-94.437393
 40
9.6028843
 50
319.47945
 51
351.00832
  0
ARC
  8
0
  6
CONTINUOUS
 62
     7
 10
-145.14017
 20
140.98979
 40
1.2
 50
351.00832
 51
98.991673
  0
ARC
  8
0
  6
CONTINUOUS
 62
     7
 10
-145.14017
 20
140.98979
 40
1.8
 50
351.00832
 51
98.991673
  0
ARC
  8
0
  6
CONTINUOUS
 62
     7
 10
-146.83722
 20
139.29274
 40
1.2
 50
171.00833
 51
278.99167
  0
ARC
  8
0
  6
CONTINUOUS
 62
     7
 10
-146.83722
 20
139.29274
 40
1.8
 50
171.00833
 51
278.99167
  0
ARC
  8
0
  6
CONTINUOUS
 62
     7
 10
-144.82115
 20
138.97372
 40
3.8411539
 50
98.991673
 51
130.52056
  0
ARC
  8
0
  6
CONTINUOUS
 62
     7
 10
-144.82115
 20
138.97372
 40
3.241154
 50
98.991673
 51
129.68912
  0
ARC
  8
0
  6
CONTINUOUS
 62
     7
 10
-147.15623
 20
141.30881
 40
3.241154
 50
278.99167
 51
351.00832
  0
ARC
  8
0
  6
CONTINUOUS
 62
     7
 10
-147.15623
 20
141.30881
 40
3.8411539
 50
278.99167
 51
310.52055
  0
ARC
  8
0
  6
CONTINUOUS
 62
     7
 10
-147.95091
 20
142.10349
 40
0.375
 50
81.869899
 51
188.1301
  0
ARC
  8
0
  6
CONTINUOUS
 62
     7
 10
-146.1478
 20
140.30037
 40
0.375
 50
261.8699
 51
8.1301031
  0
ARC
  8
0
  6
CONTINUOUS
 62
     7
 10
-144.02647
 20
138.17905
 40
0.375
 50
261.8699
 51
8.1301031
  0
ARC
  8
0
  6
CONTINUOUS
 62
     7
 10
-147.15623
 20
141.30881
 40
3.8411539
 50
319.47945
 51
351.00832
  0
ARC
  8
0
  6
CONTINUOUS
 62
     7
 10
-144.82115
 20
138.97372
 40
3.241154
 50
140.31088
 51
171.00833
  0
ARC
  8
0
  6
CONTINUOUS
 62
     7
 10
-144.82115
 20
138.97372
 40
3.8411539
 50
139.47946
 51
171.00833
  0
ARC
  8
0
  6
CONTINUOUS
 62
     7
 10
-207.22595
 20
141.57558
 40
1.2
 50
351.00832
 51
98.991673
  0
ARC
  8
0
  6
CONTINUOUS
 62
     7
 10
-207.22595
 20
141.57558
 40
1.8
 50
351.00832
 51
98.991673
  0
ARC
  8
0
  6
CONTINUOUS
 62
     7
 10
-208.923
 20
139.87852
 40
1.2
 50
171.00833
 51
278.99167
  0
ARC
  8
0
  6
CONTINUOUS
 62
     7
 10
-208.923
 20
139.87852
 40
1.8
 50
171.00833
 51
278.99167
  0
ARC
  8
0
  6
CONTINUOUS
 62
     7
 10
-206.90694
 20
139.55951
 40
3.8411539
 50
98.991673
 51
130.52056
  0
ARC
  8
0
  6
CONTINUOUS
 62
     7
 10
-206.90694
 20
139.55951
 40
3.241154
 50
98.991673
 51
129.68912
  0
ARC
  8
0
  6
CONTINUOUS
 62
     7
 10
-209.24202
 20
141.89459
 40
3.241154
 50
278.99167
 51
351.00832
  0
ARC
  8
0
  6
CONTINUOUS
 62
     7
 10
-209.24202
 20
141.89459
 40
3.8411539
 50
278.99167
 51
310.52055
  0
ARC
  8
0
  6
CONTINUOUS
 62
     7
 10
-210.0367
 20
142.68927
 40
0.375
 50
81.869899
 51
188.1301
  0
ARC
  8
0
  6
CONTINUOUS
 62
     7
 10
-208.23358
 20
140.88615
 40
0.375
 50
261.8699
 51
8.1301031
  0
ARC
  8
0
  6
CONTINUOUS
 62
     7
 10
-206.11226
 20
138.76483
 40
0.375
 50
261.8699
 51
8.1301031
  0
ARC
  8
0
  6
CONTINUOUS
 62
     7
 10
-209.24202
 20
141.89459
 40
3.8411539
 50
319.47945
 51
351.00832
  0
ARC
  8
0
  6
CONTINUOUS
 62
     7
 10
-206.90694
 20
139.55951
 40
3.241154
 50
140.31088
 51
171.00833
  0
ARC
  8
0
  6
CONTINUOUS
 62
     7
 10
-206.90694
 20
139.55951
 40
3.8411539
 50
139.47946
 51
171.00833
  0
ARC
  8
0
  6
CONTINUOUS
 62
     7
 10
663.38782
 20
-16.666
 40
4.8000002
 50
351.00832
 51
98.991673
  0
ARC
  8
0
  6
CONTINUOUS
 62
     7
 10
663.38782
 20
-16.666
 40
7.1999998
 50
351.00832
 51
98.991673
  0
ARC
  8
0
  6
CONTINUOUS
 62
     7
 10
656.59961
 20
-23.454227
 40
4.8000002
 50
171.00833
 51
278.99167
  0
ARC
  8
0
  6
CONTINUOUS
 62
     7
 10
656.59961
 20
-23.454227
 40
7.1999998
 50
171.00833
 51
278.99167
  0
ARC
  8
0
  6
CONTINUOUS
 62
     7
 10
664.66388
 20
-24.730282
 40
15.364615
 50
98.991673
 51
130.52056
  0
ARC
  8
0
  6
CONTINUOUS
 62
     7
 10
664.66388
 20
-24.730282
 40
12.964616
 50
98.991673
 51
129.68912
  0
ARC
  8
0
  6
CONTINUOUS
 62
     7
 10
655.32355
 20
-15.389946
 40
15.364615
 50
278.99167
 51
310.52055
  0
ARC
  8
0
  6
CONTINUOUS
 62
     7
 10
652.14484
 20
-12.211228
 40
1.5
 50
81.869899
 51
188.1301
  0
ARC
  8
0
  6
CONTINUOUS
 62
     7
 10
659.3573
 20
-19.423717
 40
1.5
 50
261.8699
 51
8.1301031
  0
ARC
  8
0
  6
CONTINUOUS
 62
     7
 10
667.84259
 20
-27.909
 40
1.5
 50
261.8699
 51
8.1301031
  0
ARC
  8
0
  6
CONTINUOUS
 62
     7
 10
655.32355
 20
-15.389946
 40
12.964616
 50
278.99167
 51
351.00832
  0
ARC
  8
0
  6
CONTINUOUS
 62
     7
 10
655.32355
 20
-15.389946
 40
15.364615
 50
319.47945
 51
351.00832
  0
ARC
  8
0
  6
CONTINUOUS
 62
     7
 10
664.66388
 20
-24.730282
 40
12.964616
 50
140.31088
 51
171.00833
  0
ARC
  8
0
  6
CONTINUOUS
 62
     7
 10
664.66388
 20
-24.730282
 40
15.364615
 50
139.47946
 51
171.00833
  0
ARC
  8
0
  6
CONTINUOUS
 62
     7
 10
927.48834
 20
-20.766506
 40
4.8000002
 50
351.00832
 51
98.991673
  0
ARC
  8
0
  6
CONTINUOUS
 62
     7
 10
927.48834
 20
-20.766506
 40
7.1999998
 50
351.00832
 51
98.991673
  0
ARC
  8
0
  6
CONTINUOUS
 62
     7
 10
920.70013
 20
-27.554733
 40
4.8000002
 50
171.00833
 51
278.99167
  0
ARC
  8
0
  6
CONTINUOUS
 62
     7
 10
920.70013
 20
-27.554733
 40
7.1999998
 50
171.00833
 51
278.99167
  0
ARC
  8
0
  6
CONTINUOUS
 62
     7
 10
928.7644
 20
-28.830788
 40
15.364615
 50
98.991673
 51
130.52056
  0
ARC
  8
0
  6
CONTINUOUS
 62
     7
 10
928.7644
 20
-28.830788
 40
12.964616
 50
98.991673
 51
129.68912
  0
ARC
  8
0
  6
CONTINUOUS
 62
     7
 10
919.42407
 20
-19.490452
 40
15.364615
 50
278.99167
 51
310.52055
  0
ARC
  8
0
  6
CONTINUOUS
 62
     7
 10
916.24536
 20
-16.311733
 40
1.5
 50
81.869899
 51
188.1301
  0
ARC
  8
0
  6
CONTINUOUS
 62
     7
 10
923.45782
 20
-23.524223
 40
1.5
 50
261.8699
 51
8.1301031
  0
ARC
  8
0
  6
CONTINUOUS
 62
     7
 10
931.94312
 20
-32.009506
 40
1.5
 50
261.8699
 51
8.1301031
  0
ARC
  8
0
  6
CONTINUOUS
 62
     7
 10
919.42407
 20
-19.490452
 40
12.964616
 50
278.99167
 51
351.00832
  0
ARC
  8
0
  6
CONTINUOUS
 62
     7
 10
919.42407
 20
-19.490452
 40
15.364615
 50
319.47945
 51
351.00832
  0
ARC
  8
0
  6
CONTINUOUS
 62
     7
 10
928.7644
 20
-28.830788
 40
12.964616
 50
140.31088
 51
171.00833
  0
ARC
  8
0
  6
CONTINUOUS
 62
     7
 10
928.7644
 20
-28.830788
 40
15.364615
 50
139.47946
 51
171.00833
  0
TEXT
  8
0
  6
CONTINUOUS
 62
     7
 10
-209.13337
 20
156.35823
 40
5
 41
0.85534224
  1
１／８
  0
TEXT
  8
0
  6
CONTINUOUS
 62
     7
 10
-145.58978
 20
157.97375
 40
5
 41
0.85534224
  1
１／４
  0
TEXT
  8
0
  6
CONTINUOUS
 62
     7
 10
-79.89216
 20
160.66628
 40
5
 41
0.85534224
  1
３／８
  0
TEXT
  8
0
  6
CONTINUOUS
 62
     7
 10
-6.6554761
 20
161.74329
 40
5
 41
0.85534224
  1
１／２
  0
TEXT
  8
0
  6
CONTINUOUS
 62
     7
 10
70.350744
 20
166.58983
 40
5
 41
0.85534224
  1
３／４
  0
TEXT
  8
0
  6
CONTINUOUS
 62
     7
 10
161.3581
 20
169.82086
 40
5
 41
0.90036056
  1
１
  0
TEXT
  8
0
  6
CONTINUOUS
 62
     7
 10
-144.51277
 20
81.813507
 40
5
 41
0.85124967
  1
１１／４
  0
TEXT
  8
0
  6
CONTINUOUS
 62
     7
 10
-23.349133
 20
84.506035
 40
5
 41
0.85124967
  1
１１／２
  0
TEXT
  8
0
  6
CONTINUOUS
 62
     7
 10
109.42029
 20
90.09404
 40
5
 41
0.90036056
  1
２
  0
TEXT
  8
0
  6
CONTINUOUS
 62
     7
 10
-199.44029
 20
-35.580589
 40
5
 41
0.85124967
  1
２１／２
  0
TEXT
  8
0
  6
CONTINUOUS
 62
     7
 10
-26.041658
 20
-30.195539
 40
5
 41
0.90036056
  1
３
  0
TEXT
  8
0
  6
CONTINUOUS
 62
     7
 10
176.16698
 20
-13.501884
 40
5
 41
0.90036056
  1
４
  0
TEXT
  8
0
  6
CONTINUOUS
 62
     7
 10
748.77751
 20
181.83252
 40
10
 41
0.85534224
  1
エルボ
  0
TEXT
  8
0
  6
CONTINUOUS
 62
     7
 10
-35.222502
 20
181.83252
 40
10
 41
0.85534224
  1
エルボ
  0
TEXT
  8
0
  6
CONTINUOUS
 62
     7
 10
657.14306
 20
91.807777
 40
5
 41
1.0714291
  1
5
  0
TEXT
  8
0
  6
CONTINUOUS
 62
     7
 10
923.95916
 20
107.68558
 40
5
 41
1.0714291
  1
6
  0
ENDSEC
  0
EOF
