  0
SECTION
  2
HEADER
  9
$EXTMAX
 10
297.25922
 20
211.66544
  9
$EXTMIN
 10
-297.25922
 20
-210.82214
  0
ENDSEC
  0
SECTION
  2
TABLES
  0
TABLE
  2
LTYPE
 70
    22
  0
LTYPE
  2
CONTINUOUS
 70
    64
  3
Solid line
 72
    65
 73
     0
 40
0.000000
  0
LTYPE
  2
DASHED
 70
    64
  3
__ __ __ __ __ __ __ __ __ __ __ __ __ __ __
 72
    65
 73
     2
 40
3.500000
 49
2.000000
 49
-1.500000
  0
LTYPE
  2
CENTER
 70
    64
  3
____ _ ____ _ ____ _ ____ _ ____ _ ____ _ ____
 72
    65
 73
     4
 40
17.500000
 49
13.000000
 49
-1.500000
 49
1.500000
 49
-1.500000
  0
LTYPE
  2
PHANTOM
 70
    64
  3
_____ _ _ _____ _ _ _____ _ _ _____ _ _ ____  
 72
    65
 73
     6
 40
15.500000
 49
8.000000
 49
-1.500000
 49
1.500000
 49
-1.500000
 49
1.500000
 49
-1.500000
  0
LTYPE
  2
DOT
 70
    64
  3
. . . . . . . . . . . . . . . . . . . . . . . .
 72
    65
 73
     2
 40
0.25
 49
0.0
 49
-0.25
  0
ENDTAB
  0
TABLE
  2
LAYER
 70
     1
  0
LAYER
  2
0
 70
     0
 62
     7
  6
CONTINUOUS
  0
ENDTAB
  0
TABLE
  2
STYLE
 70
     1
  0
STYLE
  2
STANDARD
 70
     0
 40
0.000000
 41
1.000000
 50
0.000000
 71
     0
 42
0.200000
  3
txt
  4
BIGFONT
  0
ENDTAB
  0
TABLE
  2
VIEW
 70
     0
  0
ENDTAB
  0
ENDSEC
  0
SECTION
  2
BLOCKS
  0
BLOCK
  8
0
  2
KOZU1
 70
    64
 10
0
 20
0
  0
POINT
  8
0
  6
CONTINUOUS
 62
     7
 10
0
 20
0
  0
POINT
  8
0
  6
CONTINUOUS
 62
     7
 10
0
 20
4.7835693
  0
LINE
  8
0
  6
CONTINUOUS
 62
     7
 10
6.5
 20
-3.1063843
 11
15.702942
 21
-3.1063843
  0
LINE
  8
0
  6
CENTER
 62
     7
 10
-5.5
 20
0
 11
18.702942
 21
0
  0
LINE
  8
0
  6
CONTINUOUS
 62
     7
 10
8.2022095
 20
-7.5000153
 11
15
 21
-7.5000153
  0
LINE
  8
0
  6
CONTINUOUS
 62
     7
 10
15.000067
 20
7.4999828
 11
15.702997
 21
4.8639936
  0
LINE
  8
0
  6
CONTINUOUS
 62
     7
 10
15.702942
 20
-4.8640137
 11
15.702942
 21
4.8639832
  0
LINE
  8
0
  6
CONTINUOUS
 62
     7
 10
-16.202942
 20
3.1066284
 11
-9.706604
 21
3.1066284
  0
LINE
  8
0
  6
CONTINUOUS
 62
     7
 10
8.2022095
 20
7.5
 11
15
 21
7.5
  0
LINE
  8
0
  6
CONTINUOUS
 62
     7
 10
15.703018
 20
-4.8639898
 11
15.000084
 21
-7.4999933
  0
LINE
  8
0
  6
CENTER
 62
     7
 10
-5.5
 20
0
 11
18.702942
 21
0
  0
LINE
  8
0
  6
CONTINUOUS
 62
     7
 10
6.5
 20
-7.5000153
 11
15.000077
 21
-7.5000153
  0
LINE
  8
0
  6
CONTINUOUS
 62
     7
 10
15.000067
 20
7.4999828
 11
15.702997
 21
4.8639936
  0
LINE
  8
0
  6
CONTINUOUS
 62
     7
 10
15.702942
 20
-4.8640137
 11
15.702942
 21
4.8639832
  0
LINE
  8
0
  6
CONTINUOUS
 62
     7
 10
-16.202942
 20
-3.1063843
 11
-9.706604
 21
-3.1063843
  0
LINE
  8
0
  6
CONTINUOUS
 62
     7
 10
6.5
 20
3.1066284
 11
15.702942
 21
3.1066284
  0
LINE
  8
0
  6
CONTINUOUS
 62
     7
 10
6.5
 20
7.5
 11
15.000062
 21
7.5
  0
LINE
  8
0
  6
CONTINUOUS
 62
     7
 10
15.703018
 20
-4.8639898
 11
15.000084
 21
-7.4999933
  0
LINE
  8
0
  6
CONTINUOUS
 62
     7
 10
-9.706604
 20
-7.5000153
 11
-15.5
 21
-7.5000153
  0
LINE
  8
0
  6
CONTINUOUS
 62
     7
 10
-9.706604
 20
7.5
 11
-15.5
 21
7.5
  0
LINE
  8
0
  6
CONTINUOUS
 62
     7
 10
-15.500115
 20
-7.5000167
 11
-16.203051
 21
-4.8640127
  0
LINE
  8
0
  6
CONTINUOUS
 62
     7
 10
-16.202942
 20
4.8639832
 11
-16.202942
 21
-4.8640137
  0
LINE
  8
0
  6
CONTINUOUS
 62
     7
 10
-16.202997
 20
4.8639932
 11
-15.500064
 21
7.4999967
  0
LINE
  8
0
  6
CONTINUOUS
 62
     7
 10
-6.5311923
 20
-10.500004
 11
-7.541553
 21
-8.7500076
  0
LINE
  8
0
  6
CENTER
 62
     7
 10
3.5
 20
0
 11
-19.5
 21
0
  0
LINE
  8
0
  6
CONTINUOUS
 62
     7
 10
-6.5311732
 20
10.499986
 11
-7.5415339
 21
8.7499895
  0
LINE
  8
0
  6
CONTINUOUS
 62
     7
 10
-5.905426
 20
-13.529892
 11
5.9054184
 21
-13.529892
  0
LINE
  8
0
  6
CONTINUOUS
 62
     7
 10
5.9053965
 20
-13.529911
 11
6.5000014
 21
-12.500026
  0
LINE
  8
0
  6
CENTER
 62
     7
 10
-9.5
 20
0
 11
9.5
 21
0
  0
LINE
  8
0
  6
CONTINUOUS
 62
     7
 10
-5.9054084
 20
-13.529912
 11
-6.4999976
 21
-12.500053
  0
LINE
  8
0
  6
CONTINUOUS
 62
     7
 10
-5.905426
 20
-9.5670471
 11
5.9054184
 21
-9.5670471
  0
LINE
  8
0
  6
CONTINUOUS
 62
     7
 10
-5.905426
 20
-13.529892
 11
5.9054184
 21
-13.529892
  0
LINE
  8
0
  6
CONTINUOUS
 62
     7
 10
6.5
 20
12.5
 11
6.5
 21
-12.500046
  0
LINE
  8
0
  6
CONTINUOUS
 62
     7
 10
5.9053965
 20
-13.529911
 11
6.5000014
 21
-12.500026
  0
LINE
  8
0
  6
CONTINUOUS
 62
     7
 10
-6.5
 20
12.500031
 11
-6.5
 21
-12.500061
  0
LINE
  8
0
  6
CONTINUOUS
 62
     7
 10
-5.9054084
 20
-13.529912
 11
-6.4999976
 21
-12.500053
  0
LINE
  8
0
  6
CONTINUOUS
 62
     7
 10
-5.905426
 20
-9.5670471
 11
5.9054184
 21
-9.5670471
  0
LINE
  8
0
  6
CONTINUOUS
 62
     7
 10
-5.905426
 20
13.529877
 11
5.9054184
 21
13.529877
  0
LINE
  8
0
  6
CONTINUOUS
 62
     7
 10
5.9054046
 20
13.529877
 11
6.5000019
 21
12.500004
  0
LINE
  8
0
  6
CONTINUOUS
 62
     7
 10
-5.9054165
 20
13.529877
 11
-6.5000057
 21
12.500018
  0
LINE
  8
0
  6
CONTINUOUS
 62
     7
 10
-5.905426
 20
9.5670166
 11
5.9054184
 21
9.5670166
  0
LINE
  8
0
  6
CONTINUOUS
 62
     7
 10
-5.905426
 20
13.529877
 11
5.9054184
 21
13.529877
  0
LINE
  8
0
  6
CONTINUOUS
 62
     7
 10
-5.905426
 20
0
 11
5.9054184
 21
0
  0
LINE
  8
0
  6
CONTINUOUS
 62
     7
 10
5.9054046
 20
13.529877
 11
6.5000019
 21
12.500004
  0
LINE
  8
0
  6
CONTINUOUS
 62
     7
 10
-5.9054165
 20
13.529877
 11
-6.5000057
 21
12.500018
  0
LINE
  8
0
  6
CONTINUOUS
 62
     7
 10
-5.905426
 20
9.5670166
 11
5.9054184
 21
9.5670166
  0
ARC
  8
0
  6
CONTINUOUS
 62
     7
 10
8.2022095
 20
9.5
 40
2
 50
211.66834
 51
270.00002
  0
ARC
  8
0
  6
CONTINUOUS
 62
     7
 10
8.2022095
 20
-9.5000153
 40
2
 50
89.999927
 51
148.3316
  0
ARC
  8
0
  6
CONTINUOUS
 62
     7
 10
-9.706604
 20
-10.000015
 40
2.5
 50
29.999997
 51
90.000003
  0
ARC
  8
0
  6
CONTINUOUS
 62
     7
 10
-9.706604
 20
10
 40
2.5
 50
270
 51
330
  0
POLYLINE
  8
0
  6
CONTINUOUS
 62
     7
 66
     1
 10
0
 20
0
  0
VERTEX
  8
0
  6
CONTINUOUS
 62
     7
 10
-5.905426
 20
9.5670166
 42
0.039939361
  0
VERTEX
  8
0
  6
CONTINUOUS
 62
     7
 10
-6.4320726
 20
6.3927053
 42
0.042206374
  0
VERTEX
  8
0
  6
CONTINUOUS
 62
     7
 10
-6.4321083
 20
3.1747302
 42
0.039944715
  0
VERTEX
  8
0
  6
CONTINUOUS
 62
     7
 10
-5.905426
 20
0
 42
0
  0
SEQEND
  8
0
  0
POLYLINE
  8
0
  6
CONTINUOUS
 62
     7
 66
     1
 10
0
 20
0
  0
VERTEX
  8
0
  6
CONTINUOUS
 62
     7
 10
-5.905426
 20
-9.5670471
 42
-0.039939489
  0
VERTEX
  8
0
  6
CONTINUOUS
 62
     7
 10
-6.4320734
 20
-6.3927257
 42
-0.042206103
  0
VERTEX
  8
0
  6
CONTINUOUS
 62
     7
 10
-6.4321086
 20
-3.1747557
 42
-0.039944821
  0
VERTEX
  8
0
  6
CONTINUOUS
 62
     7
 10
-5.905426
 20
0
 42
0
  0
SEQEND
  8
0
  0
POLYLINE
  8
0
  6
CONTINUOUS
 62
     7
 66
     1
 10
0
 20
0
  0
VERTEX
  8
0
  6
CONTINUOUS
 62
     7
 10
-5.905426
 20
-13.529892
 42
-0.081976972
  0
VERTEX
  8
0
  6
CONTINUOUS
 62
     7
 10
-6.4244435
 20
-12.240941
 42
-0.10911077
  0
VERTEX
  8
0
  6
CONTINUOUS
 62
     7
 10
-6.4244475
 20
-10.856027
 42
-0.081978086
  0
VERTEX
  8
0
  6
CONTINUOUS
 62
     7
 10
-5.905426
 20
-9.5670471
 42
0
  0
SEQEND
  8
0
  0
POLYLINE
  8
0
  6
CONTINUOUS
 62
     7
 66
     1
 10
0
 20
0
  0
VERTEX
  8
0
  6
CONTINUOUS
 62
     7
 10
5.9054184
 20
-13.529892
 42
0.081975697
  0
VERTEX
  8
0
  6
CONTINUOUS
 62
     7
 10
6.4244414
 20
-12.240941
 42
0.1091137
  0
VERTEX
  8
0
  6
CONTINUOUS
 62
     7
 10
6.4244454
 20
-10.856027
 42
0.081976812
  0
VERTEX
  8
0
  6
CONTINUOUS
 62
     7
 10
5.9054184
 20
-9.5670471
 42
0
  0
SEQEND
  8
0
  0
POLYLINE
  8
0
  6
CONTINUOUS
 62
     7
 66
     1
 10
0
 20
0
  0
VERTEX
  8
0
  6
CONTINUOUS
 62
     7
 10
5.9054184
 20
-9.5670471
 42
0.039938959
  0
VERTEX
  8
0
  6
CONTINUOUS
 62
     7
 10
6.4320715
 20
-6.3927258
 42
0.042207334
  0
VERTEX
  8
0
  6
CONTINUOUS
 62
     7
 10
6.4321066
 20
-3.1747555
 42
0.039944289
  0
VERTEX
  8
0
  6
CONTINUOUS
 62
     7
 10
5.9054184
 20
0
 42
0
  0
SEQEND
  8
0
  0
POLYLINE
  8
0
  6
CONTINUOUS
 62
     7
 66
     1
 10
0
 20
0
  0
VERTEX
  8
0
  6
CONTINUOUS
 62
     7
 10
-5.905426
 20
-9.5670471
 42
-0.039939489
  0
VERTEX
  8
0
  6
CONTINUOUS
 62
     7
 10
-6.4320734
 20
-6.3927257
 42
-0.042206103
  0
VERTEX
  8
0
  6
CONTINUOUS
 62
     7
 10
-6.4321086
 20
-3.1747557
 42
-0.039944821
  0
VERTEX
  8
0
  6
CONTINUOUS
 62
     7
 10
-5.905426
 20
0
 42
0
  0
SEQEND
  8
0
  0
POLYLINE
  8
0
  6
CONTINUOUS
 62
     7
 66
     1
 10
0
 20
0
  0
VERTEX
  8
0
  6
CONTINUOUS
 62
     7
 10
-5.905426
 20
-13.529892
 42
-0.081976972
  0
VERTEX
  8
0
  6
CONTINUOUS
 62
     7
 10
-6.4244435
 20
-12.240941
 42
-0.10911077
  0
VERTEX
  8
0
  6
CONTINUOUS
 62
     7
 10
-6.4244475
 20
-10.856027
 42
-0.081978086
  0
VERTEX
  8
0
  6
CONTINUOUS
 62
     7
 10
-5.905426
 20
-9.5670471
 42
0
  0
SEQEND
  8
0
  0
POLYLINE
  8
0
  6
CONTINUOUS
 62
     7
 66
     1
 10
0
 20
0
  0
VERTEX
  8
0
  6
CONTINUOUS
 62
     7
 10
5.9054184
 20
-13.529892
 42
0.081975697
  0
VERTEX
  8
0
  6
CONTINUOUS
 62
     7
 10
6.4244414
 20
-12.240941
 42
0.1091137
  0
VERTEX
  8
0
  6
CONTINUOUS
 62
     7
 10
6.4244454
 20
-10.856027
 42
0.081976812
  0
VERTEX
  8
0
  6
CONTINUOUS
 62
     7
 10
5.9054184
 20
-9.5670471
 42
0
  0
SEQEND
  8
0
  0
POLYLINE
  8
0
  6
CONTINUOUS
 62
     7
 66
     1
 10
0
 20
0
  0
VERTEX
  8
0
  6
CONTINUOUS
 62
     7
 10
5.9054184
 20
-9.5670471
 42
0.039938959
  0
VERTEX
  8
0
  6
CONTINUOUS
 62
     7
 10
6.4320715
 20
-6.3927258
 42
0.042207334
  0
VERTEX
  8
0
  6
CONTINUOUS
 62
     7
 10
6.4321066
 20
-3.1747555
 42
0.039944289
  0
VERTEX
  8
0
  6
CONTINUOUS
 62
     7
 10
5.9054184
 20
0
 42
0
  0
SEQEND
  8
0
  0
POLYLINE
  8
0
  6
CONTINUOUS
 62
     7
 66
     1
 10
0
 20
0
  0
VERTEX
  8
0
  6
CONTINUOUS
 62
     7
 10
-5.905426
 20
13.529877
 42
0.081977299
  0
VERTEX
  8
0
  6
CONTINUOUS
 62
     7
 10
-6.4244445
 20
12.240921
 42
0.10910999
  0
VERTEX
  8
0
  6
CONTINUOUS
 62
     7
 10
-6.4244478
 20
10.856009
 42
0.081978499
  0
VERTEX
  8
0
  6
CONTINUOUS
 62
     7
 10
-5.905426
 20
9.5670166
 42
0
  0
SEQEND
  8
0
  0
POLYLINE
  8
0
  6
CONTINUOUS
 62
     7
 66
     1
 10
0
 20
0
  0
VERTEX
  8
0
  6
CONTINUOUS
 62
     7
 10
5.9054184
 20
13.529877
 42
-0.081976024
  0
VERTEX
  8
0
  6
CONTINUOUS
 62
     7
 10
6.4244425
 20
12.240921
 42
-0.10911292
  0
VERTEX
  8
0
  6
CONTINUOUS
 62
     7
 10
6.4244458
 20
10.856009
 42
-0.081977225
  0
VERTEX
  8
0
  6
CONTINUOUS
 62
     7
 10
5.9054184
 20
9.5670166
 42
0
  0
SEQEND
  8
0
  0
POLYLINE
  8
0
  6
CONTINUOUS
 62
     7
 66
     1
 10
0
 20
0
  0
VERTEX
  8
0
  6
CONTINUOUS
 62
     7
 10
5.9054184
 20
9.5670166
 42
-0.039938831
  0
VERTEX
  8
0
  6
CONTINUOUS
 62
     7
 10
6.4320706
 20
6.3927053
 42
-0.042207605
  0
VERTEX
  8
0
  6
CONTINUOUS
 62
     7
 10
6.4321063
 20
3.17473
 42
-0.039944183
  0
VERTEX
  8
0
  6
CONTINUOUS
 62
     7
 10
5.9054184
 20
0
 42
0
  0
SEQEND
  8
0
  0
POLYLINE
  8
0
  6
CONTINUOUS
 62
     7
 66
     1
 10
0
 20
0
  0
VERTEX
  8
0
  6
CONTINUOUS
 62
     7
 10
-5.905426
 20
9.5670166
 42
0.039939361
  0
VERTEX
  8
0
  6
CONTINUOUS
 62
     7
 10
-6.4320726
 20
6.3927053
 42
0.042206374
  0
VERTEX
  8
0
  6
CONTINUOUS
 62
     7
 10
-6.4321083
 20
3.1747302
 42
0.039944715
  0
VERTEX
  8
0
  6
CONTINUOUS
 62
     7
 10
-5.905426
 20
0
 42
0
  0
SEQEND
  8
0
  0
POLYLINE
  8
0
  6
CONTINUOUS
 62
     7
 66
     1
 10
0
 20
0
  0
VERTEX
  8
0
  6
CONTINUOUS
 62
     7
 10
-5.905426
 20
13.529877
 42
0.081977299
  0
VERTEX
  8
0
  6
CONTINUOUS
 62
     7
 10
-6.4244445
 20
12.240921
 42
0.10910999
  0
VERTEX
  8
0
  6
CONTINUOUS
 62
     7
 10
-6.4244478
 20
10.856009
 42
0.081978499
  0
VERTEX
  8
0
  6
CONTINUOUS
 62
     7
 10
-5.905426
 20
9.5670166
 42
0
  0
SEQEND
  8
0
  0
POLYLINE
  8
0
  6
CONTINUOUS
 62
     7
 66
     1
 10
0
 20
0
  0
VERTEX
  8
0
  6
CONTINUOUS
 62
     7
 10
5.9054184
 20
13.529877
 42
-0.081976024
  0
VERTEX
  8
0
  6
CONTINUOUS
 62
     7
 10
6.4244425
 20
12.240921
 42
-0.10911292
  0
VERTEX
  8
0
  6
CONTINUOUS
 62
     7
 10
6.4244458
 20
10.856009
 42
-0.081977225
  0
VERTEX
  8
0
  6
CONTINUOUS
 62
     7
 10
5.9054184
 20
9.5670166
 42
0
  0
SEQEND
  8
0
  0
POLYLINE
  8
0
  6
CONTINUOUS
 62
     7
 66
     1
 10
0
 20
0
  0
VERTEX
  8
0
  6
CONTINUOUS
 62
     7
 10
5.9054184
 20
9.5670166
 42
-0.039938831
  0
VERTEX
  8
0
  6
CONTINUOUS
 62
     7
 10
6.4320706
 20
6.3927053
 42
-0.042207605
  0
VERTEX
  8
0
  6
CONTINUOUS
 62
     7
 10
6.4321063
 20
3.17473
 42
-0.039944183
  0
VERTEX
  8
0
  6
CONTINUOUS
 62
     7
 10
5.9054184
 20
0
 42
0
  0
SEQEND
  8
0
  0
TEXT
  8
0
  6
CONTINUOUS
 62
     7
 10
-4.9462825
 20
14.512242
 40
3.2
 41
1.0178906
  1
1/8
  0
LINE
  8
0
  6
CONTINUOUS
 62
     7
 10
-2.5
 20
5.0335692
 11
-1.8152224
 21
5.0335693
  0
LINE
  8
0
  6
CONTINUOUS
 62
     7
 10
-2.5
 20
4.5335692
 11
-1.8152224
 21
4.5335693
  0
LINE
  8
0
  6
CONTINUOUS
 62
     7
 10
1.8152224
 20
4.5335694
 11
2.5
 21
4.5335694
  0
LINE
  8
0
  6
CONTINUOUS
 62
     7
 10
1.8152224
 20
5.0335694
 11
2.5
 21
5.0335694
  0
LINE
  8
0
  6
CONTINUOUS
 62
     7
 10
-1.3134051
 20
4.5335693
 11
1.0927848E-008
 21
4.5335693
  0
LINE
  8
0
  6
CONTINUOUS
 62
     7
 10
-1.3134052
 20
5.0335693
 11
-1.0927848E-008
 21
5.0335693
  0
ARC
  8
0
  6
CONTINUOUS
 62
     7
 10
-4.371139E-008
 20
5.7835693
 40
1
 50
36.008327
 51
143.99168
  0
ARC
  8
0
  6
CONTINUOUS
 62
     7
 10
-4.371139E-008
 20
5.7835693
 40
1.5
 50
36.008327
 51
143.99168
  0
ARC
  8
0
  6
CONTINUOUS
 62
     7
 10
4.371139E-008
 20
3.7835693
 40
1
 50
216.00833
 51
323.99168
  0
ARC
  8
0
  6
CONTINUOUS
 62
     7
 10
4.371139E-008
 20
3.7835693
 40
1.5
 50
216.00833
 51
323.99168
  0
ARC
  8
0
  6
CONTINUOUS
 62
     7
 10
1.3759615
 20
4.7835694
 40
3.2009616
 50
143.99168
 51
175.52056
  0
ARC
  8
0
  6
CONTINUOUS
 62
     7
 10
1.3759615
 20
4.7835694
 40
2.7009616
 50
143.99168
 51
174.68912
  0
ARC
  8
0
  6
CONTINUOUS
 62
     7
 10
-1.3759615
 20
4.7835693
 40
2.7009616
 50
323.99167
 51
36.008327
  0
ARC
  8
0
  6
CONTINUOUS
 62
     7
 10
-1.3759615
 20
4.7835693
 40
3.2009616
 50
323.99167
 51
355.52055
  0
ARC
  8
0
  6
CONTINUOUS
 62
     7
 10
-2.3125
 20
4.7835692
 40
0.3125
 50
126.8699
 51
233.1301
  0
ARC
  8
0
  6
CONTINUOUS
 62
     7
 10
-0.1875
 20
4.7835693
 40
0.3125
 50
306.86991
 51
53.130105
  0
ARC
  8
0
  6
CONTINUOUS
 62
     7
 10
2.3125
 20
4.7835694
 40
0.3125
 50
306.86991
 51
53.130105
  0
ARC
  8
0
  6
CONTINUOUS
 62
     7
 10
-1.3759615
 20
4.7835693
 40
3.2009616
 50
4.4794498
 51
36.008327
  0
ARC
  8
0
  6
CONTINUOUS
 62
     7
 10
1.3759615
 20
4.7835694
 40
2.7009616
 50
185.31088
 51
216.00833
  0
ARC
  8
0
  6
CONTINUOUS
 62
     7
 10
1.3759615
 20
4.7835694
 40
3.2009616
 50
184.47945
 51
216.00833
  0
ENDBLK
  8
0
  0
BLOCK
  8
0
  2
KOZU2
 70
    64
 10
0
 20
0
  0
POINT
  8
0
  6
CONTINUOUS
 62
     7
 10
0
 20
0
  0
LINE
  8
0
  6
CONTINUOUS
 62
     7
 10
-6.0126801
 20
0
 11
6.0126801
 21
0
  0
LINE
  8
0
  6
CONTINUOUS
 62
     7
 10
6.75
 20
9.5
 11
16.749992
 21
9.5
  0
LINE
  8
0
  6
CONTINUOUS
 62
     7
 10
6.75
 20
-9.5
 11
16.74999
 21
-9.5
  0
LINE
  8
0
  6
CONTINUOUS
 62
     7
 10
16.749994
 20
9.4999981
 11
17.413971
 21
6.5784979
  0
LINE
  8
0
  6
CONTINUOUS
 62
     7
 10
17.413971
 20
-6.5785217
 11
17.413971
 21
6.5784912
  0
LINE
  8
0
  6
CONTINUOUS
 62
     7
 10
17.413963
 20
-6.5785165
 11
16.749987
 21
-9.5000172
  0
LINE
  8
0
  6
CONTINUOUS
 62
     7
 10
6.75
 20
3.9350281
 11
17.413971
 21
3.9350281
  0
LINE
  8
0
  6
CONTINUOUS
 62
     7
 10
-17.914001
 20
3.9350281
 11
-10.2453
 21
3.9350281
  0
LINE
  8
0
  6
CONTINUOUS
 62
     7
 10
6.75
 20
-3.9350586
 11
17.413971
 21
-3.9350586
  0
LINE
  8
0
  6
CONTINUOUS
 62
     7
 10
-10.2453
 20
9.5
 11
-17.250031
 21
9.5
  0
LINE
  8
0
  6
CONTINUOUS
 62
     7
 10
-17.914001
 20
6.5785108
 11
-17.250023
 21
9.5000114
  0
LINE
  8
0
  6
CONTINUOUS
 62
     7
 10
-17.914001
 20
6.5784912
 11
-17.914001
 21
-6.5784912
  0
LINE
  8
0
  6
CONTINUOUS
 62
     7
 10
-17.249996
 20
-9.5000095
 11
-17.913975
 21
-6.5785093
  0
LINE
  8
0
  6
CONTINUOUS
 62
     7
 10
-10.2453
 20
-9.5
 11
-17.250031
 21
-9.5
  0
LINE
  8
0
  6
CONTINUOUS
 62
     7
 10
-17.914001
 20
-3.9350586
 11
-10.2453
 21
-3.9350586
  0
LINE
  8
0
  6
CONTINUOUS
 62
     7
 10
-6.7811818
 20
-12.999994
 11
-8.080224
 21
-10.749989
  0
LINE
  8
0
  6
CONTINUOUS
 62
     7
 10
-6.7812023
 20
12.999984
 11
-8.0802288
 21
10.750004
  0
LINE
  8
0
  6
CONTINUOUS
 62
     7
 10
-6.0126801
 20
-16.777069
 11
6.0126801
 21
-16.777069
  0
LINE
  8
0
  6
CONTINUOUS
 62
     7
 10
-6.0126801
 20
-11.863205
 11
6.0126801
 21
-11.863205
  0
LINE
  8
0
  6
CONTINUOUS
 62
     7
 10
-6.0126529
 20
-16.777109
 11
-6.7499809
 21
-15.50002
  0
LINE
  8
0
  6
CONTINUOUS
 62
     7
 10
6.0126448
 20
-16.777119
 11
6.74998
 21
-15.500017
  0
LINE
  8
0
  6
CONTINUOUS
 62
     7
 10
-6.75
 20
0
 11
-6.75
 21
-15.499985
  0
LINE
  8
0
  6
CONTINUOUS
 62
     7
 10
6.75
 20
0
 11
6.75
 21
-15.499985
  0
LINE
  8
0
  6
CONTINUOUS
 62
     7
 10
-6.0126801
 20
16.777069
 11
6.0126801
 21
16.777069
  0
LINE
  8
0
  6
CONTINUOUS
 62
     7
 10
-6.0126801
 20
11.86319
 11
6.0126801
 21
11.86319
  0
LINE
  8
0
  6
CONTINUOUS
 62
     7
 10
-6.0126581
 20
16.777092
 11
-6.7499785
 21
15.500016
  0
LINE
  8
0
  6
CONTINUOUS
 62
     7
 10
6.0126514
 20
16.777103
 11
6.7499871
 21
15.500002
  0
LINE
  8
0
  6
CONTINUOUS
 62
     7
 10
-6.75
 20
0
 11
-6.75
 21
15.499969
  0
LINE
  8
0
  6
CONTINUOUS
 62
     7
 10
6.75
 20
0
 11
6.75
 21
15.499969
  0
LINE
  8
0
  6
CENTER
 62
     7
 10
-21.449677
 20
0
 11
20.171118
 21
0
  0
ARC
  8
0
  6
CONTINUOUS
 62
     7
 10
-10.2453
 20
12
 40
2.5
 50
270
 51
330
  0
ARC
  8
0
  6
CONTINUOUS
 62
     7
 10
-10.2453
 20
-12.000015
 40
2.5
 50
29.999997
 51
90.000003
  0
POLYLINE
  8
0
  6
CONTINUOUS
 62
     7
 66
     1
 10
0
 20
0
  0
VERTEX
  8
0
  6
CONTINUOUS
 62
     7
 10
6.0126801
 20
0
 42
0.03994049
  0
VERTEX
  8
0
  6
CONTINUOUS
 62
     7
 10
6.6657628
 20
3.9361741
 42
0.042210209
  0
VERTEX
  8
0
  6
CONTINUOUS
 62
     7
 10
6.6658023
 20
7.9265567
 42
0.039945264
  0
VERTEX
  8
0
  6
CONTINUOUS
 62
     7
 10
6.0126801
 20
11.86319
 42
0
  0
SEQEND
  8
0
  0
POLYLINE
  8
0
  6
CONTINUOUS
 62
     7
 66
     1
 10
0
 20
0
  0
VERTEX
  8
0
  6
CONTINUOUS
 62
     7
 10
6.0126801
 20
0
 42
-0.039940541
  0
VERTEX
  8
0
  6
CONTINUOUS
 62
     7
 10
6.6657633
 20
-3.9361791
 42
-0.0422101
  0
VERTEX
  8
0
  6
CONTINUOUS
 62
     7
 10
6.6658024
 20
-7.9265592
 42
-0.039945306
  0
VERTEX
  8
0
  6
CONTINUOUS
 62
     7
 10
6.0126801
 20
-11.863205
 42
0
  0
SEQEND
  8
0
  0
POLYLINE
  8
0
  6
CONTINUOUS
 62
     7
 66
     1
 10
0
 20
0
  0
VERTEX
  8
0
  6
CONTINUOUS
 62
     7
 10
-6.0126801
 20
0
 42
0.039940541
  0
VERTEX
  8
0
  6
CONTINUOUS
 62
     7
 10
-6.6657633
 20
-3.9361791
 42
0.0422101
  0
VERTEX
  8
0
  6
CONTINUOUS
 62
     7
 10
-6.6658024
 20
-7.9265592
 42
0.039945306
  0
VERTEX
  8
0
  6
CONTINUOUS
 62
     7
 10
-6.0126801
 20
-11.863205
 42
0
  0
SEQEND
  8
0
  0
POLYLINE
  8
0
  6
CONTINUOUS
 62
     7
 66
     1
 10
0
 20
0
  0
VERTEX
  8
0
  6
CONTINUOUS
 62
     7
 10
-6.0126801
 20
-11.863205
 42
0.081978728
  0
VERTEX
  8
0
  6
CONTINUOUS
 62
     7
 10
-6.6563001
 20
-13.461479
 42
0.10912416
  0
VERTEX
  8
0
  6
CONTINUOUS
 62
     7
 10
-6.6562989
 20
-15.178799
 42
0.08197837
  0
VERTEX
  8
0
  6
CONTINUOUS
 62
     7
 10
-6.0126801
 20
-16.777069
 42
0
  0
SEQEND
  8
0
  0
POLYLINE
  8
0
  6
CONTINUOUS
 62
     7
 66
     1
 10
0
 20
0
  0
VERTEX
  8
0
  6
CONTINUOUS
 62
     7
 10
6.0126801
 20
-11.863205
 42
-0.081978728
  0
VERTEX
  8
0
  6
CONTINUOUS
 62
     7
 10
6.6563001
 20
-13.461479
 42
-0.10912416
  0
VERTEX
  8
0
  6
CONTINUOUS
 62
     7
 10
6.6562989
 20
-15.178799
 42
-0.08197837
  0
VERTEX
  8
0
  6
CONTINUOUS
 62
     7
 10
6.0126801
 20
-16.777069
 42
0
  0
SEQEND
  8
0
  0
POLYLINE
  8
0
  6
CONTINUOUS
 62
     7
 66
     1
 10
0
 20
0
  0
VERTEX
  8
0
  6
CONTINUOUS
 62
     7
 10
-6.0126801
 20
0
 42
-0.03994049
  0
VERTEX
  8
0
  6
CONTINUOUS
 62
     7
 10
-6.6657628
 20
3.9361741
 42
-0.042210209
  0
VERTEX
  8
0
  6
CONTINUOUS
 62
     7
 10
-6.6658023
 20
7.9265567
 42
-0.039945264
  0
VERTEX
  8
0
  6
CONTINUOUS
 62
     7
 10
-6.0126801
 20
11.86319
 42
0
  0
SEQEND
  8
0
  0
POLYLINE
  8
0
  6
CONTINUOUS
 62
     7
 66
     1
 10
0
 20
0
  0
VERTEX
  8
0
  6
CONTINUOUS
 62
     7
 10
-6.0126801
 20
11.86319
 42
-0.081978651
  0
VERTEX
  8
0
  6
CONTINUOUS
 62
     7
 10
-6.6562989
 20
13.46147
 42
-0.10912439
  0
VERTEX
  8
0
  6
CONTINUOUS
 62
     7
 10
-6.6562984
 20
15.178801
 42
-0.081978223
  0
VERTEX
  8
0
  6
CONTINUOUS
 62
     7
 10
-6.0126801
 20
16.777069
 42
0
  0
SEQEND
  8
0
  0
POLYLINE
  8
0
  6
CONTINUOUS
 62
     7
 66
     1
 10
0
 20
0
  0
VERTEX
  8
0
  6
CONTINUOUS
 62
     7
 10
6.0126801
 20
11.86319
 42
0.081978651
  0
VERTEX
  8
0
  6
CONTINUOUS
 62
     7
 10
6.6562989
 20
13.46147
 42
0.10912439
  0
VERTEX
  8
0
  6
CONTINUOUS
 62
     7
 10
6.6562984
 20
15.178801
 42
0.081978223
  0
VERTEX
  8
0
  6
CONTINUOUS
 62
     7
 10
6.0126801
 20
16.777069
 42
0
  0
SEQEND
  8
0
  0
TEXT
  8
0
  6
CONTINUOUS
 62
     7
 10
-3.8561679
 20
18.960093
 40
3.2
 41
1.0178906
  1
1/4
  0
LINE
  8
0
  6
CONTINUOUS
 62
     7
 10
-3
 20
6.2315795
 11
-2.1782668
 21
6.2315795
  0
LINE
  8
0
  6
CONTINUOUS
 62
     7
 10
-3
 20
5.6315794
 11
-2.1782668
 21
5.6315795
  0
LINE
  8
0
  6
CONTINUOUS
 62
     7
 10
2.1782668
 20
5.6315797
 11
3
 21
5.6315797
  0
LINE
  8
0
  6
CONTINUOUS
 62
     7
 10
2.1782668
 20
6.2315797
 11
3
 21
6.2315797
  0
LINE
  8
0
  6
CONTINUOUS
 62
     7
 10
-1.5760862
 20
5.6315795
 11
1.3113418E-008
 21
5.6315796
  0
LINE
  8
0
  6
CONTINUOUS
 62
     7
 10
-1.5760862
 20
6.2315795
 11
-1.3113418E-008
 21
6.2315796
  0
ARC
  8
0
  6
CONTINUOUS
 62
     7
 10
-5.245367E-008
 20
7.1315796
 40
1.2
 50
36.008327
 51
143.99168
  0
ARC
  8
0
  6
CONTINUOUS
 62
     7
 10
-5.245367E-008
 20
7.1315796
 40
1.8
 50
36.008327
 51
143.99168
  0
ARC
  8
0
  6
CONTINUOUS
 62
     7
 10
5.245367E-008
 20
4.7315795
 40
1.2
 50
216.00833
 51
323.99168
  0
ARC
  8
0
  6
CONTINUOUS
 62
     7
 10
5.245367E-008
 20
4.7315795
 40
1.8
 50
216.00833
 51
323.99168
  0
ARC
  8
0
  6
CONTINUOUS
 62
     7
 10
1.6511538
 20
5.9315797
 40
3.8411539
 50
143.99168
 51
175.52056
  0
ARC
  8
0
  6
CONTINUOUS
 62
     7
 10
1.6511538
 20
5.9315797
 40
3.241154
 50
143.99168
 51
174.68912
  0
ARC
  8
0
  6
CONTINUOUS
 62
     7
 10
-1.6511538
 20
5.9315795
 40
3.241154
 50
323.99167
 51
36.008327
  0
ARC
  8
0
  6
CONTINUOUS
 62
     7
 10
-1.6511538
 20
5.9315795
 40
3.8411539
 50
323.99167
 51
355.52055
  0
ARC
  8
0
  6
CONTINUOUS
 62
     7
 10
-2.7750001
 20
5.9315795
 40
0.375
 50
126.8699
 51
233.1301
  0
ARC
  8
0
  6
CONTINUOUS
 62
     7
 10
-0.22499999
 20
5.9315796
 40
0.375
 50
306.86991
 51
53.130105
  0
ARC
  8
0
  6
CONTINUOUS
 62
     7
 10
2.7750001
 20
5.9315797
 40
0.375
 50
306.86991
 51
53.130105
  0
ARC
  8
0
  6
CONTINUOUS
 62
     7
 10
-1.6511538
 20
5.9315795
 40
3.8411539
 50
4.4794498
 51
36.008327
  0
ARC
  8
0
  6
CONTINUOUS
 62
     7
 10
1.6511538
 20
5.9315797
 40
3.241154
 50
185.31088
 51
216.00833
  0
ARC
  8
0
  6
CONTINUOUS
 62
     7
 10
1.6511538
 20
5.9315797
 40
3.8411539
 50
184.47945
 51
216.00833
  0
ENDBLK
  8
0
  0
BLOCK
  8
0
  2
KOZU3
 70
    64
 10
0
 20
0
  0
POINT
  8
0
  6
CONTINUOUS
 62
     7
 10
0
 20
0
  0
POINT
  8
0
  6
CONTINUOUS
 62
     7
 10
0
 20
7.0796661
  0
LINE
  8
0
  6
CONTINUOUS
 62
     7
 10
19.667145
 20
-8.3309937
 11
19.667145
 21
8.3309937
  0
LINE
  8
0
  6
CONTINUOUS
 62
     7
 10
19.667128
 20
-8.3309937
 11
18.999971
 21
-11.499992
  0
LINE
  8
0
  6
CONTINUOUS
 62
     7
 10
8
 20
11.5
 11
19.000021
 21
11.5
  0
LINE
  8
0
  6
CONTINUOUS
 62
     7
 10
8
 20
-11.5
 11
18.999969
 21
-11.5
  0
LINE
  8
0
  6
CONTINUOUS
 62
     7
 10
19.000023
 20
11.499991
 11
19.667181
 21
8.3309927
  0
LINE
  8
0
  6
CONTINUOUS
 62
     7
 10
-19.667145
 20
4.7634583
 11
-11.572632
 21
4.7634583
  0
LINE
  8
0
  6
CONTINUOUS
 62
     7
 10
8
 20
4.7634583
 11
19.667145
 21
4.7634583
  0
LINE
  8
0
  6
CONTINUOUS
 62
     7
 10
-19.667145
 20
-4.763504
 11
-11.572632
 21
-4.763504
  0
LINE
  8
0
  6
CENTER
 62
     7
 10
23.246124
 20
0
 11
-23
 21
0
  0
LINE
  8
0
  6
CONTINUOUS
 62
     7
 10
-11.572632
 20
11.5
 11
-19
 21
11.5
  0
LINE
  8
0
  6
CONTINUOUS
 62
     7
 10
-11.572632
 20
-11.500015
 11
-19
 21
-11.500015
  0
LINE
  8
0
  6
CONTINUOUS
 62
     7
 10
-18.999983
 20
-11.500017
 11
-19.667145
 21
-8.3310032
  0
LINE
  8
0
  6
CONTINUOUS
 62
     7
 10
-19.667202
 20
8.3310032
 11
-19.000046
 21
11.500002
  0
LINE
  8
0
  6
CONTINUOUS
 62
     7
 10
-19.667145
 20
8.3309937
 11
-19.667145
 21
-8.3310089
  0
LINE
  8
0
  6
CONTINUOUS
 62
     7
 10
8
 20
-4.763504
 11
19.667145
 21
-4.763504
  0
LINE
  8
0
  6
CONTINUOUS
 62
     7
 10
-7.9999976
 20
-14.688004
 11
-8.9745617
 21
-13.00001
  0
LINE
  8
0
  6
CONTINUOUS
 62
     7
 10
-8.0000038
 20
14.687985
 11
-8.9745674
 21
12.999992
  0
LINE
  8
0
  6
CONTINUOUS
 62
     7
 10
-8
 20
0
 11
-8
 21
-18.500015
  0
LINE
  8
0
  6
CONTINUOUS
 62
     7
 10
8
 20
0
 11
8
 21
-18.5
  0
LINE
  8
0
  6
CONTINUOUS
 62
     7
 10
7.119967
 20
-20.024261
 11
7.9999876
 21
-18.500021
  0
LINE
  8
0
  6
CONTINUOUS
 62
     7
 10
-7.1199813
 20
-20.024275
 11
-8.0000019
 21
-18.500036
  0
LINE
  8
0
  6
CONTINUOUS
 62
     7
 10
-7.1199799
 20
-20.024246
 11
7.1199799
 21
-20.024246
  0
LINE
  8
0
  6
CONTINUOUS
 62
     7
 10
-7.1199799
 20
-14.159363
 11
7.1199799
 21
-14.159363
  0
LINE
  8
0
  6
CONTINUOUS
 62
     7
 10
-7.1199799
 20
0
 11
7.1199799
 21
0
  0
LINE
  8
0
  6
CONTINUOUS
 62
     7
 10
-8
 20
0
 11
-8
 21
18.500015
  0
LINE
  8
0
  6
CONTINUOUS
 62
     7
 10
8
 20
0
 11
8
 21
18.499985
  0
LINE
  8
0
  6
CONTINUOUS
 62
     7
 10
7.1199694
 20
20.024258
 11
7.9999976
 21
18.500004
  0
LINE
  8
0
  6
CONTINUOUS
 62
     7
 10
-7.119966
 20
20.024279
 11
-7.9999862
 21
18.500038
  0
LINE
  8
0
  6
CONTINUOUS
 62
     7
 10
-7.1199799
 20
20.024246
 11
7.1199799
 21
20.024246
  0
LINE
  8
0
  6
CONTINUOUS
 62
     7
 10
-7.1199799
 20
14.159348
 11
7.1199799
 21
14.159348
  0
ARC
  8
0
  6
CONTINUOUS
 62
     7
 10
-11.572632
 20
-14.500015
 40
3
 50
29.999997
 51
90.000003
  0
ARC
  8
0
  6
CONTINUOUS
 62
     7
 10
-11.572632
 20
14.499985
 40
3
 50
270
 51
330
  0
POLYLINE
  8
0
  6
CONTINUOUS
 62
     7
 66
     1
 10
0
 20
0
  0
VERTEX
  8
0
  6
CONTINUOUS
 62
     7
 10
-7.1199799
 20
0
 42
-0.039940059
  0
VERTEX
  8
0
  6
CONTINUOUS
 62
     7
 10
-7.8994598
 20
4.6980334
 42
-0.04220979
  0
VERTEX
  8
0
  6
CONTINUOUS
 62
     7
 10
-7.8995058
 20
9.4607768
 42
-0.039944738
  0
VERTEX
  8
0
  6
CONTINUOUS
 62
     7
 10
-7.1199799
 20
14.159348
 42
0
  0
SEQEND
  8
0
  0
POLYLINE
  8
0
  6
CONTINUOUS
 62
     7
 66
     1
 10
0
 20
0
  0
VERTEX
  8
0
  6
CONTINUOUS
 62
     7
 10
-7.1199799
 20
0
 42
0.039940102
  0
VERTEX
  8
0
  6
CONTINUOUS
 62
     7
 10
-7.8994602
 20
-4.6980385
 42
0.042209698
  0
VERTEX
  8
0
  6
CONTINUOUS
 62
     7
 10
-7.8995059
 20
-9.4607794
 42
0.039944774
  0
VERTEX
  8
0
  6
CONTINUOUS
 62
     7
 10
-7.1199799
 20
-14.159363
 42
0
  0
SEQEND
  8
0
  0
POLYLINE
  8
0
  6
CONTINUOUS
 62
     7
 66
     1
 10
0
 20
0
  0
VERTEX
  8
0
  6
CONTINUOUS
 62
     7
 10
-7.1199799
 20
-14.159363
 42
0.081978508
  0
VERTEX
  8
0
  6
CONTINUOUS
 62
     7
 10
-7.8881647
 20
-16.066964
 42
0.10912584
  0
VERTEX
  8
0
  6
CONTINUOUS
 62
     7
 10
-7.8881582
 20
-18.116681
 42
0.081977186
  0
VERTEX
  8
0
  6
CONTINUOUS
 62
     7
 10
-7.1199799
 20
-20.024246
 42
0
  0
SEQEND
  8
0
  0
POLYLINE
  8
0
  6
CONTINUOUS
 62
     7
 66
     1
 10
0
 20
0
  0
VERTEX
  8
0
  6
CONTINUOUS
 62
     7
 10
7.1199799
 20
0
 42
-0.039940102
  0
VERTEX
  8
0
  6
CONTINUOUS
 62
     7
 10
7.8994602
 20
-4.6980385
 42
-0.042209698
  0
VERTEX
  8
0
  6
CONTINUOUS
 62
     7
 10
7.8995059
 20
-9.4607794
 42
-0.039944774
  0
VERTEX
  8
0
  6
CONTINUOUS
 62
     7
 10
7.1199799
 20
-14.159363
 42
0
  0
SEQEND
  8
0
  0
POLYLINE
  8
0
  6
CONTINUOUS
 62
     7
 66
     1
 10
0
 20
0
  0
VERTEX
  8
0
  6
CONTINUOUS
 62
     7
 10
7.1199799
 20
-14.159363
 42
-0.081978508
  0
VERTEX
  8
0
  6
CONTINUOUS
 62
     7
 10
7.8881647
 20
-16.066964
 42
-0.10912584
  0
VERTEX
  8
0
  6
CONTINUOUS
 62
     7
 10
7.8881582
 20
-18.116681
 42
-0.081977186
  0
VERTEX
  8
0
  6
CONTINUOUS
 62
     7
 10
7.1199799
 20
-20.024246
 42
0
  0
SEQEND
  8
0
  0
POLYLINE
  8
0
  6
CONTINUOUS
 62
     7
 66
     1
 10
0
 20
0
  0
VERTEX
  8
0
  6
CONTINUOUS
 62
     7
 10
-7.1199799
 20
14.159348
 42
-0.081978729
  0
VERTEX
  8
0
  6
CONTINUOUS
 62
     7
 10
-7.8881657
 20
16.066954
 42
-0.10912532
  0
VERTEX
  8
0
  6
CONTINUOUS
 62
     7
 10
-7.8881586
 20
18.116668
 42
-0.081977466
  0
VERTEX
  8
0
  6
CONTINUOUS
 62
     7
 10
-7.1199799
 20
20.024246
 42
0
  0
SEQEND
  8
0
  0
POLYLINE
  8
0
  6
CONTINUOUS
 62
     7
 66
     1
 10
0
 20
0
  0
VERTEX
  8
0
  6
CONTINUOUS
 62
     7
 10
7.1199799
 20
0
 42
0.039940059
  0
VERTEX
  8
0
  6
CONTINUOUS
 62
     7
 10
7.8994598
 20
4.6980334
 42
0.04220979
  0
VERTEX
  8
0
  6
CONTINUOUS
 62
     7
 10
7.8995058
 20
9.4607768
 42
0.039944738
  0
VERTEX
  8
0
  6
CONTINUOUS
 62
     7
 10
7.1199799
 20
14.159348
 42
0
  0
SEQEND
  8
0
  0
POLYLINE
  8
0
  6
CONTINUOUS
 62
     7
 66
     1
 10
0
 20
0
  0
VERTEX
  8
0
  6
CONTINUOUS
 62
     7
 10
7.1199799
 20
14.159348
 42
0.081978729
  0
VERTEX
  8
0
  6
CONTINUOUS
 62
     7
 10
7.8881657
 20
16.066954
 42
0.10912532
  0
VERTEX
  8
0
  6
CONTINUOUS
 62
     7
 10
7.8881586
 20
18.116668
 42
0.081977466
  0
VERTEX
  8
0
  6
CONTINUOUS
 62
     7
 10
7.1199799
 20
20.024246
 42
0
  0
SEQEND
  8
0
  0
TEXT
  8
0
  6
CONTINUOUS
 62
     7
 10
-3.894236
 20
21.356062
 40
3.2
 41
1.0178906
  1
3/8
  0
LINE
  8
0
  6
CONTINUOUS
 62
     7
 10
-4.5
 20
7.5296659
 11
-3.2674003
 21
7.529666
  0
LINE
  8
0
  6
CONTINUOUS
 62
     7
 10
-4.5
 20
6.629666
 11
-3.2674002
 21
6.629666
  0
LINE
  8
0
  6
CONTINUOUS
 62
     7
 10
3.2674003
 20
6.6296663
 11
4.5
 21
6.6296663
  0
LINE
  8
0
  6
CONTINUOUS
 62
     7
 10
3.2674002
 20
7.5296663
 11
4.5
 21
7.5296663
  0
LINE
  8
0
  6
CONTINUOUS
 62
     7
 10
-2.3641293
 20
6.629666
 11
1.9670125E-008
 21
6.6296661
  0
LINE
  8
0
  6
CONTINUOUS
 62
     7
 10
-2.3641293
 20
7.529666
 11
-1.9670125E-008
 21
7.5296661
  0
ARC
  8
0
  6
CONTINUOUS
 62
     7
 10
-7.86805E-008
 20
8.8796661
 40
1.8
 50
36.008327
 51
143.99168
  0
ARC
  8
0
  6
CONTINUOUS
 62
     7
 10
-7.86805E-008
 20
8.8796661
 40
2.7
 50
36.008327
 51
143.99168
  0
ARC
  8
0
  6
CONTINUOUS
 62
     7
 10
7.86805E-008
 20
5.2796662
 40
1.8
 50
216.00833
 51
323.99168
  0
ARC
  8
0
  6
CONTINUOUS
 62
     7
 10
7.86805E-008
 20
5.2796662
 40
2.7
 50
216.00833
 51
323.99168
  0
ARC
  8
0
  6
CONTINUOUS
 62
     7
 10
2.4767308
 20
7.0796662
 40
5.7617307
 50
143.99168
 51
175.52056
  0
ARC
  8
0
  6
CONTINUOUS
 62
     7
 10
2.4767308
 20
7.0796662
 40
4.8617306
 50
143.99168
 51
174.68912
  0
ARC
  8
0
  6
CONTINUOUS
 62
     7
 10
-2.4767308
 20
7.079666
 40
4.8617306
 50
323.99167
 51
36.008327
  0
ARC
  8
0
  6
CONTINUOUS
 62
     7
 10
-2.4767308
 20
7.079666
 40
5.7617307
 50
323.99167
 51
355.52055
  0
ARC
  8
0
  6
CONTINUOUS
 62
     7
 10
-4.1624999
 20
7.079666
 40
0.5625
 50
126.8699
 51
233.1301
  0
ARC
  8
0
  6
CONTINUOUS
 62
     7
 10
-0.33750001
 20
7.0796661
 40
0.5625
 50
306.86991
 51
53.130105
  0
ARC
  8
0
  6
CONTINUOUS
 62
     7
 10
4.1624999
 20
7.0796663
 40
0.5625
 50
306.86991
 51
53.130105
  0
ARC
  8
0
  6
CONTINUOUS
 62
     7
 10
2.4767308
 20
7.0796662
 40
5.7617307
 50
184.47945
 51
216.00833
  0
ARC
  8
0
  6
CONTINUOUS
 62
     7
 10
2.4767308
 20
7.0796662
 40
4.8617306
 50
185.31088
 51
216.00833
  0
ARC
  8
0
  6
CONTINUOUS
 62
     7
 10
-2.4767308
 20
7.079666
 40
5.7617307
 50
4.4794498
 51
36.008327
  0
ENDBLK
  8
0
  0
BLOCK
  8
0
  2
KOZU4
 70
    64
 10
0
 20
0
  0
POINT
  8
0
  6
CONTINUOUS
 62
     7
 10
0
 20
0
  0
POINT
  8
0
  6
CONTINUOUS
 62
     7
 10
0
 20
8.0363617
  0
LINE
  8
0
  6
CONTINUOUS
 62
     7
 10
-21.204269
 20
5.5919342
 11
-11.906387
 21
5.5919342
  0
LINE
  8
0
  6
CONTINUOUS
 62
     7
 10
8.4999847
 20
-13.5
 11
20.499994
 21
-13.5
  0
LINE
  8
0
  6
CONTINUOUS
 62
     7
 10
8.4999847
 20
13.5
 11
20.499994
 21
13.5
  0
LINE
  8
0
  6
CONTINUOUS
 62
     7
 10
20.499992
 20
13.50001
 11
21.204268
 21
10.477491
  0
LINE
  8
0
  6
CONTINUOUS
 62
     7
 10
21.204266
 20
-10.477506
 11
20.499996
 21
-13.499994
  0
LINE
  8
0
  6
CONTINUOUS
 62
     7
 10
21.204269
 20
10.477509
 11
21.204269
 21
-10.477493
  0
LINE
  8
0
  6
CONTINUOUS
 62
     7
 10
-7.5010529
 20
0
 11
7.50103
 21
0
  0
LINE
  8
0
  6
CONTINUOUS
 62
     7
 10
-21.204269
 20
-5.5918732
 11
-11.906387
 21
-5.5918732
  0
LINE
  8
0
  6
CONTINUOUS
 62
     7
 10
-21.204235
 20
10.477497
 11
-20.49996
 21
13.500015
  0
LINE
  8
0
  6
CONTINUOUS
 62
     7
 10
-11.906387
 20
13.5
 11
-20.499985
 21
13.5
  0
LINE
  8
0
  6
CONTINUOUS
 62
     7
 10
-11.906387
 20
-13.5
 11
-20.499985
 21
-13.5
  0
LINE
  8
0
  6
CONTINUOUS
 62
     7
 10
-20.500015
 20
-13.500011
 11
-21.204288
 21
-10.477508
  0
LINE
  8
0
  6
CONTINUOUS
 62
     7
 10
-21.204269
 20
-10.477493
 11
-21.204269
 21
10.477509
  0
LINE
  8
0
  6
CENTER
 62
     7
 10
24.529518
 20
0
 11
-24.699997
 21
0
  0
LINE
  8
0
  6
CONTINUOUS
 62
     7
 10
8.4999847
 20
-5.5918732
 11
21.204269
 21
-5.5918732
  0
LINE
  8
0
  6
CONTINUOUS
 62
     7
 10
8.4999847
 20
5.5919342
 11
21.204269
 21
5.5919342
  0
LINE
  8
0
  6
CONTINUOUS
 62
     7
 10
-8.5000257
 20
-16.399971
 11
-9.3083076
 21
-14.999987
  0
LINE
  8
0
  6
CONTINUOUS
 62
     7
 10
-8.50002
 20
16.399975
 11
-9.3082933
 21
15.000005
  0
LINE
  8
0
  6
CONTINUOUS
 62
     7
 10
-8.5000153
 20
0
 11
-8.5000153
 21
-20.999985
  0
LINE
  8
0
  6
CONTINUOUS
 62
     7
 10
-7.5010529
 20
-16.072723
 11
7.50103
 21
-16.072723
  0
LINE
  8
0
  6
CONTINUOUS
 62
     7
 10
-7.5010529
 20
-22.73024
 11
7.50103
 21
-22.73024
  0
LINE
  8
0
  6
CONTINUOUS
 62
     7
 10
7.5010266
 20
-22.73024
 11
8.4999819
 21
-20.999998
  0
LINE
  8
0
  6
CONTINUOUS
 62
     7
 10
-7.5010486
 20
-22.730244
 11
-8.5000114
 21
-20.99999
  0
LINE
  8
0
  6
CONTINUOUS
 62
     7
 10
8.4999847
 20
0
 11
8.4999847
 21
-21
  0
LINE
  8
0
  6
CONTINUOUS
 62
     7
 10
-8.5000153
 20
0
 11
-8.5000153
 21
21
  0
LINE
  8
0
  6
CONTINUOUS
 62
     7
 10
-7.5010529
 20
16.072723
 11
7.50103
 21
16.072723
  0
LINE
  8
0
  6
CONTINUOUS
 62
     7
 10
-7.5010529
 20
22.730255
 11
7.50103
 21
22.730255
  0
LINE
  8
0
  6
CONTINUOUS
 62
     7
 10
7.50103
 20
22.730246
 11
8.4999847
 21
21.000006
  0
LINE
  8
0
  6
CONTINUOUS
 62
     7
 10
-7.5010586
 20
22.730253
 11
-8.500021
 21
21
  0
LINE
  8
0
  6
CONTINUOUS
 62
     7
 10
8.4999847
 20
0
 11
8.4999847
 21
21
  0
ARC
  8
0
  6
CONTINUOUS
 62
     7
 10
-11.906387
 20
-16.5
 40
3
 50
29.999997
 51
90.000003
  0
ARC
  8
0
  6
CONTINUOUS
 62
     7
 10
-11.906387
 20
16.5
 40
3
 50
270
 51
330
  0
POLYLINE
  8
0
  6
CONTINUOUS
 62
     7
 66
     1
 10
0
 20
0
  0
VERTEX
  8
0
  6
CONTINUOUS
 62
     7
 10
-7.5010529
 20
0
 42
-0.039940417
  0
VERTEX
  8
0
  6
CONTINUOUS
 62
     7
 10
-8.3858854
 20
5.3328856
 42
-0.04221132
  0
VERTEX
  8
0
  6
CONTINUOUS
 62
     7
 10
-8.3859359
 20
10.739237
 42
-0.039944958
  0
VERTEX
  8
0
  6
CONTINUOUS
 62
     7
 10
-7.5010529
 20
16.072723
 42
0
  0
SEQEND
  8
0
  0
POLYLINE
  8
0
  6
CONTINUOUS
 62
     7
 66
     1
 10
0
 20
0
  0
VERTEX
  8
0
  6
CONTINUOUS
 62
     7
 10
-7.5010529
 20
0
 42
0.039940417
  0
VERTEX
  8
0
  6
CONTINUOUS
 62
     7
 10
-8.3858854
 20
-5.3328856
 42
0.04221132
  0
VERTEX
  8
0
  6
CONTINUOUS
 62
     7
 10
-8.3859359
 20
-10.739237
 42
0.039944958
  0
VERTEX
  8
0
  6
CONTINUOUS
 62
     7
 10
-7.5010529
 20
-16.072723
 42
0
  0
SEQEND
  8
0
  0
POLYLINE
  8
0
  6
CONTINUOUS
 62
     7
 66
     1
 10
0
 20
0
  0
VERTEX
  8
0
  6
CONTINUOUS
 62
     7
 10
-7.5010529
 20
-16.072723
 42
0.038482404
  0
VERTEX
  8
0
  6
CONTINUOUS
 62
     7
 10
-8.0260545
 20
-17.120273
 42
0.043870594
  0
VERTEX
  8
0
  6
CONTINUOUS
 62
     7
 10
-8.3731588
 20
-18.238577
 42
0.0526984
  0
VERTEX
  8
0
  6
CONTINUOUS
 62
     7
 10
-8.5000153
 20
-19.401474
 42
0
  0
SEQEND
  8
0
  0
POLYLINE
  8
0
  6
CONTINUOUS
 62
     7
 66
     1
 10
0
 20
0
  0
VERTEX
  8
0
  6
CONTINUOUS
 62
     7
 10
7.50103
 20
0
 42
-0.039940733
  0
VERTEX
  8
0
  6
CONTINUOUS
 62
     7
 10
8.3858569
 20
-5.3328856
 42
-0.042210587
  0
VERTEX
  8
0
  6
CONTINUOUS
 62
     7
 10
8.3859074
 20
-10.739236
 42
-0.039945275
  0
VERTEX
  8
0
  6
CONTINUOUS
 62
     7
 10
7.50103
 20
-16.072723
 42
0
  0
SEQEND
  8
0
  0
POLYLINE
  8
0
  6
CONTINUOUS
 62
     7
 66
     1
 10
0
 20
0
  0
VERTEX
  8
0
  6
CONTINUOUS
 62
     7
 10
7.50103
 20
-16.072723
 42
-0.038483074
  0
VERTEX
  8
0
  6
CONTINUOUS
 62
     7
 10
8.0260296
 20
-17.120273
 42
-0.043870651
  0
VERTEX
  8
0
  6
CONTINUOUS
 62
     7
 10
8.3731303
 20
-18.238577
 42
-0.052697679
  0
VERTEX
  8
0
  6
CONTINUOUS
 62
     7
 10
8.4999847
 20
-19.401474
 42
0
  0
SEQEND
  8
0
  0
POLYLINE
  8
0
  6
CONTINUOUS
 62
     7
 66
     1
 10
0
 20
0
  0
VERTEX
  8
0
  6
CONTINUOUS
 62
     7
 10
-7.5010529
 20
16.072723
 42
-0.038482972
  0
VERTEX
  8
0
  6
CONTINUOUS
 62
     7
 10
-8.026055
 20
17.120278
 42
-0.043870253
  0
VERTEX
  8
0
  6
CONTINUOUS
 62
     7
 10
-8.3731586
 20
18.238587
 42
-0.052698108
  0
VERTEX
  8
0
  6
CONTINUOUS
 62
     7
 10
-8.5000153
 20
19.401489
 42
0
  0
SEQEND
  8
0
  0
POLYLINE
  8
0
  6
CONTINUOUS
 62
     7
 66
     1
 10
0
 20
0
  0
VERTEX
  8
0
  6
CONTINUOUS
 62
     7
 10
7.50103
 20
0
 42
0.039940733
  0
VERTEX
  8
0
  6
CONTINUOUS
 62
     7
 10
8.3858569
 20
5.3328856
 42
0.042210587
  0
VERTEX
  8
0
  6
CONTINUOUS
 62
     7
 10
8.3859074
 20
10.739236
 42
0.039945275
  0
VERTEX
  8
0
  6
CONTINUOUS
 62
     7
 10
7.50103
 20
16.072723
 42
0
  0
SEQEND
  8
0
  0
POLYLINE
  8
0
  6
CONTINUOUS
 62
     7
 66
     1
 10
0
 20
0
  0
VERTEX
  8
0
  6
CONTINUOUS
 62
     7
 10
7.50103
 20
16.072723
 42
0.038483641
  0
VERTEX
  8
0
  6
CONTINUOUS
 62
     7
 10
8.0260301
 20
17.120278
 42
0.043870309
  0
VERTEX
  8
0
  6
CONTINUOUS
 62
     7
 10
8.3731301
 20
18.238587
 42
0.052697387
  0
VERTEX
  8
0
  6
CONTINUOUS
 62
     7
 10
8.4999847
 20
19.401489
 42
0
  0
SEQEND
  8
0
  0
TEXT
  8
0
  6
CONTINUOUS
 62
     7
 10
-4.2299374
 20
24.284212
 40
3.2
 41
1.0178906
  1
1/2
  0
LINE
  8
0
  6
CONTINUOUS
 62
     7
 10
-4.5
 20
8.4863615
 11
-3.2674003
 21
8.4863615
  0
LINE
  8
0
  6
CONTINUOUS
 62
     7
 10
-4.5
 20
7.5863615
 11
-3.2674002
 21
7.5863616
  0
LINE
  8
0
  6
CONTINUOUS
 62
     7
 10
3.2674003
 20
7.5863618
 11
4.5
 21
7.5863619
  0
LINE
  8
0
  6
CONTINUOUS
 62
     7
 10
3.2674002
 20
8.4863618
 11
4.5
 21
8.4863619
  0
LINE
  8
0
  6
CONTINUOUS
 62
     7
 10
-2.3641293
 20
7.5863616
 11
1.9670125E-008
 21
7.5863617
  0
LINE
  8
0
  6
CONTINUOUS
 62
     7
 10
-2.3641293
 20
8.4863616
 11
-1.9670125E-008
 21
8.4863617
  0
ARC
  8
0
  6
CONTINUOUS
 62
     7
 10
-7.86805E-008
 20
9.8363616
 40
1.8
 50
36.008327
 51
143.99168
  0
ARC
  8
0
  6
CONTINUOUS
 62
     7
 10
-7.86805E-008
 20
9.8363616
 40
2.7
 50
36.008327
 51
143.99168
  0
ARC
  8
0
  6
CONTINUOUS
 62
     7
 10
7.86805E-008
 20
6.2363617
 40
1.8
 50
216.00833
 51
323.99168
  0
ARC
  8
0
  6
CONTINUOUS
 62
     7
 10
7.86805E-008
 20
6.2363617
 40
2.7
 50
216.00833
 51
323.99168
  0
ARC
  8
0
  6
CONTINUOUS
 62
     7
 10
2.4767308
 20
8.0363618
 40
5.7617307
 50
143.99168
 51
175.52056
  0
ARC
  8
0
  6
CONTINUOUS
 62
     7
 10
2.4767308
 20
8.0363618
 40
4.8617306
 50
143.99168
 51
174.68912
  0
ARC
  8
0
  6
CONTINUOUS
 62
     7
 10
-2.4767308
 20
8.0363616
 40
4.8617306
 50
323.99167
 51
36.008327
  0
ARC
  8
0
  6
CONTINUOUS
 62
     7
 10
-2.4767308
 20
8.0363616
 40
5.7617307
 50
323.99167
 51
355.52055
  0
ARC
  8
0
  6
CONTINUOUS
 62
     7
 10
-4.1624999
 20
8.0363615
 40
0.5625
 50
126.8699
 51
233.1301
  0
ARC
  8
0
  6
CONTINUOUS
 62
     7
 10
-0.33750001
 20
8.0363617
 40
0.5625
 50
306.86991
 51
53.130105
  0
ARC
  8
0
  6
CONTINUOUS
 62
     7
 10
4.1624999
 20
8.0363619
 40
0.5625
 50
306.86991
 51
53.130105
  0
ARC
  8
0
  6
CONTINUOUS
 62
     7
 10
2.4767308
 20
8.0363618
 40
5.7617307
 50
184.47945
 51
216.00833
  0
ARC
  8
0
  6
CONTINUOUS
 62
     7
 10
2.4767308
 20
8.0363618
 40
4.8617306
 50
185.31088
 51
216.00833
  0
ARC
  8
0
  6
CONTINUOUS
 62
     7
 10
-2.4767308
 20
8.0363616
 40
5.7617307
 50
4.4794498
 51
36.008327
  0
ENDBLK
  8
0
  0
BLOCK
  8
0
  2
KOZU5
 70
    64
 10
0
 20
0
  0
POINT
  8
0
  6
CONTINUOUS
 62
     7
 10
0
 20
0
  0
POINT
  8
0
  6
CONTINUOUS
 62
     7
 10
0
 20
9.3757782
  0
LINE
  8
0
  6
CONTINUOUS
 62
     7
 10
9.25
 20
16.500015
 11
24.25001
 21
16.500015
  0
LINE
  8
0
  6
CONTINUOUS
 62
     7
 10
9.25
 20
-16.5
 11
24.250025
 21
-16.5
  0
LINE
  8
0
  6
CONTINUOUS
 62
     7
 10
24.25001
 20
16.500013
 11
24.96554
 21
13.220504
  0
LINE
  8
0
  6
CONTINUOUS
 62
     7
 10
24.965515
 20
-13.220505
 11
24.965515
 21
13.220505
  0
LINE
  8
0
  6
CONTINUOUS
 62
     7
 10
24.965555
 20
-13.220488
 11
24.250025
 21
-16.499996
  0
LINE
  8
0
  6
CONTINUOUS
 62
     7
 10
9.25
 20
6.8345184
 11
24.965515
 21
6.8345184
  0
LINE
  8
0
  6
CONTINUOUS
 62
     7
 10
-24.965515
 20
6.8345184
 11
-13.532501
 21
6.8345184
  0
LINE
  8
0
  6
CONTINUOUS
 62
     7
 10
-24.965515
 20
-6.8345795
 11
-13.532501
 21
-6.8345795
  0
LINE
  8
0
  6
CENTER
 62
     7
 10
28.694595
 20
0
 11
-28.450012
 21
0
  0
LINE
  8
0
  6
CONTINUOUS
 62
     7
 10
-13.532501
 20
-16.5
 11
-24.25
 21
-16.5
  0
LINE
  8
0
  6
CONTINUOUS
 62
     7
 10
-13.532501
 20
16.500015
 11
-24.25
 21
16.500015
  0
LINE
  8
0
  6
CONTINUOUS
 62
     7
 10
-24.25004
 20
-16.500006
 11
-24.965569
 21
-13.220497
  0
LINE
  8
0
  6
CONTINUOUS
 62
     7
 10
-24.965515
 20
13.220505
 11
-24.965515
 21
-13.22049
  0
LINE
  8
0
  6
CONTINUOUS
 62
     7
 10
-24.965616
 20
13.220527
 11
-24.250088
 21
16.500034
  0
LINE
  8
0
  6
CONTINUOUS
 62
     7
 10
-9.2500029
 20
-19.917501
 11
-10.068393
 21
-18.500008
  0
LINE
  8
0
  6
CONTINUOUS
 62
     7
 10
-9.2500019
 20
19.917494
 11
-10.068392
 21
18.500002
  0
LINE
  8
0
  6
CONTINUOUS
 62
     7
 10
-8.0845337
 20
0
 11
8.0845337
 21
0
  0
LINE
  8
0
  6
CONTINUOUS
 62
     7
 10
9.2499619
 20
-24.499947
 11
8.0844965
 21
-26.518593
  0
LINE
  8
0
  6
CONTINUOUS
 62
     7
 10
-9.2500029
 20
-24.499966
 11
-8.0845299
 21
-26.518627
  0
LINE
  8
0
  6
CONTINUOUS
 62
     7
 10
-8.0845337
 20
-26.518631
 11
8.0845337
 21
-26.518631
  0
LINE
  8
0
  6
CONTINUOUS
 62
     7
 10
-8.0845337
 20
-18.751511
 11
8.0845337
 21
-18.751511
  0
LINE
  8
0
  6
CONTINUOUS
 62
     7
 10
9.25
 20
0
 11
9.25
 21
-24.499878
  0
LINE
  8
0
  6
CONTINUOUS
 62
     7
 10
-9.25
 20
0
 11
-9.25
 21
-24.499969
  0
LINE
  8
0
  6
CONTINUOUS
 62
     7
 10
9.2499676
 20
24.499958
 11
8.0845022
 21
26.518606
  0
LINE
  8
0
  6
CONTINUOUS
 62
     7
 10
-9.2499981
 20
24.49999
 11
-8.0845327
 21
26.518637
  0
LINE
  8
0
  6
CONTINUOUS
 62
     7
 10
-8.0845337
 20
26.518631
 11
8.0845337
 21
26.518631
  0
LINE
  8
0
  6
CONTINUOUS
 62
     7
 10
-8.0845337
 20
18.751511
 11
8.0845337
 21
18.751511
  0
LINE
  8
0
  6
CONTINUOUS
 62
     7
 10
9.25
 20
0
 11
9.25
 21
24.499893
  0
LINE
  8
0
  6
CONTINUOUS
 62
     7
 10
-9.25
 20
0
 11
-9.25
 21
24.499985
  0
LINE
  8
0
  6
CONTINUOUS
 62
     7
 10
9.25
 20
-6.8345795
 11
24.965515
 21
-6.8345795
  0
ARC
  8
0
  6
CONTINUOUS
 62
     7
 10
-13.532501
 20
-20.5
 40
4
 50
29.999997
 51
90.000003
  0
ARC
  8
0
  6
CONTINUOUS
 62
     7
 10
-13.532501
 20
20.500015
 40
4
 50
270
 51
330
  0
POLYLINE
  8
0
  6
CONTINUOUS
 62
     7
 66
     1
 10
0
 20
0
  0
VERTEX
  8
0
  6
CONTINUOUS
 62
     7
 10
8.0845337
 20
18.751511
 42
0.081979271
  0
VERTEX
  8
0
  6
CONTINUOUS
 62
     7
 10
9.1018875
 20
21.277829
 42
0.10912709
  0
VERTEX
  8
0
  6
CONTINUOUS
 62
     7
 10
9.1018851
 20
23.992347
 42
0.08197855
  0
VERTEX
  8
0
  6
CONTINUOUS
 62
     7
 10
8.0845337
 20
26.518631
 42
0
  0
SEQEND
  8
0
  0
POLYLINE
  8
0
  6
CONTINUOUS
 62
     7
 66
     1
 10
0
 20
0
  0
VERTEX
  8
0
  6
CONTINUOUS
 62
     7
 10
8.0845337
 20
-18.751511
 42
-0.081979486
  0
VERTEX
  8
0
  6
CONTINUOUS
 62
     7
 10
9.1018897
 20
-21.277828
 42
-0.10912654
  0
VERTEX
  8
0
  6
CONTINUOUS
 62
     7
 10
9.1018859
 20
-23.992331
 42
-0.081978854
  0
VERTEX
  8
0
  6
CONTINUOUS
 62
     7
 10
8.0845337
 20
-26.518631
 42
0
  0
SEQEND
  8
0
  0
POLYLINE
  8
0
  6
CONTINUOUS
 62
     7
 66
     1
 10
0
 20
0
  0
VERTEX
  8
0
  6
CONTINUOUS
 62
     7
 10
-8.0845337
 20
-18.751511
 42
0.081979486
  0
VERTEX
  8
0
  6
CONTINUOUS
 62
     7
 10
-9.1018897
 20
-21.277828
 42
0.10912654
  0
VERTEX
  8
0
  6
CONTINUOUS
 62
     7
 10
-9.1018859
 20
-23.992331
 42
0.081978854
  0
VERTEX
  8
0
  6
CONTINUOUS
 62
     7
 10
-8.0845337
 20
-26.518631
 42
0
  0
SEQEND
  8
0
  0
POLYLINE
  8
0
  6
CONTINUOUS
 62
     7
 66
     1
 10
0
 20
0
  0
VERTEX
  8
0
  6
CONTINUOUS
 62
     7
 10
-8.0845337
 20
0
 42
0.039941353
  0
VERTEX
  8
0
  6
CONTINUOUS
 62
     7
 10
-9.1168485
 20
-6.2216989
 42
0.042211346
  0
VERTEX
  8
0
  6
CONTINUOUS
 62
     7
 10
-9.1169068
 20
-12.529118
 42
0.039945837
  0
VERTEX
  8
0
  6
CONTINUOUS
 62
     7
 10
-8.0845337
 20
-18.751511
 42
0
  0
SEQEND
  8
0
  0
POLYLINE
  8
0
  6
CONTINUOUS
 62
     7
 66
     1
 10
0
 20
0
  0
VERTEX
  8
0
  6
CONTINUOUS
 62
     7
 10
8.0845337
 20
0
 42
-0.039941353
  0
VERTEX
  8
0
  6
CONTINUOUS
 62
     7
 10
9.1168485
 20
-6.2216989
 42
-0.042211346
  0
VERTEX
  8
0
  6
CONTINUOUS
 62
     7
 10
9.1169068
 20
-12.529118
 42
-0.039945837
  0
VERTEX
  8
0
  6
CONTINUOUS
 62
     7
 10
8.0845337
 20
-18.751511
 42
0
  0
SEQEND
  8
0
  0
POLYLINE
  8
0
  6
CONTINUOUS
 62
     7
 66
     1
 10
0
 20
0
  0
VERTEX
  8
0
  6
CONTINUOUS
 62
     7
 10
-8.0845337
 20
18.751511
 42
-0.081979271
  0
VERTEX
  8
0
  6
CONTINUOUS
 62
     7
 10
-9.1018875
 20
21.277829
 42
-0.10912709
  0
VERTEX
  8
0
  6
CONTINUOUS
 62
     7
 10
-9.1018851
 20
23.992347
 42
-0.08197855
  0
VERTEX
  8
0
  6
CONTINUOUS
 62
     7
 10
-8.0845337
 20
26.518631
 42
0
  0
SEQEND
  8
0
  0
POLYLINE
  8
0
  6
CONTINUOUS
 62
     7
 66
     1
 10
0
 20
0
  0
VERTEX
  8
0
  6
CONTINUOUS
 62
     7
 10
-8.0845337
 20
0
 42
-0.039941308
  0
VERTEX
  8
0
  6
CONTINUOUS
 62
     7
 10
-9.1168477
 20
6.2217008
 42
-0.042211434
  0
VERTEX
  8
0
  6
CONTINUOUS
 62
     7
 10
-9.1169065
 20
12.529133
 42
-0.039945793
  0
VERTEX
  8
0
  6
CONTINUOUS
 62
     7
 10
-8.0845337
 20
18.751511
 42
0
  0
SEQEND
  8
0
  0
POLYLINE
  8
0
  6
CONTINUOUS
 62
     7
 66
     1
 10
0
 20
0
  0
VERTEX
  8
0
  6
CONTINUOUS
 62
     7
 10
8.0845337
 20
0
 42
0.039941308
  0
VERTEX
  8
0
  6
CONTINUOUS
 62
     7
 10
9.1168477
 20
6.2217008
 42
0.042211434
  0
VERTEX
  8
0
  6
CONTINUOUS
 62
     7
 10
9.1169065
 20
12.529133
 42
0.039945793
  0
VERTEX
  8
0
  6
CONTINUOUS
 62
     7
 10
8.0845337
 20
18.751511
 42
0
  0
SEQEND
  8
0
  0
TEXT
  8
0
  6
CONTINUOUS
 62
     7
 10
-4.1166638
 20
28.395243
 40
3.2
 41
1.0178906
  1
3/4
  0
LINE
  8
0
  6
CONTINUOUS
 62
     7
 10
-4.5
 20
9.825778
 11
-3.2674003
 21
9.825778
  0
LINE
  8
0
  6
CONTINUOUS
 62
     7
 10
-4.5
 20
8.925778
 11
-3.2674002
 21
8.9257781
  0
LINE
  8
0
  6
CONTINUOUS
 62
     7
 10
3.2674003
 20
8.9257784
 11
4.5
 21
8.9257784
  0
LINE
  8
0
  6
CONTINUOUS
 62
     7
 10
3.2674002
 20
9.8257783
 11
4.5
 21
9.8257784
  0
LINE
  8
0
  6
CONTINUOUS
 62
     7
 10
-2.3641293
 20
8.9257781
 11
1.9670125E-008
 21
8.9257782
  0
LINE
  8
0
  6
CONTINUOUS
 62
     7
 10
-2.3641293
 20
9.8257781
 11
-1.9670125E-008
 21
9.8257782
  0
ARC
  8
0
  6
CONTINUOUS
 62
     7
 10
-7.86805E-008
 20
11.175778
 40
1.8
 50
36.008327
 51
143.99168
  0
ARC
  8
0
  6
CONTINUOUS
 62
     7
 10
-7.86805E-008
 20
11.175778
 40
2.7
 50
36.008327
 51
143.99168
  0
ARC
  8
0
  6
CONTINUOUS
 62
     7
 10
7.86805E-008
 20
7.5757782
 40
1.8
 50
216.00833
 51
323.99168
  0
ARC
  8
0
  6
CONTINUOUS
 62
     7
 10
7.86805E-008
 20
7.5757782
 40
2.7
 50
216.00833
 51
323.99168
  0
ARC
  8
0
  6
CONTINUOUS
 62
     7
 10
2.4767308
 20
9.3757783
 40
5.7617307
 50
143.99168
 51
175.52056
  0
ARC
  8
0
  6
CONTINUOUS
 62
     7
 10
2.4767308
 20
9.3757783
 40
4.8617306
 50
143.99168
 51
174.68912
  0
ARC
  8
0
  6
CONTINUOUS
 62
     7
 10
-2.4767308
 20
9.3757781
 40
4.8617306
 50
323.99167
 51
36.008327
  0
ARC
  8
0
  6
CONTINUOUS
 62
     7
 10
-2.4767308
 20
9.3757781
 40
5.7617307
 50
323.99167
 51
355.52055
  0
ARC
  8
0
  6
CONTINUOUS
 62
     7
 10
-4.1624999
 20
9.375778
 40
0.5625
 50
126.8699
 51
233.1301
  0
ARC
  8
0
  6
CONTINUOUS
 62
     7
 10
-0.33750001
 20
9.3757782
 40
0.5625
 50
306.86991
 51
53.130105
  0
ARC
  8
0
  6
CONTINUOUS
 62
     7
 10
4.1624999
 20
9.3757784
 40
0.5625
 50
306.86991
 51
53.130105
  0
ARC
  8
0
  6
CONTINUOUS
 62
     7
 10
2.4767308
 20
9.3757783
 40
5.7617307
 50
184.47945
 51
216.00833
  0
ARC
  8
0
  6
CONTINUOUS
 62
     7
 10
2.4767308
 20
9.3757783
 40
4.8617306
 50
185.31088
 51
216.00833
  0
ARC
  8
0
  6
CONTINUOUS
 62
     7
 10
-2.4767308
 20
9.3757781
 40
5.7617307
 50
4.4794498
 51
36.008327
  0
ENDBLK
  8
0
  0
BLOCK
  8
0
  2
KOZU6
 70
    64
 10
0
 20
0
  0
POINT
  8
0
  6
CONTINUOUS
 62
     7
 10
0
 20
0
  0
POINT
  8
0
  6
CONTINUOUS
 62
     7
 10
0
 20
11.289154
  0
LINE
  8
0
  6
CENTER
 62
     7
 10
-34.471245
 20
0
 11
31.200012
 21
0
  0
LINE
  8
0
  6
CONTINUOUS
 62
     7
 10
10
 20
-8.491333
 11
27.715485
 21
-8.491333
  0
LINE
  8
0
  6
CONTINUOUS
 62
     7
 10
-27.715492
 20
-8.491333
 11
-14.897194
 21
-8.491333
  0
LINE
  8
0
  6
CONTINUOUS
 62
     7
 10
10
 20
20.5
 11
27.000011
 21
20.5
  0
LINE
  8
0
  6
CONTINUOUS
 62
     7
 10
10
 20
-20.5
 11
26.999989
 21
-20.5
  0
LINE
  8
0
  6
CONTINUOUS
 62
     7
 10
27.000011
 20
20.500002
 11
27.715488
 21
16.624498
  0
LINE
  8
0
  6
CONTINUOUS
 62
     7
 10
27.715485
 20
-16.624496
 11
27.715485
 21
16.624481
  0
LINE
  8
0
  6
CONTINUOUS
 62
     7
 10
27.715464
 20
-16.62451
 11
26.999987
 21
-20.500013
  0
LINE
  8
0
  6
CONTINUOUS
 62
     7
 10
-27.715492
 20
8.4913635
 11
-14.897194
 21
8.4913635
  0
LINE
  8
0
  6
CONTINUOUS
 62
     7
 10
-14.897224
 20
-20.5
 11
-27.000008
 21
-20.5
  0
LINE
  8
0
  6
CONTINUOUS
 62
     7
 10
-14.897194
 20
20.5
 11
-27.000008
 21
20.5
  0
LINE
  8
0
  6
CONTINUOUS
 62
     7
 10
-26.999985
 20
-20.499998
 11
-27.715464
 21
-16.624495
  0
LINE
  8
0
  6
CONTINUOUS
 62
     7
 10
-27.715492
 20
16.624512
 11
-27.715492
 21
-16.624496
  0
LINE
  8
0
  6
CONTINUOUS
 62
     7
 10
-27.715525
 20
16.624491
 11
-27.000046
 21
20.50001
  0
LINE
  8
0
  6
CONTINUOUS
 62
     7
 10
-9.999999
 20
24.98222
 11
-11.433105
 21
22.500008
  0
LINE
  8
0
  6
CONTINUOUS
 62
     7
 10
-10.000011
 20
-24.982229
 11
-11.433117
 21
-22.500017
  0
LINE
  8
0
  6
CONTINUOUS
 62
     7
 10
10
 20
8.4913635
 11
27.715485
 21
8.4913635
  0
LINE
  8
0
  6
CENTER
 62
     7
 10
-13.000008
 20
0
 11
13
 21
0
  0
LINE
  8
0
  6
CONTINUOUS
 62
     7
 10
10
 20
0
 11
10
 21
-29.5
  0
LINE
  8
0
  6
CONTINUOUS
 62
     7
 10
-10.000008
 20
0
 11
-10.000008
 21
-29.499985
  0
LINE
  8
0
  6
CONTINUOUS
 62
     7
 10
-8.5967026
 20
-31.930573
 11
8.5967102
 21
-31.930573
  0
LINE
  8
0
  6
CONTINUOUS
 62
     7
 10
-8.5967178
 20
-22.578323
 11
8.5967102
 21
-22.578323
  0
LINE
  8
0
  6
CONTINUOUS
 62
     7
 10
-10.000008
 20
-29.50001
 11
-8.5967121
 21
-31.930593
  0
LINE
  8
0
  6
CONTINUOUS
 62
     7
 10
9.9999676
 20
-29.500004
 11
8.5966787
 21
-31.930574
  0
LINE
  8
0
  6
CONTINUOUS
 62
     7
 10
10
 20
0
 11
10
 21
29.5
  0
LINE
  8
0
  6
CONTINUOUS
 62
     7
 10
-10.000008
 20
0
 11
-10.000008
 21
29.499969
  0
LINE
  8
0
  6
CONTINUOUS
 62
     7
 10
-8.5967026
 20
31.930573
 11
8.5967102
 21
31.930573
  0
LINE
  8
0
  6
CONTINUOUS
 62
     7
 10
-8.5967178
 20
22.578308
 11
8.5967102
 21
22.578308
  0
LINE
  8
0
  6
CONTINUOUS
 62
     7
 10
-10.000008
 20
29.499983
 11
-8.5967035
 21
31.93058
  0
LINE
  8
0
  6
CONTINUOUS
 62
     7
 10
9.9999781
 20
29.499992
 11
8.5966892
 21
31.930563
  0
LINE
  8
0
  6
CONTINUOUS
 62
     7
 10
-8.5967178
 20
0
 11
8.5967102
 21
0
  0
ARC
  8
0
  6
CONTINUOUS
 62
     7
 10
-14.897224
 20
-24.5
 40
4
 50
30.000004
 51
89.999996
  0
ARC
  8
0
  6
CONTINUOUS
 62
     7
 10
-14.897224
 20
24.5
 40
4
 50
270
 51
330
  0
POLYLINE
  8
0
  6
CONTINUOUS
 62
     7
 66
     1
 10
0
 20
0
  0
VERTEX
  8
0
  6
CONTINUOUS
 62
     7
 10
-8.5967178
 20
0
 42
0.039940678
  0
VERTEX
  8
0
  6
CONTINUOUS
 62
     7
 10
-9.8396856
 20
-7.491426
 42
0.042210471
  0
VERTEX
  8
0
  6
CONTINUOUS
 62
     7
 10
-9.8397572
 20
-15.086045
 42
0.039945269
  0
VERTEX
  8
0
  6
CONTINUOUS
 62
     7
 10
-8.5967178
 20
-22.578323
 42
0
  0
SEQEND
  8
0
  0
POLYLINE
  8
0
  6
CONTINUOUS
 62
     7
 66
     1
 10
0
 20
0
  0
VERTEX
  8
0
  6
CONTINUOUS
 62
     7
 10
-8.5967178
 20
0
 42
-0.039940651
  0
VERTEX
  8
0
  6
CONTINUOUS
 62
     7
 10
-9.8396852
 20
7.4914209
 42
-0.042210529
  0
VERTEX
  8
0
  6
CONTINUOUS
 62
     7
 10
-9.8397571
 20
15.086043
 42
-0.039945246
  0
VERTEX
  8
0
  6
CONTINUOUS
 62
     7
 10
-8.5967178
 20
22.578308
 42
0
  0
SEQEND
  8
0
  0
POLYLINE
  8
0
  6
CONTINUOUS
 62
     7
 66
     1
 10
0
 20
0
  0
VERTEX
  8
0
  6
CONTINUOUS
 62
     7
 10
-8.5967178
 20
-22.578323
 42
0.081978575
  0
VERTEX
  8
0
  6
CONTINUOUS
 62
     7
 10
-9.8216755
 20
-25.620219
 42
0.10912345
  0
VERTEX
  8
0
  6
CONTINUOUS
 62
     7
 10
-9.8216745
 20
-28.888676
 42
0.0819784
  0
VERTEX
  8
0
  6
CONTINUOUS
 62
     7
 10
-8.5967178
 20
-31.930573
 42
0
  0
SEQEND
  8
0
  0
POLYLINE
  8
0
  6
CONTINUOUS
 62
     7
 66
     1
 10
0
 20
0
  0
VERTEX
  8
0
  6
CONTINUOUS
 62
     7
 10
8.5967102
 20
0
 42
-0.039940678
  0
VERTEX
  8
0
  6
CONTINUOUS
 62
     7
 10
9.839678
 20
-7.491426
 42
-0.042210471
  0
VERTEX
  8
0
  6
CONTINUOUS
 62
     7
 10
9.8397496
 20
-15.086045
 42
-0.039945269
  0
VERTEX
  8
0
  6
CONTINUOUS
 62
     7
 10
8.5967102
 20
-22.578323
 42
0
  0
SEQEND
  8
0
  0
POLYLINE
  8
0
  6
CONTINUOUS
 62
     7
 66
     1
 10
0
 20
0
  0
VERTEX
  8
0
  6
CONTINUOUS
 62
     7
 10
8.5967102
 20
-22.578323
 42
-0.081978575
  0
VERTEX
  8
0
  6
CONTINUOUS
 62
     7
 10
9.8216679
 20
-25.620219
 42
-0.10912345
  0
VERTEX
  8
0
  6
CONTINUOUS
 62
     7
 10
9.8216668
 20
-28.888676
 42
-0.0819784
  0
VERTEX
  8
0
  6
CONTINUOUS
 62
     7
 10
8.5967102
 20
-31.930573
 42
0
  0
SEQEND
  8
0
  0
POLYLINE
  8
0
  6
CONTINUOUS
 62
     7
 66
     1
 10
0
 20
0
  0
VERTEX
  8
0
  6
CONTINUOUS
 62
     7
 10
-8.5967178
 20
22.578308
 42
-0.081978534
  0
VERTEX
  8
0
  6
CONTINUOUS
 62
     7
 10
-9.8216743
 20
25.620209
 42
-0.10912357
  0
VERTEX
  8
0
  6
CONTINUOUS
 62
     7
 10
-9.821674
 20
28.888678
 42
-0.081978323
  0
VERTEX
  8
0
  6
CONTINUOUS
 62
     7
 10
-8.5967178
 20
31.930573
 42
0
  0
SEQEND
  8
0
  0
POLYLINE
  8
0
  6
CONTINUOUS
 62
     7
 66
     1
 10
0
 20
0
  0
VERTEX
  8
0
  6
CONTINUOUS
 62
     7
 10
8.5967102
 20
0
 42
0.039940651
  0
VERTEX
  8
0
  6
CONTINUOUS
 62
     7
 10
9.8396775
 20
7.4914209
 42
0.042210529
  0
VERTEX
  8
0
  6
CONTINUOUS
 62
     7
 10
9.8397495
 20
15.086043
 42
0.039945246
  0
VERTEX
  8
0
  6
CONTINUOUS
 62
     7
 10
8.5967102
 20
22.578308
 42
0
  0
SEQEND
  8
0
  0
POLYLINE
  8
0
  6
CONTINUOUS
 62
     7
 66
     1
 10
0
 20
0
  0
VERTEX
  8
0
  6
CONTINUOUS
 62
     7
 10
8.5967102
 20
22.578308
 42
0.081978534
  0
VERTEX
  8
0
  6
CONTINUOUS
 62
     7
 10
9.8216667
 20
25.620209
 42
0.10912357
  0
VERTEX
  8
0
  6
CONTINUOUS
 62
     7
 10
9.8216663
 20
28.888678
 42
0.081978323
  0
VERTEX
  8
0
  6
CONTINUOUS
 62
     7
 10
8.5967102
 20
31.930573
 42
0
  0
SEQEND
  8
0
  0
TEXT
  8
0
  6
CONTINUOUS
 62
     7
 10
-1.3730594
 20
35.127806
 40
3.2
 41
1.0715625
  1
1
  0
LINE
  8
0
  6
CONTINUOUS
 62
     7
 10
-4.5
 20
11.739154
 11
-3.2674003
 21
11.739154
  0
LINE
  8
0
  6
CONTINUOUS
 62
     7
 10
-4.5
 20
10.839154
 11
-3.2674002
 21
10.839154
  0
LINE
  8
0
  6
CONTINUOUS
 62
     7
 10
3.2674003
 20
10.839154
 11
4.5
 21
10.839154
  0
LINE
  8
0
  6
CONTINUOUS
 62
     7
 10
3.2674002
 20
11.739154
 11
4.5
 21
11.739154
  0
LINE
  8
0
  6
CONTINUOUS
 62
     7
 10
-2.3641293
 20
10.839154
 11
1.9670125E-008
 21
10.839154
  0
LINE
  8
0
  6
CONTINUOUS
 62
     7
 10
-2.3641293
 20
11.739154
 11
-1.9670125E-008
 21
11.739154
  0
ARC
  8
0
  6
CONTINUOUS
 62
     7
 10
-7.86805E-008
 20
13.089154
 40
1.8
 50
36.008327
 51
143.99168
  0
ARC
  8
0
  6
CONTINUOUS
 62
     7
 10
-7.86805E-008
 20
13.089154
 40
2.7
 50
36.008327
 51
143.99168
  0
ARC
  8
0
  6
CONTINUOUS
 62
     7
 10
7.86805E-008
 20
9.4891541
 40
1.8
 50
216.00833
 51
323.99168
  0
ARC
  8
0
  6
CONTINUOUS
 62
     7
 10
7.86805E-008
 20
9.4891541
 40
2.7
 50
216.00833
 51
323.99168
  0
ARC
  8
0
  6
CONTINUOUS
 62
     7
 10
2.4767308
 20
11.289154
 40
5.7617307
 50
143.99168
 51
175.52056
  0
ARC
  8
0
  6
CONTINUOUS
 62
     7
 10
2.4767308
 20
11.289154
 40
4.8617306
 50
143.99168
 51
174.68912
  0
ARC
  8
0
  6
CONTINUOUS
 62
     7
 10
-2.4767308
 20
11.289154
 40
4.8617306
 50
323.99167
 51
36.008327
  0
ARC
  8
0
  6
CONTINUOUS
 62
     7
 10
-2.4767308
 20
11.289154
 40
5.7617307
 50
323.99167
 51
355.52055
  0
ARC
  8
0
  6
CONTINUOUS
 62
     7
 10
-4.1624999
 20
11.289154
 40
0.5625
 50
126.8699
 51
233.1301
  0
ARC
  8
0
  6
CONTINUOUS
 62
     7
 10
-0.33750001
 20
11.289154
 40
0.5625
 50
306.86991
 51
53.130105
  0
ARC
  8
0
  6
CONTINUOUS
 62
     7
 10
4.1624999
 20
11.289154
 40
0.5625
 50
306.86991
 51
53.130105
  0
ARC
  8
0
  6
CONTINUOUS
 62
     7
 10
2.4767308
 20
11.289154
 40
5.7617307
 50
184.47945
 51
216.00833
  0
ARC
  8
0
  6
CONTINUOUS
 62
     7
 10
2.4767308
 20
11.289154
 40
4.8617306
 50
185.31088
 51
216.00833
  0
ARC
  8
0
  6
CONTINUOUS
 62
     7
 10
-2.4767308
 20
11.289154
 40
5.7617307
 50
4.4794498
 51
36.008327
  0
ENDBLK
  8
0
  0
BLOCK
  8
0
  2
KOZU7
 70
    64
 10
0
 20
0
  0
POINT
  8
0
  6
CONTINUOUS
 62
     7
 10
0
 20
0
  0
POINT
  8
0
  6
CONTINUOUS
 62
     7
 10
0
 20
13.202568
  0
POINT
  8
0
  6
CONTINUOUS
 62
     7
 10
0
 20
13.202568
  0
POINT
  8
0
  6
CONTINUOUS
 62
     7
 10
0
 20
13.202568
  0
POINT
  8
0
  6
CONTINUOUS
 62
     7
 10
0
 20
13.202568
  0
POINT
  8
0
  6
CONTINUOUS
 62
     7
 10
0
 20
-13.202568
  0
POINT
  8
0
  6
CONTINUOUS
 62
     7
 10
0
 20
-13.202568
  0
POINT
  8
0
  6
CONTINUOUS
 62
     7
 10
0
 20
-13.202568
  0
POINT
  8
0
  6
CONTINUOUS
 62
     7
 10
0
 20
-13.202568
  0
POINT
  8
0
  6
CONTINUOUS
 62
     7
 10
-11
 20
27.654036
  0
POINT
  8
0
  6
CONTINUOUS
 62
     7
 10
-11
 20
-27.654036
  0
POINT
  8
0
  6
CONTINUOUS
 62
     7
 10
0
 20
0
  0
LINE
  8
0
  6
CENTER
 62
     7
 10
-41.21373
 20
0
 11
33.508392
 21
0
  0
LINE
  8
0
  6
CONTINUOUS
 62
     7
 10
-30.845215
 20
-20.955017
 11
-30.845215
 21
20.955002
  0
LINE
  8
0
  6
CONTINUOUS
 62
     7
 10
-11
 20
0
 11
-11
 21
34.500046
  0
LINE
  8
0
  6
CONTINUOUS
 62
     7
 10
-9.8904886
 20
39.264275
 11
0
 21
39.264275
  0
LINE
  8
0
  6
CONTINUOUS
 62
     7
 10
-9.8904886
 20
31.765465
 11
0
 21
31.765465
  0
LINE
  8
0
  6
CONTINUOUS
 62
     7
 10
-9.8904886
 20
12.133328
 11
0
 21
12.133328
  0
LINE
  8
0
  6
CONTINUOUS
 62
     7
 10
-11
 20
37.342545
 11
-11
 21
31.654036
  0
LINE
  8
0
  6
CONTINUOUS
 62
     7
 10
-11
 20
37.342545
 11
-9.8904886
 21
39.264275
  0
LINE
  8
0
  6
CONTINUOUS
 62
     7
 10
11
 20
0
 11
11
 21
34.500046
  0
LINE
  8
0
  6
CONTINUOUS
 62
     7
 10
9.8904886
 20
39.264275
 11
0
 21
39.264275
  0
LINE
  8
0
  6
CONTINUOUS
 62
     7
 10
9.8904886
 20
31.765465
 11
0
 21
31.765465
  0
LINE
  8
0
  6
CONTINUOUS
 62
     7
 10
9.8904886
 20
12.133328
 11
0
 21
12.133328
  0
LINE
  8
0
  6
CONTINUOUS
 62
     7
 10
11
 20
37.342545
 11
11
 21
0
  0
LINE
  8
0
  6
CONTINUOUS
 62
     7
 10
11
 20
37.342545
 11
9.8904886
 21
39.264275
  0
LINE
  8
0
  6
CONTINUOUS
 62
     7
 10
-11
 20
0
 11
-11
 21
-34.500046
  0
LINE
  8
0
  6
CONTINUOUS
 62
     7
 10
11
 20
-37.342545
 11
9.8904886
 21
-39.264275
  0
LINE
  8
0
  6
CONTINUOUS
 62
     7
 10
9.8904886
 20
-12.133328
 11
0
 21
-12.133328
  0
LINE
  8
0
  6
CONTINUOUS
 62
     7
 10
9.8904886
 20
-31.765465
 11
0
 21
-31.765465
  0
LINE
  8
0
  6
CONTINUOUS
 62
     7
 10
-9.8904886
 20
-39.264275
 11
0
 21
-39.264275
  0
LINE
  8
0
  6
CONTINUOUS
 62
     7
 10
9.8904886
 20
-39.264275
 11
0
 21
-39.264275
  0
LINE
  8
0
  6
CONTINUOUS
 62
     7
 10
-9.8904886
 20
-31.765465
 11
0
 21
-31.765465
  0
LINE
  8
0
  6
CONTINUOUS
 62
     7
 10
-9.8904886
 20
-12.133328
 11
0
 21
-12.133328
  0
LINE
  8
0
  6
CONTINUOUS
 62
     7
 10
-11
 20
-37.342545
 11
-11
 21
-31.654036
  0
LINE
  8
0
  6
CONTINUOUS
 62
     7
 10
11
 20
-37.342545
 11
11
 21
0
  0
LINE
  8
0
  6
CONTINUOUS
 62
     7
 10
11
 20
0
 11
11
 21
-34.500046
  0
LINE
  8
0
  6
CONTINUOUS
 62
     7
 10
-11
 20
-37.342545
 11
-9.8904886
 21
-39.264275
  0
LINE
  8
0
  6
CONTINUOUS
 62
     7
 10
30.845215
 20
26.300003
 11
30.845215
 21
0
  0
LINE
  8
0
  6
CONTINUOUS
 62
     7
 10
11
 20
27.654036
 11
30.063463
 21
27.654036
  0
LINE
  8
0
  6
CONTINUOUS
 62
     7
 10
11
 20
22.370447
 11
30.063463
 21
22.370447
  0
LINE
  8
0
  6
CONTINUOUS
 62
     7
 10
11
 20
8.5378294
 11
30.063463
 21
8.5378294
  0
LINE
  8
0
  6
CONTINUOUS
 62
     7
 10
30.063461
 20
27.654036
 11
30.845213
 21
26.300003
  0
LINE
  8
0
  6
CONTINUOUS
 62
     7
 10
30.063461
 20
-27.654036
 11
30.845213
 21
-26.300003
  0
LINE
  8
0
  6
CONTINUOUS
 62
     7
 10
11
 20
-22.370447
 11
30.063463
 21
-22.370447
  0
LINE
  8
0
  6
CONTINUOUS
 62
     7
 10
11
 20
-8.5378294
 11
30.063463
 21
-8.5378294
  0
LINE
  8
0
  6
CONTINUOUS
 62
     7
 10
11
 20
-27.654036
 11
30.063463
 21
-27.654036
  0
LINE
  8
0
  6
CONTINUOUS
 62
     7
 10
30.845215
 20
-26.300003
 11
30.845215
 21
0
  0
LINE
  8
0
  6
CONTINUOUS
 62
     7
 10
-15
 20
-27.654036
 11
-30.063463
 21
-27.654036
  0
LINE
  8
0
  6
CONTINUOUS
 62
     7
 10
-15
 20
-22.370447
 11
-30.063463
 21
-22.370447
  0
LINE
  8
0
  6
CONTINUOUS
 62
     7
 10
-15
 20
-8.5378294
 11
-30.063463
 21
-8.5378294
  0
LINE
  8
0
  6
CONTINUOUS
 62
     7
 10
-30.845215
 20
-26.300003
 11
-30.845215
 21
0
  0
LINE
  8
0
  6
CONTINUOUS
 62
     7
 10
-30.063461
 20
-27.654036
 11
-30.845213
 21
-26.300003
  0
LINE
  8
0
  6
CONTINUOUS
 62
     7
 10
-30.063461
 20
27.654036
 11
-30.845213
 21
26.300003
  0
LINE
  8
0
  6
CONTINUOUS
 62
     7
 10
-15
 20
22.370447
 11
-30.063463
 21
22.370447
  0
LINE
  8
0
  6
CONTINUOUS
 62
     7
 10
-15
 20
8.5378294
 11
-30.063463
 21
8.5378294
  0
LINE
  8
0
  6
CONTINUOUS
 62
     7
 10
-15
 20
27.654036
 11
-30.063463
 21
27.654036
  0
LINE
  8
0
  6
CONTINUOUS
 62
     7
 10
-30.845215
 20
26.300003
 11
-30.845215
 21
0
  0
LINE
  8
0
  6
CONTINUOUS
 62
     7
 10
-11
 20
37.342545
 11
-11
 21
-35.51487
  0
ARC
  8
0
  6
CONTINUOUS
 62
     7
 10
-4.1100082
 20
35.51487
 40
6.8899918
 50
147.03127
 51
212.96874
  0
ARC
  8
0
  6
CONTINUOUS
 62
     7
 10
32.977108
 20
21.949396
 40
43.977108
 50
167.10244
 51
192.89756
  0
ARC
  8
0
  6
CONTINUOUS
 62
     7
 10
55.898209
 20
1.7763568E-015
 40
66.898209
 50
169.55043
 51
180.00001
  0
ARC
  8
0
  6
CONTINUOUS
 62
     7
 10
4.1100082
 20
35.51487
 40
6.8899918
 50
327.03126
 51
32.968736
  0
ARC
  8
0
  6
CONTINUOUS
 62
     7
 10
-55.898209
 20
1.7763568E-015
 40
66.898209
 50
5.0888875E-014
 51
10.449569
  0
ARC
  8
0
  6
CONTINUOUS
 62
     7
 10
-32.977108
 20
21.949396
 40
43.977108
 50
347.10244
 51
12.89756
  0
ARC
  8
0
  6
CONTINUOUS
 62
     7
 10
-4.1100082
 20
-35.51487
 40
6.8899918
 50
147.03127
 51
212.96874
  0
ARC
  8
0
  6
CONTINUOUS
 62
     7
 10
4.1100082
 20
-35.51487
 40
6.8899918
 50
327.03126
 51
32.968736
  0
ARC
  8
0
  6
CONTINUOUS
 62
     7
 10
55.898209
 20
-1.7763568E-015
 40
66.898209
 50
179.99999
 51
190.44957
  0
ARC
  8
0
  6
CONTINUOUS
 62
     7
 10
-55.898209
 20
-1.7763568E-015
 40
66.898209
 50
349.55043
 51
360
  0
ARC
  8
0
  6
CONTINUOUS
 62
     7
 10
-32.977108
 20
-21.949396
 40
43.977108
 50
347.10244
 51
12.89756
  0
ARC
  8
0
  6
CONTINUOUS
 62
     7
 10
32.977108
 20
-21.949396
 40
43.977108
 50
167.10244
 51
192.89756
  0
ARC
  8
0
  6
CONTINUOUS
 62
     7
 10
25.990593
 20
25.012241
 40
4.8546224
 50
327.03126
 51
32.968736
  0
ARC
  8
0
  6
CONTINUOUS
 62
     7
 10
-0.1406375
 20
15.454138
 40
30.985853
 50
347.10244
 51
12.89756
  0
ARC
  8
0
  6
CONTINUOUS
 62
     7
 10
-16.290545
 20
-0.011198518
 40
47.135761
 50
0.013612336
 51
10.449587
  0
ARC
  8
0
  6
CONTINUOUS
 62
     7
 10
-0.1406375
 20
-15.454138
 40
30.985853
 50
347.10244
 51
12.89756
  0
ARC
  8
0
  6
CONTINUOUS
 62
     7
 10
-16.290545
 20
0.011198518
 40
47.135761
 50
349.55041
 51
359.98639
  0
ARC
  8
0
  6
CONTINUOUS
 62
     7
 10
25.990593
 20
-25.012241
 40
4.8546224
 50
327.03126
 51
32.968736
  0
ARC
  8
0
  6
CONTINUOUS
 62
     7
 10
0.1406375
 20
-15.454138
 40
30.985853
 50
167.10244
 51
192.89756
  0
ARC
  8
0
  6
CONTINUOUS
 62
     7
 10
16.290545
 20
0.011198518
 40
47.135761
 50
180.01361
 51
190.44958
  0
ARC
  8
0
  6
CONTINUOUS
 62
     7
 10
0.1406375
 20
15.454138
 40
30.985853
 50
167.10244
 51
192.89756
  0
ARC
  8
0
  6
CONTINUOUS
 62
     7
 10
16.290545
 20
-0.011198518
 40
47.135761
 50
169.55042
 51
179.98639
  0
ARC
  8
0
  6
CONTINUOUS
 62
     7
 10
-25.990593
 20
-25.012241
 40
4.8546224
 50
147.03127
 51
212.96874
  0
ARC
  8
0
  6
CONTINUOUS
 62
     7
 10
-25.990593
 20
25.012241
 40
4.8546224
 50
147.03127
 51
212.96874
  0
ARC
  8
0
  6
CONTINUOUS
 62
     7
 10
-15
 20
31.654036
 40
4
 50
270
 51
0
  0
ARC
  8
0
  6
CONTINUOUS
 62
     7
 10
-15
 20
-31.654036
 40
4
 50
0
 51
90.000003
  0
TEXT
  8
0
  6
CONTINUOUS
 62
     7
 10
-5.3530139
 20
42.21052
 40
3.2
 41
1.0130114
  1
11/4
  0
LINE
  8
0
  6
CONTINUOUS
 62
     7
 10
-6
 20
0.59999976
 11
-4.3565336
 21
0.59999983
  0
LINE
  8
0
  6
CONTINUOUS
 62
     7
 10
-6
 20
-0.60000029
 11
-4.3565335
 21
-0.60000021
  0
LINE
  8
0
  6
CONTINUOUS
 62
     7
 10
4.3565336
 20
-0.59999983
 11
6
 21
-0.59999976
  0
LINE
  8
0
  6
CONTINUOUS
 62
     7
 10
4.3565335
 20
0.60000021
 11
6
 21
0.60000029
  0
LINE
  8
0
  6
CONTINUOUS
 62
     7
 10
-3.1521723
 20
-0.60000016
 11
2.6226835E-008
 21
-0.60000002
  0
LINE
  8
0
  6
CONTINUOUS
 62
     7
 10
-3.1521724
 20
0.59999989
 11
-2.6226835E-008
 21
0.60000002
  0
ARC
  8
0
  6
CONTINUOUS
 62
     7
 10
-1.0490734E-007
 20
2.4000001
 40
2.4000001
 50
36.008327
 51
143.99168
  0
ARC
  8
0
  6
CONTINUOUS
 62
     7
 10
-1.0490734E-007
 20
2.4000001
 40
3.5999999
 50
36.008327
 51
143.99168
  0
ARC
  8
0
  6
CONTINUOUS
 62
     7
 10
1.0490734E-007
 20
-2.4000001
 40
2.4000001
 50
216.00833
 51
323.99168
  0
ARC
  8
0
  6
CONTINUOUS
 62
     7
 10
1.0490734E-007
 20
-2.4000001
 40
3.5999999
 50
216.00833
 51
323.99168
  0
ARC
  8
0
  6
CONTINUOUS
 62
     7
 10
3.3023076
 20
1.4434846E-007
 40
7.6823077
 50
143.99168
 51
175.52056
  0
ARC
  8
0
  6
CONTINUOUS
 62
     7
 10
3.3023076
 20
1.4434846E-007
 40
6.4823079
 50
143.99168
 51
174.68912
  0
ARC
  8
0
  6
CONTINUOUS
 62
     7
 10
-3.3023076
 20
-1.4434846E-007
 40
6.4823079
 50
323.99167
 51
36.008327
  0
ARC
  8
0
  6
CONTINUOUS
 62
     7
 10
-3.3023076
 20
-1.4434846E-007
 40
7.6823077
 50
323.99167
 51
355.52055
  0
ARC
  8
0
  6
CONTINUOUS
 62
     7
 10
-5.5500002
 20
-2.4259822E-007
 40
0.75
 50
126.8699
 51
233.1301
  0
ARC
  8
0
  6
CONTINUOUS
 62
     7
 10
-0.44999999
 20
-1.9670125E-008
 40
0.75
 50
306.86991
 51
53.130105
  0
ARC
  8
0
  6
CONTINUOUS
 62
     7
 10
5.5500002
 20
2.4259822E-007
 40
0.75
 50
306.86991
 51
53.130105
  0
ARC
  8
0
  6
CONTINUOUS
 62
     7
 10
3.3023076
 20
1.4434846E-007
 40
6.4823079
 50
185.31088
 51
216.00833
  0
ARC
  8
0
  6
CONTINUOUS
 62
     7
 10
3.3023076
 20
1.4434846E-007
 40
7.6823077
 50
184.47945
 51
216.00833
  0
ARC
  8
0
  6
CONTINUOUS
 62
     7
 10
-3.3023076
 20
-1.4434846E-007
 40
7.6823077
 50
4.4794498
 51
36.008327
  0
ENDBLK
  8
0
  0
BLOCK
  8
0
  2
KOZU8
 70
    64
 10
0
 20
0
  0
POINT
  8
0
  6
CONTINUOUS
 62
     7
 10
0
 20
0
  0
POINT
  8
0
  6
CONTINUOUS
 62
     7
 10
-12.5
 20
29.538763
  0
POINT
  8
0
  6
CONTINUOUS
 62
     7
 10
-12.5
 20
-29.538763
  0
POINT
  8
0
  6
CONTINUOUS
 62
     7
 10
0
 20
0
  0
LINE
  8
0
  6
CENTER
 62
     7
 10
-6.5
 20
0
 11
37.399994
 21
0
  0
LINE
  8
0
  6
CENTER
 62
     7
 10
2.3999634
 20
0
 11
-38.388031
 21
0
  0
LINE
  8
0
  6
CONTINUOUS
 62
     7
 10
-12.5
 20
39.174999
 11
-12.5
 21
34.538761
  0
LINE
  8
0
  6
CONTINUOUS
 62
     7
 10
-33.819702
 20
28.09782
 11
-33.819702
 21
0
  0
LINE
  8
0
  6
CONTINUOUS
 62
     7
 10
-11.341243
 20
41.182026
 11
0
 21
41.182026
  0
LINE
  8
0
  6
CONTINUOUS
 62
     7
 10
-11.341243
 20
33.35038
 11
0
 21
33.35038
  0
LINE
  8
0
  6
CONTINUOUS
 62
     7
 10
-11.341243
 20
12.846869
 11
0
 21
12.846869
  0
LINE
  8
0
  6
CONTINUOUS
 62
     7
 10
-12.499999
 20
39.174999
 11
-11.341242
 21
41.182026
  0
LINE
  8
0
  6
CONTINUOUS
 62
     7
 10
12.499999
 20
39.174999
 11
11.341242
 21
41.182026
  0
LINE
  8
0
  6
CONTINUOUS
 62
     7
 10
11.341243
 20
12.846869
 11
0
 21
12.846869
  0
LINE
  8
0
  6
CONTINUOUS
 62
     7
 10
11.341243
 20
33.35038
 11
0
 21
33.35038
  0
LINE
  8
0
  6
CONTINUOUS
 62
     7
 10
11.341243
 20
41.182026
 11
0
 21
41.182026
  0
LINE
  8
0
  6
CONTINUOUS
 62
     7
 10
12.5
 20
39.174999
 11
12.5
 21
0
  0
LINE
  8
0
  6
CONTINUOUS
 62
     7
 10
11.341243
 20
-33.35038
 11
0
 21
-33.35038
  0
LINE
  8
0
  6
CONTINUOUS
 62
     7
 10
-12.499999
 20
-39.174999
 11
-11.341242
 21
-41.182026
  0
LINE
  8
0
  6
CONTINUOUS
 62
     7
 10
11.341243
 20
-12.846869
 11
0
 21
-12.846869
  0
LINE
  8
0
  6
CONTINUOUS
 62
     7
 10
-11.341243
 20
-12.846869
 11
0
 21
-12.846869
  0
LINE
  8
0
  6
CONTINUOUS
 62
     7
 10
12.5
 20
-39.174999
 11
12.5
 21
0
  0
LINE
  8
0
  6
CONTINUOUS
 62
     7
 10
-11.341243
 20
-33.35038
 11
0
 21
-33.35038
  0
LINE
  8
0
  6
CONTINUOUS
 62
     7
 10
12.499999
 20
-39.174999
 11
11.341242
 21
-41.182026
  0
LINE
  8
0
  6
CONTINUOUS
 62
     7
 10
11.341243
 20
-41.182026
 11
0
 21
-41.182026
  0
LINE
  8
0
  6
CONTINUOUS
 62
     7
 10
-11.341243
 20
-41.182026
 11
0
 21
-41.182026
  0
LINE
  8
0
  6
CONTINUOUS
 62
     7
 10
-12.5
 20
-39.174999
 11
-12.5
 21
-34.538761
  0
LINE
  8
0
  6
CONTINUOUS
 62
     7
 10
-32.987774
 20
29.538763
 11
-17.5
 21
29.538763
  0
LINE
  8
0
  6
CONTINUOUS
 62
     7
 10
-32.987774
 20
23.916042
 11
-17.5
 21
23.916042
  0
LINE
  8
0
  6
CONTINUOUS
 62
     7
 10
-33.819702
 20
28.09782
 11
-32.987774
 21
29.538763
  0
LINE
  8
0
  6
CONTINUOUS
 62
     7
 10
-32.987774
 20
9.1955719
 11
-17.5
 21
9.1955719
  0
LINE
  8
0
  6
CONTINUOUS
 62
     7
 10
-32.987774
 20
-23.916042
 11
-17.5
 21
-23.916042
  0
LINE
  8
0
  6
CONTINUOUS
 62
     7
 10
-32.987774
 20
-29.538763
 11
-17.5
 21
-29.538763
  0
LINE
  8
0
  6
CONTINUOUS
 62
     7
 10
-33.819702
 20
-28.09782
 11
-33.819702
 21
0
  0
LINE
  8
0
  6
CONTINUOUS
 62
     7
 10
-32.987774
 20
-9.1955719
 11
-17.5
 21
-9.1955719
  0
LINE
  8
0
  6
CONTINUOUS
 62
     7
 10
-33.819702
 20
-28.09782
 11
-32.987774
 21
-29.538763
  0
LINE
  8
0
  6
CONTINUOUS
 62
     7
 10
32.987774
 20
23.916042
 11
12.5
 21
23.916042
  0
LINE
  8
0
  6
CONTINUOUS
 62
     7
 10
32.987774
 20
29.538763
 11
12.5
 21
29.538763
  0
LINE
  8
0
  6
CONTINUOUS
 62
     7
 10
33.819702
 20
28.09782
 11
33.819702
 21
0
  0
LINE
  8
0
  6
CONTINUOUS
 62
     7
 10
32.987774
 20
9.1955719
 11
12.5
 21
9.1955719
  0
LINE
  8
0
  6
CONTINUOUS
 62
     7
 10
32.987774
 20
-23.916042
 11
12.5
 21
-23.916042
  0
LINE
  8
0
  6
CONTINUOUS
 62
     7
 10
32.987774
 20
-29.538763
 11
12.5
 21
-29.538763
  0
LINE
  8
0
  6
CONTINUOUS
 62
     7
 10
33.819702
 20
28.09782
 11
32.987774
 21
29.538763
  0
LINE
  8
0
  6
CONTINUOUS
 62
     7
 10
33.819702
 20
-28.09782
 11
32.987774
 21
-29.538763
  0
LINE
  8
0
  6
CONTINUOUS
 62
     7
 10
32.987774
 20
-9.1955719
 11
12.5
 21
-9.1955719
  0
LINE
  8
0
  6
CONTINUOUS
 62
     7
 10
33.819702
 20
-28.09782
 11
33.819702
 21
0
  0
LINE
  8
0
  6
CONTINUOUS
 62
     7
 10
-12.5
 20
39.174999
 11
-12.5
 21
-37.266205
  0
ARC
  8
0
  6
CONTINUOUS
 62
     7
 10
-5.3041949
 20
37.266205
 40
7.1958051
 50
147.03127
 51
212.96874
  0
ARC
  8
0
  6
CONTINUOUS
 62
     7
 10
33.429039
 20
23.098625
 40
45.929039
 50
167.10244
 51
192.89756
  0
ARC
  8
0
  6
CONTINUOUS
 62
     7
 10
57.354282
 20
0.175
 40
69.8545
 50
169.54846
 51
180.14353
  0
ARC
  8
0
  6
CONTINUOUS
 62
     7
 10
-57.354282
 20
0.175
 40
69.8545
 50
359.85646
 51
10.451535
  0
ARC
  8
0
  6
CONTINUOUS
 62
     7
 10
5.3041949
 20
37.266205
 40
7.1958051
 50
327.03126
 51
32.968736
  0
ARC
  8
0
  6
CONTINUOUS
 62
     7
 10
-33.429039
 20
23.098625
 40
45.929039
 50
347.10244
 51
12.89756
  0
ARC
  8
0
  6
CONTINUOUS
 62
     7
 10
57.354282
 20
-0.175
 40
69.8545
 50
179.85646
 51
190.45153
  0
ARC
  8
0
  6
CONTINUOUS
 62
     7
 10
-5.3041949
 20
-37.266205
 40
7.1958051
 50
147.03127
 51
212.96874
  0
ARC
  8
0
  6
CONTINUOUS
 62
     7
 10
5.3041949
 20
-37.266205
 40
7.1958051
 50
327.03126
 51
32.968736
  0
ARC
  8
0
  6
CONTINUOUS
 62
     7
 10
33.429039
 20
-23.098625
 40
45.929039
 50
167.10244
 51
192.89756
  0
ARC
  8
0
  6
CONTINUOUS
 62
     7
 10
-57.354282
 20
-0.175
 40
69.8545
 50
349.54847
 51
0.14353795
  0
ARC
  8
0
  6
CONTINUOUS
 62
     7
 10
-33.429039
 20
-23.098625
 40
45.929039
 50
347.10244
 51
12.89756
  0
ARC
  8
0
  6
CONTINUOUS
 62
     7
 10
-28.653482
 20
26.727404
 40
5.1662192
 50
147.03127
 51
212.96874
  0
ARC
  8
0
  6
CONTINUOUS
 62
     7
 10
-0.84500641
 20
16.555807
 40
32.974697
 50
167.10244
 51
192.89756
  0
ARC
  8
0
  6
CONTINUOUS
 62
     7
 10
16.335827
 20
0.09782026
 40
50.155624
 50
169.54924
 51
180.11175
  0
ARC
  8
0
  6
CONTINUOUS
 62
     7
 10
-28.653482
 20
-26.727404
 40
5.1662192
 50
147.03127
 51
212.96874
  0
ARC
  8
0
  6
CONTINUOUS
 62
     7
 10
-0.84500641
 20
-16.555807
 40
32.974697
 50
167.10244
 51
192.89756
  0
ARC
  8
0
  6
CONTINUOUS
 62
     7
 10
16.335827
 20
-0.09782026
 40
50.155624
 50
179.88825
 51
190.45075
  0
ARC
  8
0
  6
CONTINUOUS
 62
     7
 10
28.653482
 20
26.727404
 40
5.1662192
 50
327.03126
 51
32.968736
  0
ARC
  8
0
  6
CONTINUOUS
 62
     7
 10
-16.335827
 20
-0.09782026
 40
50.155624
 50
349.54924
 51
0.11174602
  0
ARC
  8
0
  6
CONTINUOUS
 62
     7
 10
0.84500641
 20
-16.555807
 40
32.974697
 50
347.10244
 51
12.89756
  0
ARC
  8
0
  6
CONTINUOUS
 62
     7
 10
28.653482
 20
-26.727404
 40
5.1662192
 50
327.03126
 51
32.968736
  0
ARC
  8
0
  6
CONTINUOUS
 62
     7
 10
0.84500641
 20
16.555807
 40
32.974697
 50
347.10244
 51
12.89756
  0
ARC
  8
0
  6
CONTINUOUS
 62
     7
 10
-16.335827
 20
0.09782026
 40
50.155624
 50
359.88825
 51
10.450761
  0
ARC
  8
0
  6
CONTINUOUS
 62
     7
 10
-17.5
 20
34.538761
 40
5
 50
270
 51
0
  0
ARC
  8
0
  6
CONTINUOUS
 62
     7
 10
-17.5
 20
-34.538761
 40
5
 50
0
 51
90.000003
  0
TEXT
  8
0
  6
CONTINUOUS
 62
     7
 10
-6.7268552
 20
46.147505
 40
3.2
 41
1.0130114
  1
11/2
  0
LINE
  8
0
  6
CONTINUOUS
 62
     7
 10
-6
 20
0.59999976
 11
-4.3565336
 21
0.59999983
  0
LINE
  8
0
  6
CONTINUOUS
 62
     7
 10
-6
 20
-0.60000029
 11
-4.3565335
 21
-0.60000021
  0
LINE
  8
0
  6
CONTINUOUS
 62
     7
 10
4.3565336
 20
-0.59999983
 11
6
 21
-0.59999976
  0
LINE
  8
0
  6
CONTINUOUS
 62
     7
 10
4.3565335
 20
0.60000021
 11
6
 21
0.60000029
  0
LINE
  8
0
  6
CONTINUOUS
 62
     7
 10
-3.1521723
 20
-0.60000016
 11
2.6226835E-008
 21
-0.60000002
  0
LINE
  8
0
  6
CONTINUOUS
 62
     7
 10
-3.1521724
 20
0.59999989
 11
-2.6226835E-008
 21
0.60000002
  0
ARC
  8
0
  6
CONTINUOUS
 62
     7
 10
-1.0490734E-007
 20
2.4000001
 40
2.4000001
 50
36.008327
 51
143.99168
  0
ARC
  8
0
  6
CONTINUOUS
 62
     7
 10
-1.0490734E-007
 20
2.4000001
 40
3.5999999
 50
36.008327
 51
143.99168
  0
ARC
  8
0
  6
CONTINUOUS
 62
     7
 10
1.0490734E-007
 20
-2.4000001
 40
2.4000001
 50
216.00833
 51
323.99168
  0
ARC
  8
0
  6
CONTINUOUS
 62
     7
 10
1.0490734E-007
 20
-2.4000001
 40
3.5999999
 50
216.00833
 51
323.99168
  0
ARC
  8
0
  6
CONTINUOUS
 62
     7
 10
3.3023076
 20
1.4434846E-007
 40
7.6823077
 50
143.99168
 51
175.52056
  0
ARC
  8
0
  6
CONTINUOUS
 62
     7
 10
3.3023076
 20
1.4434846E-007
 40
6.4823079
 50
143.99168
 51
174.68912
  0
ARC
  8
0
  6
CONTINUOUS
 62
     7
 10
-3.3023076
 20
-1.4434846E-007
 40
6.4823079
 50
323.99167
 51
36.008327
  0
ARC
  8
0
  6
CONTINUOUS
 62
     7
 10
-3.3023076
 20
-1.4434846E-007
 40
7.6823077
 50
323.99167
 51
355.52055
  0
ARC
  8
0
  6
CONTINUOUS
 62
     7
 10
-5.5500002
 20
-2.4259822E-007
 40
0.75
 50
126.8699
 51
233.1301
  0
ARC
  8
0
  6
CONTINUOUS
 62
     7
 10
-0.44999999
 20
-1.9670125E-008
 40
0.75
 50
306.86991
 51
53.130105
  0
ARC
  8
0
  6
CONTINUOUS
 62
     7
 10
5.5500002
 20
2.4259822E-007
 40
0.75
 50
306.86991
 51
53.130105
  0
ARC
  8
0
  6
CONTINUOUS
 62
     7
 10
3.3023076
 20
1.4434846E-007
 40
6.4823079
 50
185.31088
 51
216.00833
  0
ARC
  8
0
  6
CONTINUOUS
 62
     7
 10
3.3023076
 20
1.4434846E-007
 40
7.6823077
 50
184.47945
 51
216.00833
  0
ARC
  8
0
  6
CONTINUOUS
 62
     7
 10
-3.3023076
 20
-1.4434846E-007
 40
7.6823077
 50
4.4794498
 51
36.008327
  0
ENDBLK
  8
0
  0
BLOCK
  8
0
  2
KOZU9
 70
    64
 10
0
 20
0
  0
POINT
  8
0
  6
CONTINUOUS
 62
     7
 10
0
 20
0
  0
POINT
  8
0
  6
CONTINUOUS
 62
     7
 10
0
 20
0
  0
LINE
  8
0
  6
CONTINUOUS
 62
     7
 10
-18.820015
 20
36.275467
 11
-36.726086
 21
36.275467
  0
LINE
  8
0
  6
CONTINUOUS
 62
     7
 10
-18.820015
 20
-36.275452
 11
-36.726093
 21
-36.275452
  0
LINE
  8
0
  6
CONTINUOUS
 62
     7
 10
-36.596443
 20
-29.347443
 11
-18.820015
 21
-29.347443
  0
LINE
  8
0
  6
CONTINUOUS
 62
     7
 10
13.249992
 20
11.209732
 11
36.596443
 21
11.209732
  0
LINE
  8
0
  6
CONTINUOUS
 62
     7
 10
-36.596443
 20
-11.209732
 11
-18.820015
 21
-11.209732
  0
LINE
  8
0
  6
CONTINUOUS
 62
     7
 10
-36.596443
 20
29.347443
 11
-18.820015
 21
29.347443
  0
LINE
  8
0
  6
CONTINUOUS
 62
     7
 10
-36.596443
 20
11.209732
 11
-18.820015
 21
11.209732
  0
LINE
  8
0
  6
CONTINUOUS
 62
     7
 10
13.249992
 20
36.500015
 11
36.596443
 21
36.500015
  0
LINE
  8
0
  6
CONTINUOUS
 62
     7
 10
37.751152
 20
34.5
 11
37.751152
 21
0
  0
LINE
  8
0
  6
CONTINUOUS
 62
     7
 10
-13.750008
 20
0
 11
-13.750008
 21
-46.500015
  0
LINE
  8
0
  6
CONTINUOUS
 62
     7
 10
13.249992
 20
0
 11
13.249992
 21
-46.500015
  0
LINE
  8
0
  6
CONTINUOUS
 62
     7
 10
11.868382
 20
-48.892967
 11
13.249974
 21
-46.499981
  0
LINE
  8
0
  6
CONTINUOUS
 62
     7
 10
-12.368416
 20
-39.555267
 11
11.868401
 21
-39.555267
  0
LINE
  8
0
  6
CONTINUOUS
 62
     7
 10
-12.368416
 20
-15.108536
 11
11.868401
 21
-15.108536
  0
LINE
  8
0
  6
CONTINUOUS
 62
     7
 10
-12.368428
 20
-48.893013
 11
-13.75002
 21
-46.500027
  0
LINE
  8
0
  6
CONTINUOUS
 62
     7
 10
-12.368416
 20
-48.89299
 11
11.868401
 21
-48.89299
  0
LINE
  8
0
  6
CONTINUOUS
 62
     7
 10
-13.750008
 20
0
 11
-13.750008
 21
46.500015
  0
LINE
  8
0
  6
CONTINUOUS
 62
     7
 10
13.249992
 20
0
 11
13.249992
 21
46.500015
  0
LINE
  8
0
  6
CONTINUOUS
 62
     7
 10
11.868375
 20
48.892963
 11
13.249968
 21
46.499977
  0
LINE
  8
0
  6
CONTINUOUS
 62
     7
 10
-12.368416
 20
39.555252
 11
11.868401
 21
39.555252
  0
LINE
  8
0
  6
CONTINUOUS
 62
     7
 10
-12.368416
 20
15.108536
 11
11.868401
 21
15.108536
  0
LINE
  8
0
  6
CONTINUOUS
 62
     7
 10
-12.368422
 20
48.893009
 11
-13.750013
 21
46.500023
  0
LINE
  8
0
  6
CONTINUOUS
 62
     7
 10
-12.368416
 20
48.89299
 11
11.868401
 21
48.89299
  0
LINE
  8
0
  6
CONTINUOUS
 62
     7
 10
13.249992
 20
29.347443
 11
36.596443
 21
29.347443
  0
LINE
  8
0
  6
CONTINUOUS
 62
     7
 10
36.596443
 20
36.500015
 11
37.751152
 21
34.5
  0
LINE
  8
0
  6
CONTINUOUS
 62
     7
 10
13.249992
 20
-11.209732
 11
36.596443
 21
-11.209732
  0
LINE
  8
0
  6
CONTINUOUS
 62
     7
 10
13.249992
 20
-36.500015
 11
36.596443
 21
-36.500015
  0
LINE
  8
0
  6
CONTINUOUS
 62
     7
 10
37.751152
 20
-34.5
 11
37.751152
 21
0
  0
LINE
  8
0
  6
CONTINUOUS
 62
     7
 10
13.249992
 20
-29.347443
 11
36.596443
 21
-29.347443
  0
LINE
  8
0
  6
CONTINUOUS
 62
     7
 10
36.596443
 20
-36.500015
 11
37.751152
 21
-34.5
  0
LINE
  8
0
  6
CENTER
 62
     7
 10
-50.328365
 20
0
 11
50
 21
0
  0
LINE
  8
0
  6
CONTINUOUS
 62
     7
 10
-37.751152
 20
34.5
 11
-37.751152
 21
0
  0
LINE
  8
0
  6
CONTINUOUS
 62
     7
 10
-37.751152
 20
-34.5
 11
-37.751152
 21
0
  0
LINE
  8
0
  6
CONTINUOUS
 62
     7
 10
-36.596443
 20
36.500015
 11
-37.751152
 21
34.5
  0
LINE
  8
0
  6
CONTINUOUS
 62
     7
 10
-36.596443
 20
-36.500015
 11
-37.751152
 21
-34.5
  0
ARC
  8
0
  6
CONTINUOUS
 62
     7
 10
-18.820015
 20
-42.275452
 40
6
 50
32.327934
 51
89.999996
  0
ARC
  8
0
  6
CONTINUOUS
 62
     7
 10
-18.820015
 20
42.275436
 40
6
 50
270
 51
327.67207
  0
ARC
  8
0
  6
CONTINUOUS
 62
     7
 10
31.636745
 20
32.923729
 40
6.1146073
 50
324.20578
 51
35.794218
  0
ARC
  8
0
  6
CONTINUOUS
 62
     7
 10
1.5613134
 20
20.278587
 40
36.189838
 50
345.4875
 51
14.512496
  0
ARC
  8
0
  6
CONTINUOUS
 62
     7
 10
-17.237337
 20
0
 40
54.988491
 50
0
 51
11.762537
  0
ARC
  8
0
  6
CONTINUOUS
 62
     7
 10
31.636745
 20
-32.923729
 40
6.1146073
 50
324.20578
 51
35.794221
  0
ARC
  8
0
  6
CONTINUOUS
 62
     7
 10
-17.237337
 20
0
 40
54.988491
 50
348.23746
 51
360
  0
ARC
  8
0
  6
CONTINUOUS
 62
     7
 10
1.5613134
 20
-20.278587
 40
36.189838
 50
345.4875
 51
14.512499
  0
ARC
  8
0
  6
CONTINUOUS
 62
     7
 10
-1.5613134
 20
-20.278587
 40
36.189838
 50
165.48751
 51
194.5125
  0
ARC
  8
0
  6
CONTINUOUS
 62
     7
 10
17.237337
 20
0
 40
54.988491
 50
179.99999
 51
191.76253
  0
ARC
  8
0
  6
CONTINUOUS
 62
     7
 10
-31.636745
 20
-32.923729
 40
6.1146073
 50
144.20578
 51
215.79423
  0
ARC
  8
0
  6
CONTINUOUS
 62
     7
 10
-31.636745
 20
32.923729
 40
6.1146073
 50
144.20578
 51
215.79423
  0
ARC
  8
0
  6
CONTINUOUS
 62
     7
 10
17.237337
 20
0
 40
54.988491
 50
168.23746
 51
180.00001
  0
ARC
  8
0
  6
CONTINUOUS
 62
     7
 10
-1.5613134
 20
20.278587
 40
36.189838
 50
165.48751
 51
194.5125
  0
POLYLINE
  8
0
  6
CONTINUOUS
 62
     7
 66
     1
 10
0
 20
0
  0
VERTEX
  8
0
  6
CONTINUOUS
 62
     7
 10
13.249992
 20
0
 42
0.015336731
  0
VERTEX
  8
0
  6
CONTINUOUS
 62
     7
 10
13.094144
 20
5.0608882
 42
0.015044802
  0
VERTEX
  8
0
  6
CONTINUOUS
 62
     7
 10
12.631381
 20
10.103014
 42
0.014838978
  0
VERTEX
  8
0
  6
CONTINUOUS
 62
     7
 10
11.868401
 20
15.108536
 42
0
  0
SEQEND
  8
0
  0
POLYLINE
  8
0
  6
CONTINUOUS
 62
     7
 66
     1
 10
0
 20
0
  0
VERTEX
  8
0
  6
CONTINUOUS
 62
     7
 10
13.249992
 20
0
 42
-0.015336731
  0
VERTEX
  8
0
  6
CONTINUOUS
 62
     7
 10
13.094144
 20
-5.0608882
 42
-0.015044802
  0
VERTEX
  8
0
  6
CONTINUOUS
 62
     7
 10
12.631381
 20
-10.103014
 42
-0.014838978
  0
VERTEX
  8
0
  6
CONTINUOUS
 62
     7
 10
11.868401
 20
-15.108536
 42
0
  0
SEQEND
  8
0
  0
POLYLINE
  8
0
  6
CONTINUOUS
 62
     7
 66
     1
 10
0
 20
0
  0
VERTEX
  8
0
  6
CONTINUOUS
 62
     7
 10
11.868401
 20
-39.555267
 42
-0.03819435
  0
VERTEX
  8
0
  6
CONTINUOUS
 62
     7
 10
12.595411
 20
-41.026473
 42
-0.043407753
  0
VERTEX
  8
0
  6
CONTINUOUS
 62
     7
 10
13.075055
 20
-42.594828
 42
-0.051907913
  0
VERTEX
  8
0
  6
CONTINUOUS
 62
     7
 10
13.249992
 20
-44.224121
 42
0
  0
SEQEND
  8
0
  0
POLYLINE
  8
0
  6
CONTINUOUS
 62
     7
 66
     1
 10
0
 20
0
  0
VERTEX
  8
0
  6
CONTINUOUS
 62
     7
 10
11.868401
 20
-15.108536
 42
-0.036545919
  0
VERTEX
  8
0
  6
CONTINUOUS
 62
     7
 10
13.092873
 20
-23.226191
 42
-0.03826469
  0
VERTEX
  8
0
  6
CONTINUOUS
 62
     7
 10
13.092935
 20
-31.436811
 42
-0.036549582
  0
VERTEX
  8
0
  6
CONTINUOUS
 62
     7
 10
11.868401
 20
-39.555267
 42
0
  0
SEQEND
  8
0
  0
POLYLINE
  8
0
  6
CONTINUOUS
 62
     7
 66
     1
 10
0
 20
0
  0
VERTEX
  8
0
  6
CONTINUOUS
 62
     7
 10
-13.750008
 20
0
 42
0.015336731
  0
VERTEX
  8
0
  6
CONTINUOUS
 62
     7
 10
-13.594159
 20
-5.0608882
 42
0.015044802
  0
VERTEX
  8
0
  6
CONTINUOUS
 62
     7
 10
-13.131397
 20
-10.103014
 42
0.014838978
  0
VERTEX
  8
0
  6
CONTINUOUS
 62
     7
 10
-12.368416
 20
-15.108536
 42
0
  0
SEQEND
  8
0
  0
POLYLINE
  8
0
  6
CONTINUOUS
 62
     7
 66
     1
 10
0
 20
0
  0
VERTEX
  8
0
  6
CONTINUOUS
 62
     7
 10
-12.368416
 20
-15.108536
 42
0.036545919
  0
VERTEX
  8
0
  6
CONTINUOUS
 62
     7
 10
-13.592889
 20
-23.226191
 42
0.03826469
  0
VERTEX
  8
0
  6
CONTINUOUS
 62
     7
 10
-13.59295
 20
-31.436811
 42
0.036549582
  0
VERTEX
  8
0
  6
CONTINUOUS
 62
     7
 10
-12.368416
 20
-39.555267
 42
0
  0
SEQEND
  8
0
  0
POLYLINE
  8
0
  6
CONTINUOUS
 62
     7
 66
     1
 10
0
 20
0
  0
VERTEX
  8
0
  6
CONTINUOUS
 62
     7
 10
-12.368416
 20
-39.555267
 42
0.03819435
  0
VERTEX
  8
0
  6
CONTINUOUS
 62
     7
 10
-13.095426
 20
-41.026473
 42
0.043407753
  0
VERTEX
  8
0
  6
CONTINUOUS
 62
     7
 10
-13.575071
 20
-42.594828
 42
0.051907913
  0
VERTEX
  8
0
  6
CONTINUOUS
 62
     7
 10
-13.750008
 20
-44.224121
 42
0
  0
SEQEND
  8
0
  0
POLYLINE
  8
0
  6
CONTINUOUS
 62
     7
 66
     1
 10
0
 20
0
  0
VERTEX
  8
0
  6
CONTINUOUS
 62
     7
 10
11.868401
 20
39.555252
 42
0.03819515
  0
VERTEX
  8
0
  6
CONTINUOUS
 62
     7
 10
12.595411
 20
41.026468
 42
0.04340727
  0
VERTEX
  8
0
  6
CONTINUOUS
 62
     7
 10
13.075055
 20
42.594834
 42
0.051907498
  0
VERTEX
  8
0
  6
CONTINUOUS
 62
     7
 10
13.249992
 20
44.224136
 42
0
  0
SEQEND
  8
0
  0
POLYLINE
  8
0
  6
CONTINUOUS
 62
     7
 66
     1
 10
0
 20
0
  0
VERTEX
  8
0
  6
CONTINUOUS
 62
     7
 10
11.868401
 20
15.108536
 42
0.036545896
  0
VERTEX
  8
0
  6
CONTINUOUS
 62
     7
 10
13.092873
 20
23.226186
 42
0.038264739
  0
VERTEX
  8
0
  6
CONTINUOUS
 62
     7
 10
13.092935
 20
31.436808
 42
0.036549563
  0
VERTEX
  8
0
  6
CONTINUOUS
 62
     7
 10
11.868401
 20
39.555252
 42
0
  0
SEQEND
  8
0
  0
POLYLINE
  8
0
  6
CONTINUOUS
 62
     7
 66
     1
 10
0
 20
0
  0
VERTEX
  8
0
  6
CONTINUOUS
 62
     7
 10
-13.750008
 20
0
 42
-0.015336731
  0
VERTEX
  8
0
  6
CONTINUOUS
 62
     7
 10
-13.594159
 20
5.0608882
 42
-0.015044802
  0
VERTEX
  8
0
  6
CONTINUOUS
 62
     7
 10
-13.131397
 20
10.103014
 42
-0.014838978
  0
VERTEX
  8
0
  6
CONTINUOUS
 62
     7
 10
-12.368416
 20
15.108536
 42
0
  0
SEQEND
  8
0
  0
POLYLINE
  8
0
  6
CONTINUOUS
 62
     7
 66
     1
 10
0
 20
0
  0
VERTEX
  8
0
  6
CONTINUOUS
 62
     7
 10
-12.368416
 20
15.108536
 42
-0.036545896
  0
VERTEX
  8
0
  6
CONTINUOUS
 62
     7
 10
-13.592888
 20
23.226186
 42
-0.038264739
  0
VERTEX
  8
0
  6
CONTINUOUS
 62
     7
 10
-13.59295
 20
31.436808
 42
-0.036549563
  0
VERTEX
  8
0
  6
CONTINUOUS
 62
     7
 10
-12.368416
 20
39.555252
 42
0
  0
SEQEND
  8
0
  0
POLYLINE
  8
0
  6
CONTINUOUS
 62
     7
 66
     1
 10
0
 20
0
  0
VERTEX
  8
0
  6
CONTINUOUS
 62
     7
 10
-12.368416
 20
39.555252
 42
-0.03819515
  0
VERTEX
  8
0
  6
CONTINUOUS
 62
     7
 10
-13.095427
 20
41.026468
 42
-0.04340727
  0
VERTEX
  8
0
  6
CONTINUOUS
 62
     7
 10
-13.57507
 20
42.594834
 42
-0.051907498
  0
VERTEX
  8
0
  6
CONTINUOUS
 62
     7
 10
-13.750008
 20
44.224136
 42
0
  0
SEQEND
  8
0
  0
TEXT
  8
0
  6
CONTINUOUS
 62
     7
 10
-2.7672664
 20
53.515757
 40
3.2
 41
1.0715625
  1
2
  0
LINE
  8
0
  6
CONTINUOUS
 62
     7
 10
-7.5
 20
0.74999967
 11
-5.4456673
 21
0.74999976
  0
LINE
  8
0
  6
CONTINUOUS
 62
     7
 10
-7.5
 20
-0.75000033
 11
-5.4456672
 21
-0.75000024
  0
LINE
  8
0
  6
CONTINUOUS
 62
     7
 10
5.4456673
 20
-0.74999976
 11
7.5
 21
-0.74999967
  0
LINE
  8
0
  6
CONTINUOUS
 62
     7
 10
5.4456672
 20
0.75000024
 11
7.5
 21
0.75000033
  0
LINE
  8
0
  6
CONTINUOUS
 62
     7
 10
-3.9402156
 20
-0.75000017
 11
3.2783543E-008
 21
-0.75
  0
LINE
  8
0
  6
CONTINUOUS
 62
     7
 10
-3.9402156
 20
0.74999983
 11
-3.2783543E-008
 21
0.75
  0
ARC
  8
0
  6
CONTINUOUS
 62
     7
 10
-1.3113417E-007
 20
3
 40
3
 50
36.008327
 51
143.99168
  0
ARC
  8
0
  6
CONTINUOUS
 62
     7
 10
-1.3113417E-007
 20
3
 40
4.5
 50
36.008327
 51
143.99168
  0
ARC
  8
0
  6
CONTINUOUS
 62
     7
 10
1.3113417E-007
 20
-3
 40
3
 50
216.00833
 51
323.99168
  0
ARC
  8
0
  6
CONTINUOUS
 62
     7
 10
1.3113417E-007
 20
-3
 40
4.5
 50
216.00833
 51
323.99168
  0
ARC
  8
0
  6
CONTINUOUS
 62
     7
 10
4.1278844
 20
1.8043556E-007
 40
9.6028843
 50
143.99168
 51
175.52056
  0
ARC
  8
0
  6
CONTINUOUS
 62
     7
 10
4.1278844
 20
1.8043556E-007
 40
8.1028843
 50
143.99168
 51
174.68912
  0
ARC
  8
0
  6
CONTINUOUS
 62
     7
 10
-4.1278844
 20
-1.8043556E-007
 40
8.1028843
 50
323.99167
 51
36.008327
  0
ARC
  8
0
  6
CONTINUOUS
 62
     7
 10
-4.1278844
 20
-1.8043556E-007
 40
9.6028843
 50
323.99167
 51
355.52055
  0
ARC
  8
0
  6
CONTINUOUS
 62
     7
 10
-6.9375
 20
-3.0324777E-007
 40
0.9375
 50
126.8699
 51
233.1301
  0
ARC
  8
0
  6
CONTINUOUS
 62
     7
 10
-0.5625
 20
-2.4587657E-008
 40
0.9375
 50
306.86991
 51
53.130105
  0
ARC
  8
0
  6
CONTINUOUS
 62
     7
 10
6.9375
 20
3.0324777E-007
 40
0.9375
 50
306.86991
 51
53.130105
  0
ARC
  8
0
  6
CONTINUOUS
 62
     7
 10
4.1278844
 20
1.8043556E-007
 40
9.6028843
 50
184.47945
 51
216.00833
  0
ARC
  8
0
  6
CONTINUOUS
 62
     7
 10
4.1278844
 20
1.8043556E-007
 40
8.1028843
 50
185.31088
 51
216.00833
  0
ARC
  8
0
  6
CONTINUOUS
 62
     7
 10
-4.1278844
 20
-1.8043556E-007
 40
9.6028843
 50
4.4794498
 51
36.008327
  0
ENDBLK
  8
0
  0
BLOCK
  8
0
  2
KOZU10
 70
    64
 10
0
 20
0
  0
POINT
  8
0
  6
CONTINUOUS
 62
     7
 10
0
 20
0
  0
POINT
  8
0
  6
CONTINUOUS
 62
     7
 10
-14.750004
 20
45.10017
  0
POINT
  8
0
  6
CONTINUOUS
 62
     7
 10
-14.750004
 20
-45.10017
  0
POINT
  8
0
  6
CONTINUOUS
 62
     7
 10
0
 20
0
  0
LINE
  8
0
  6
CONTINUOUS
 62
     7
 10
-14.749972
 20
-55.999969
 11
-13.086105
 21
-58.881874
  0
LINE
  8
0
  6
CENTER
 62
     7
 10
8.2499962
 20
0
 11
-46.750004
 21
0
  0
LINE
  8
0
  6
CONTINUOUS
 62
     7
 10
13.086117
 20
-18.19545
 11
-13.086132
 21
-18.19545
  0
LINE
  8
0
  6
CENTER
 62
     7
 10
17.749996
 20
0
 11
-17.750004
 21
0
  0
LINE
  8
0
  6
CONTINUOUS
 62
     7
 10
14.749996
 20
-56
 11
14.749996
 21
55.999992
  0
LINE
  8
0
  6
CONTINUOUS
 62
     7
 10
-14.750004
 20
50.10017
 11
-14.750004
 21
56
  0
LINE
  8
0
  6
CONTINUOUS
 62
     7
 10
14.750053
 20
-56.000015
 11
13.08619
 21
-58.881912
  0
LINE
  8
0
  6
CONTINUOUS
 62
     7
 10
13.086132
 20
58.881905
 11
-13.086132
 21
58.881905
  0
LINE
  8
0
  6
CONTINUOUS
 62
     7
 10
13.086117
 20
18.19545
 11
-13.086132
 21
18.19545
  0
LINE
  8
0
  6
CONTINUOUS
 62
     7
 10
13.086117
 20
47.636459
 11
-13.086132
 21
47.636459
  0
LINE
  8
0
  6
CONTINUOUS
 62
     7
 10
13.086132
 20
-58.881897
 11
-13.086147
 21
-58.881897
  0
LINE
  8
0
  6
CONTINUOUS
 62
     7
 10
-14.749972
 20
55.999969
 11
-13.086105
 21
58.881874
  0
LINE
  8
0
  6
CONTINUOUS
 62
     7
 10
14.750005
 20
55.999989
 11
13.086143
 21
58.881889
  0
LINE
  8
0
  6
CONTINUOUS
 62
     7
 10
-14.749996
 20
-56.000019
 11
-13.086126
 21
-58.881931
  0
LINE
  8
0
  6
CONTINUOUS
 62
     7
 10
13.086132
 20
-58.881905
 11
-13.086132
 21
-58.881905
  0
LINE
  8
0
  6
CONTINUOUS
 62
     7
 10
14.750005
 20
-55.999989
 11
13.086143
 21
-58.881889
  0
LINE
  8
0
  6
CONTINUOUS
 62
     7
 10
13.086117
 20
-47.636459
 11
-13.086132
 21
-47.636459
  0
LINE
  8
0
  6
CONTINUOUS
 62
     7
 10
-43.221256
 20
42.887295
 11
-43.221256
 21
0
  0
LINE
  8
0
  6
CONTINUOUS
 62
     7
 10
-41.943653
 20
45.10017
 11
-19.750004
 21
45.10017
  0
LINE
  8
0
  6
CONTINUOUS
 62
     7
 10
-41.943653
 20
36.465279
 11
-19.750004
 21
36.465279
  0
LINE
  8
0
  6
CONTINUOUS
 62
     7
 10
-41.943653
 20
13.85884
 11
-19.750004
 21
13.85884
  0
LINE
  8
0
  6
CONTINUOUS
 62
     7
 10
-43.221256
 20
42.887295
 11
-41.943649
 21
45.100166
  0
LINE
  8
0
  6
CONTINUOUS
 62
     7
 10
-41.943653
 20
-36.465279
 11
-19.750004
 21
-36.465279
  0
LINE
  8
0
  6
CONTINUOUS
 62
     7
 10
-41.943653
 20
-45.10017
 11
-19.750004
 21
-45.10017
  0
LINE
  8
0
  6
CONTINUOUS
 62
     7
 10
-43.221256
 20
-42.887295
 11
-43.221256
 21
0
  0
LINE
  8
0
  6
CONTINUOUS
 62
     7
 10
-41.943653
 20
-13.85884
 11
-19.750004
 21
-13.85884
  0
LINE
  8
0
  6
CONTINUOUS
 62
     7
 10
-43.221256
 20
-42.887295
 11
-41.943649
 21
-45.100166
  0
LINE
  8
0
  6
CONTINUOUS
 62
     7
 10
43.221256
 20
-42.887295
 11
41.943649
 21
-45.100166
  0
LINE
  8
0
  6
CONTINUOUS
 62
     7
 10
41.943653
 20
-13.85884
 11
14.750004
 21
-13.85884
  0
LINE
  8
0
  6
CENTER
 62
     7
 10
-8.2499962
 20
0
 11
46.750004
 21
0
  0
LINE
  8
0
  6
CONTINUOUS
 62
     7
 10
41.943653
 20
36.465279
 11
14.750004
 21
36.465279
  0
LINE
  8
0
  6
CONTINUOUS
 62
     7
 10
43.221256
 20
-42.887295
 11
43.221256
 21
0
  0
LINE
  8
0
  6
CONTINUOUS
 62
     7
 10
41.943653
 20
-45.10017
 11
14.750004
 21
-45.10017
  0
LINE
  8
0
  6
CONTINUOUS
 62
     7
 10
41.943653
 20
-36.465279
 11
14.750004
 21
-36.465279
  0
LINE
  8
0
  6
CONTINUOUS
 62
     7
 10
41.943653
 20
45.10017
 11
14.750004
 21
45.10017
  0
LINE
  8
0
  6
CONTINUOUS
 62
     7
 10
43.221256
 20
42.887295
 11
43.221256
 21
0
  0
LINE
  8
0
  6
CONTINUOUS
 62
     7
 10
41.943653
 20
13.85884
 11
14.750004
 21
13.85884
  0
LINE
  8
0
  6
CONTINUOUS
 62
     7
 10
43.221256
 20
42.887295
 11
41.943649
 21
45.100166
  0
LINE
  8
0
  6
CONTINUOUS
 62
     7
 10
-14.750004
 20
-50.10017
 11
-14.750004
 21
-56.000008
  0
LINE
  8
0
  6
CONTINUOUS
 62
     7
 10
-14.750004
 20
55.999916
 11
-14.750004
 21
-56.000008
  0
ARC
  8
0
  6
CONTINUOUS
 62
     7
 10
-35.287418
 20
40.782722
 40
7.9338365
 50
147.03127
 51
212.96874
  0
ARC
  8
0
  6
CONTINUOUS
 62
     7
 10
7.4184551
 20
25.16206
 40
50.639709
 50
167.10244
 51
192.89756
  0
ARC
  8
0
  6
CONTINUOUS
 62
     7
 10
33.807167
 20
-0.11270655
 40
77.028503
 50
169.54976
 51
179.91617
  0
ARC
  8
0
  6
CONTINUOUS
 62
     7
 10
-35.287418
 20
-40.782722
 40
7.9338365
 50
147.03127
 51
212.96874
  0
ARC
  8
0
  6
CONTINUOUS
 62
     7
 10
7.4184551
 20
-25.16206
 40
50.639709
 50
167.10244
 51
192.89756
  0
ARC
  8
0
  6
CONTINUOUS
 62
     7
 10
33.807167
 20
0.11270655
 40
77.028503
 50
180.08383
 51
190.45024
  0
ARC
  8
0
  6
CONTINUOUS
 62
     7
 10
35.287418
 20
40.782722
 40
7.9338365
 50
327.03126
 51
32.968736
  0
ARC
  8
0
  6
CONTINUOUS
 62
     7
 10
-33.807167
 20
0.11270655
 40
77.028503
 50
349.54976
 51
359.91617
  0
ARC
  8
0
  6
CONTINUOUS
 62
     7
 10
-7.4184551
 20
-25.16206
 40
50.639709
 50
347.10244
 51
12.89756
  0
ARC
  8
0
  6
CONTINUOUS
 62
     7
 10
35.287418
 20
-40.782722
 40
7.9338365
 50
327.03126
 51
32.968736
  0
ARC
  8
0
  6
CONTINUOUS
 62
     7
 10
-7.4184551
 20
25.16206
 40
50.639709
 50
347.10244
 51
12.89756
  0
ARC
  8
0
  6
CONTINUOUS
 62
     7
 10
-33.807167
 20
-0.11270655
 40
77.028503
 50
0.083834055
 51
10.45024
  0
ARC
  8
0
  6
CONTINUOUS
 62
     7
 10
-19.750004
 20
50.10017
 40
5
 50
270
 51
0
  0
ARC
  8
0
  6
CONTINUOUS
 62
     7
 10
-19.750004
 20
-50.10017
 40
5
 50
0
 51
90.000003
  0
POLYLINE
  8
0
  6
CONTINUOUS
 62
     7
 66
     1
 10
0
 20
0
  0
VERTEX
  8
0
  6
CONTINUOUS
 62
     7
 10
-14.750004
 20
0
 42
0.01533672
  0
VERTEX
  8
0
  6
CONTINUOUS
 62
     7
 10
-14.562313
 20
-6.0949081
 42
0.015044792
  0
VERTEX
  8
0
  6
CONTINUOUS
 62
     7
 10
-14.005001
 20
-12.167221
 42
0.014838969
  0
VERTEX
  8
0
  6
CONTINUOUS
 62
     7
 10
-13.086132
 20
-18.19545
 42
0
  0
SEQEND
  8
0
  0
POLYLINE
  8
0
  6
CONTINUOUS
 62
     7
 66
     1
 10
0
 20
0
  0
VERTEX
  8
0
  6
CONTINUOUS
 62
     7
 10
13.086117
 20
-47.636459
 42
-0.03819436
  0
VERTEX
  8
0
  6
CONTINUOUS
 62
     7
 10
13.961668
 20
-49.408239
 42
-0.043407975
  0
VERTEX
  8
0
  6
CONTINUOUS
 62
     7
 10
14.539315
 20
-51.297018
 42
-0.051908853
  0
VERTEX
  8
0
  6
CONTINUOUS
 62
     7
 10
14.749996
 20
-53.259186
 42
0
  0
SEQEND
  8
0
  0
POLYLINE
  8
0
  6
CONTINUOUS
 62
     7
 66
     1
 10
0
 20
0
  0
VERTEX
  8
0
  6
CONTINUOUS
 62
     7
 10
-13.086132
 20
-47.636459
 42
0.038194758
  0
VERTEX
  8
0
  6
CONTINUOUS
 62
     7
 10
-13.961681
 20
-49.408239
 42
0.043408007
  0
VERTEX
  8
0
  6
CONTINUOUS
 62
     7
 10
-14.539325
 20
-51.297018
 42
0.051908426
  0
VERTEX
  8
0
  6
CONTINUOUS
 62
     7
 10
-14.750004
 20
-53.259186
 42
0
  0
SEQEND
  8
0
  0
POLYLINE
  8
0
  6
CONTINUOUS
 62
     7
 66
     1
 10
0
 20
0
  0
VERTEX
  8
0
  6
CONTINUOUS
 62
     7
 10
13.086117
 20
-18.19545
 42
-0.036550359
  0
VERTEX
  8
0
  6
CONTINUOUS
 62
     7
 10
14.560853
 20
-27.972522
 42
-0.038261512
  0
VERTEX
  8
0
  6
CONTINUOUS
 62
     7
 10
14.560853
 20
-37.859384
 42
-0.03655034
  0
VERTEX
  8
0
  6
CONTINUOUS
 62
     7
 10
13.086117
 20
-47.636459
 42
0
  0
SEQEND
  8
0
  0
POLYLINE
  8
0
  6
CONTINUOUS
 62
     7
 66
     1
 10
0
 20
0
  0
VERTEX
  8
0
  6
CONTINUOUS
 62
     7
 10
-13.086132
 20
18.19545
 42
-0.036550532
  0
VERTEX
  8
0
  6
CONTINUOUS
 62
     7
 10
-14.560863
 20
27.972522
 42
-0.038261111
  0
VERTEX
  8
0
  6
CONTINUOUS
 62
     7
 10
-14.560862
 20
37.859384
 42
-0.036550513
  0
VERTEX
  8
0
  6
CONTINUOUS
 62
     7
 10
-13.086132
 20
47.636459
 42
0
  0
SEQEND
  8
0
  0
POLYLINE
  8
0
  6
CONTINUOUS
 62
     7
 66
     1
 10
0
 20
0
  0
VERTEX
  8
0
  6
CONTINUOUS
 62
     7
 10
-14.750004
 20
0
 42
-0.01533672
  0
VERTEX
  8
0
  6
CONTINUOUS
 62
     7
 10
-14.562313
 20
6.0949081
 42
-0.015044792
  0
VERTEX
  8
0
  6
CONTINUOUS
 62
     7
 10
-14.005001
 20
12.167221
 42
-0.014838969
  0
VERTEX
  8
0
  6
CONTINUOUS
 62
     7
 10
-13.086132
 20
18.19545
 42
0
  0
SEQEND
  8
0
  0
POLYLINE
  8
0
  6
CONTINUOUS
 62
     7
 66
     1
 10
0
 20
0
  0
VERTEX
  8
0
  6
CONTINUOUS
 62
     7
 10
13.086117
 20
18.19545
 42
0.036550359
  0
VERTEX
  8
0
  6
CONTINUOUS
 62
     7
 10
14.560853
 20
27.972522
 42
0.038261512
  0
VERTEX
  8
0
  6
CONTINUOUS
 62
     7
 10
14.560853
 20
37.859384
 42
0.03655034
  0
VERTEX
  8
0
  6
CONTINUOUS
 62
     7
 10
13.086117
 20
47.636459
 42
0
  0
SEQEND
  8
0
  0
POLYLINE
  8
0
  6
CONTINUOUS
 62
     7
 66
     1
 10
0
 20
0
  0
VERTEX
  8
0
  6
CONTINUOUS
 62
     7
 10
-13.086132
 20
47.636459
 42
-0.038194758
  0
VERTEX
  8
0
  6
CONTINUOUS
 62
     7
 10
-13.961681
 20
49.408239
 42
-0.043408007
  0
VERTEX
  8
0
  6
CONTINUOUS
 62
     7
 10
-14.539325
 20
51.297018
 42
-0.051908426
  0
VERTEX
  8
0
  6
CONTINUOUS
 62
     7
 10
-14.750004
 20
53.259186
 42
0
  0
SEQEND
  8
0
  0
POLYLINE
  8
0
  6
CONTINUOUS
 62
     7
 66
     1
 10
0
 20
0
  0
VERTEX
  8
0
  6
CONTINUOUS
 62
     7
 10
14.749996
 20
0
 42
0.015336859
  0
VERTEX
  8
0
  6
CONTINUOUS
 62
     7
 10
14.562304
 20
6.0949083
 42
0.015044791
  0
VERTEX
  8
0
  6
CONTINUOUS
 62
     7
 10
14.004988
 20
12.167221
 42
0.014838831
  0
VERTEX
  8
0
  6
CONTINUOUS
 62
     7
 10
13.086117
 20
18.19545
 42
0
  0
SEQEND
  8
0
  0
POLYLINE
  8
0
  6
CONTINUOUS
 62
     7
 66
     1
 10
0
 20
0
  0
VERTEX
  8
0
  6
CONTINUOUS
 62
     7
 10
13.086117
 20
47.636459
 42
0.03819436
  0
VERTEX
  8
0
  6
CONTINUOUS
 62
     7
 10
13.961668
 20
49.408239
 42
0.043407975
  0
VERTEX
  8
0
  6
CONTINUOUS
 62
     7
 10
14.539315
 20
51.297018
 42
0.051908853
  0
VERTEX
  8
0
  6
CONTINUOUS
 62
     7
 10
14.749996
 20
53.259186
 42
0
  0
SEQEND
  8
0
  0
POLYLINE
  8
0
  6
CONTINUOUS
 62
     7
 66
     1
 10
0
 20
0
  0
VERTEX
  8
0
  6
CONTINUOUS
 62
     7
 10
-13.086132
 20
-18.19545
 42
0.036550532
  0
VERTEX
  8
0
  6
CONTINUOUS
 62
     7
 10
-14.560863
 20
-27.972522
 42
0.038261111
  0
VERTEX
  8
0
  6
CONTINUOUS
 62
     7
 10
-14.560862
 20
-37.859384
 42
0.036550513
  0
VERTEX
  8
0
  6
CONTINUOUS
 62
     7
 10
-13.086132
 20
-47.636459
 42
0
  0
SEQEND
  8
0
  0
POLYLINE
  8
0
  6
CONTINUOUS
 62
     7
 66
     1
 10
0
 20
0
  0
VERTEX
  8
0
  6
CONTINUOUS
 62
     7
 10
14.749996
 20
0
 42
-0.015336859
  0
VERTEX
  8
0
  6
CONTINUOUS
 62
     7
 10
14.562304
 20
-6.0949083
 42
-0.015044791
  0
VERTEX
  8
0
  6
CONTINUOUS
 62
     7
 10
14.004988
 20
-12.167221
 42
-0.014838831
  0
VERTEX
  8
0
  6
CONTINUOUS
 62
     7
 10
13.086117
 20
-18.19545
 42
0
  0
SEQEND
  8
0
  0
TEXT
  8
0
  6
CONTINUOUS
 62
     7
 10
-7.3410968
 20
66.353667
 40
3.2
 41
1.0130114
  1
21/2
  0
LINE
  8
0
  6
CONTINUOUS
 62
     7
 10
-7.5
 20
0.74999967
 11
-5.4456673
 21
0.74999976
  0
LINE
  8
0
  6
CONTINUOUS
 62
     7
 10
-7.5
 20
-0.75000033
 11
-5.4456672
 21
-0.75000024
  0
LINE
  8
0
  6
CONTINUOUS
 62
     7
 10
5.4456673
 20
-0.74999976
 11
7.5
 21
-0.74999967
  0
LINE
  8
0
  6
CONTINUOUS
 62
     7
 10
5.4456672
 20
0.75000024
 11
7.5
 21
0.75000033
  0
LINE
  8
0
  6
CONTINUOUS
 62
     7
 10
-3.9402156
 20
-0.75000017
 11
3.2783543E-008
 21
-0.75
  0
LINE
  8
0
  6
CONTINUOUS
 62
     7
 10
-3.9402156
 20
0.74999983
 11
-3.2783543E-008
 21
0.75
  0
ARC
  8
0
  6
CONTINUOUS
 62
     7
 10
-1.3113417E-007
 20
3
 40
3
 50
36.008327
 51
143.99168
  0
ARC
  8
0
  6
CONTINUOUS
 62
     7
 10
-1.3113417E-007
 20
3
 40
4.5
 50
36.008327
 51
143.99168
  0
ARC
  8
0
  6
CONTINUOUS
 62
     7
 10
1.3113417E-007
 20
-3
 40
3
 50
216.00833
 51
323.99168
  0
ARC
  8
0
  6
CONTINUOUS
 62
     7
 10
1.3113417E-007
 20
-3
 40
4.5
 50
216.00833
 51
323.99168
  0
ARC
  8
0
  6
CONTINUOUS
 62
     7
 10
4.1278844
 20
1.8043556E-007
 40
9.6028843
 50
143.99168
 51
175.52056
  0
ARC
  8
0
  6
CONTINUOUS
 62
     7
 10
4.1278844
 20
1.8043556E-007
 40
8.1028843
 50
143.99168
 51
174.68912
  0
ARC
  8
0
  6
CONTINUOUS
 62
     7
 10
-4.1278844
 20
-1.8043556E-007
 40
8.1028843
 50
323.99167
 51
36.008327
  0
ARC
  8
0
  6
CONTINUOUS
 62
     7
 10
-4.1278844
 20
-1.8043556E-007
 40
9.6028843
 50
323.99167
 51
355.52055
  0
ARC
  8
0
  6
CONTINUOUS
 62
     7
 10
-6.9375
 20
-3.0324777E-007
 40
0.9375
 50
126.8699
 51
233.1301
  0
ARC
  8
0
  6
CONTINUOUS
 62
     7
 10
-0.5625
 20
-2.4587657E-008
 40
0.9375
 50
306.86991
 51
53.130105
  0
ARC
  8
0
  6
CONTINUOUS
 62
     7
 10
6.9375
 20
3.0324777E-007
 40
0.9375
 50
306.86991
 51
53.130105
  0
ARC
  8
0
  6
CONTINUOUS
 62
     7
 10
4.1278844
 20
1.8043556E-007
 40
9.6028843
 50
184.47945
 51
216.00833
  0
ARC
  8
0
  6
CONTINUOUS
 62
     7
 10
4.1278844
 20
1.8043556E-007
 40
8.1028843
 50
185.31088
 51
216.00833
  0
ARC
  8
0
  6
CONTINUOUS
 62
     7
 10
-4.1278844
 20
-1.8043556E-007
 40
9.6028843
 50
4.4794498
 51
36.008327
  0
ENDBLK
  8
0
  0
BLOCK
  8
0
  2
KOZU11
 70
    64
 10
0
 20
0
  0
POINT
  8
0
  6
CONTINUOUS
 62
     7
 10
0
 20
0
  0
POINT
  8
0
  6
CONTINUOUS
 62
     7
 10
0
 20
0
  0
POINT
  8
0
  6
CONTINUOUS
 62
     7
 10
-16.25
 20
51.172379
  0
POINT
  8
0
  6
CONTINUOUS
 62
     7
 10
-16.25
 20
-51.172379
  0
LINE
  8
0
  6
CONTINUOUS
 62
     7
 10
14.363281
 20
-54.016556
 11
-14.363281
 21
-54.016556
  0
LINE
  8
0
  6
CONTINUOUS
 62
     7
 10
16.25
 20
-63.5
 11
16.25
 21
63.499977
  0
LINE
  8
0
  6
CONTINUOUS
 62
     7
 10
16.250074
 20
-63.500004
 11
14.363353
 21
-66.767906
  0
LINE
  8
0
  6
CONTINUOUS
 62
     7
 10
14.363281
 20
-66.767883
 11
-14.363281
 21
-66.767883
  0
LINE
  8
0
  6
CONTINUOUS
 62
     7
 10
-16.249989
 20
-63.500015
 11
-14.363286
 21
-66.767883
  0
LINE
  8
0
  6
CONTINUOUS
 62
     7
 10
-16.249954
 20
63.499969
 11
-14.363242
 21
66.767853
  0
LINE
  8
0
  6
CONTINUOUS
 62
     7
 10
14.363281
 20
54.016418
 11
-14.363281
 21
54.016418
  0
LINE
  8
0
  6
CONTINUOUS
 62
     7
 10
16.250031
 20
63.499989
 11
14.363306
 21
66.767899
  0
LINE
  8
0
  6
CONTINUOUS
 62
     7
 10
14.363281
 20
20.632278
 11
-14.363281
 21
20.632278
  0
LINE
  8
0
  6
CONTINUOUS
 62
     7
 10
14.363281
 20
66.767883
 11
-14.363281
 21
66.767883
  0
LINE
  8
0
  6
CONTINUOUS
 62
     7
 10
14.363281
 20
-20.632416
 11
-14.363281
 21
-20.632416
  0
LINE
  8
0
  6
CONTINUOUS
 62
     7
 10
-16.25
 20
57.430733
 11
-16.25
 21
63.5
  0
LINE
  8
0
  6
CONTINUOUS
 62
     7
 10
-16.25
 20
-57.430733
 11
-16.25
 21
-63.499996
  0
LINE
  8
0
  6
CONTINUOUS
 62
     7
 10
-16.25
 20
63.499889
 11
-16.25
 21
56.172379
  0
LINE
  8
0
  6
CONTINUOUS
 62
     7
 10
-46.25
 20
48.625
 11
-46.25
 21
0
  0
LINE
  8
0
  6
CONTINUOUS
 62
     7
 10
-44.77927
 20
51.172379
 11
-21.25
 21
51.172379
  0
LINE
  8
0
  6
CONTINUOUS
 62
     7
 10
-44.77927
 20
41.232216
 11
-21.25
 21
41.232216
  0
LINE
  8
0
  6
CONTINUOUS
 62
     7
 10
-44.77927
 20
15.208525
 11
-21.25
 21
15.208525
  0
LINE
  8
0
  6
CONTINUOUS
 62
     7
 10
-46.249996
 20
48.625
 11
-44.779266
 21
51.172379
  0
LINE
  8
0
  6
CONTINUOUS
 62
     7
 10
-44.77927
 20
-51.172379
 11
-21.25
 21
-51.172379
  0
LINE
  8
0
  6
CONTINUOUS
 62
     7
 10
-46.249996
 20
-48.625
 11
-44.779266
 21
-51.172379
  0
LINE
  8
0
  6
CONTINUOUS
 62
     7
 10
-44.77927
 20
-15.208525
 11
-21.25
 21
-15.208525
  0
LINE
  8
0
  6
CONTINUOUS
 62
     7
 10
-46.25
 20
-48.625
 11
-46.25
 21
0
  0
LINE
  8
0
  6
CONTINUOUS
 62
     7
 10
44.77927
 20
41.232216
 11
16.25
 21
41.232216
  0
LINE
  8
0
  6
CONTINUOUS
 62
     7
 10
44.77927
 20
51.172379
 11
16.25
 21
51.172379
  0
LINE
  8
0
  6
CONTINUOUS
 62
     7
 10
46.249996
 20
48.625
 11
44.779266
 21
51.172379
  0
LINE
  8
0
  6
CONTINUOUS
 62
     7
 10
46.25
 20
-48.625
 11
46.25
 21
0
  0
LINE
  8
0
  6
CONTINUOUS
 62
     7
 10
44.77927
 20
-15.208525
 11
16.25
 21
-15.208525
  0
LINE
  8
0
  6
CONTINUOUS
 62
     7
 10
46.249996
 20
-48.625
 11
44.779266
 21
-51.172379
  0
LINE
  8
0
  6
CONTINUOUS
 62
     7
 10
44.77927
 20
15.208525
 11
16.25
 21
15.208525
  0
LINE
  8
0
  6
CONTINUOUS
 62
     7
 10
44.77927
 20
-51.172379
 11
16.25
 21
-51.172379
  0
LINE
  8
0
  6
CONTINUOUS
 62
     7
 10
46.25
 20
48.625
 11
46.25
 21
0
  0
LINE
  8
0
  6
CONTINUOUS
 62
     7
 10
44.77927
 20
-41.232216
 11
16.25
 21
-41.232216
  0
LINE
  8
0
  6
CONTINUOUS
 62
     7
 10
-16.25
 20
-56.172379
 11
-16.25
 21
-63.499996
  0
LINE
  8
0
  6
CONTINUOUS
 62
     7
 10
-16.25
 20
63.499969
 11
-16.25
 21
-63.499996
  0
LINE
  8
0
  6
CENTER
 62
     7
 10
-55.474998
 20
0
 11
58.275002
 21
0
  0
ARC
  8
0
  6
CONTINUOUS
 62
     7
 10
-37.116863
 20
46.202297
 40
9.1331377
 50
147.03127
 51
212.96874
  0
ARC
  8
0
  6
CONTINUOUS
 62
     7
 10
12.044551
 20
28.220369
 40
58.294552
 50
167.10244
 51
192.89756
  0
ARC
  8
0
  6
CONTINUOUS
 62
     7
 10
42.16769
 20
-0.875
 40
88.42202
 50
169.51984
 51
179.433
  0
ARC
  8
0
  6
CONTINUOUS
 62
     7
 10
42.16769
 20
0.875
 40
88.42202
 50
180.567
 51
190.48016
  0
ARC
  8
0
  6
CONTINUOUS
 62
     7
 10
12.044551
 20
-28.220369
 40
58.294552
 50
167.10244
 51
192.89756
  0
ARC
  8
0
  6
CONTINUOUS
 62
     7
 10
-37.116863
 20
-46.202297
 40
9.1331377
 50
147.03127
 51
212.96874
  0
ARC
  8
0
  6
CONTINUOUS
 62
     7
 10
-42.16769
 20
-0.875
 40
88.42202
 50
0.56699257
 51
10.480159
  0
ARC
  8
0
  6
CONTINUOUS
 62
     7
 10
-12.044551
 20
28.220369
 40
58.294552
 50
347.10244
 51
12.89756
  0
ARC
  8
0
  6
CONTINUOUS
 62
     7
 10
37.116863
 20
-46.202297
 40
9.1331377
 50
327.03126
 51
32.968736
  0
ARC
  8
0
  6
CONTINUOUS
 62
     7
 10
-12.044551
 20
-28.220369
 40
58.294552
 50
347.10244
 51
12.89756
  0
ARC
  8
0
  6
CONTINUOUS
 62
     7
 10
37.116863
 20
46.202297
 40
9.1331377
 50
327.03126
 51
32.968736
  0
ARC
  8
0
  6
CONTINUOUS
 62
     7
 10
-42.16769
 20
0.875
 40
88.42202
 50
349.51984
 51
359.43301
  0
ARC
  8
0
  6
CONTINUOUS
 62
     7
 10
-21.25
 20
56.172379
 40
5
 50
270
 51
0
  0
ARC
  8
0
  6
CONTINUOUS
 62
     7
 10
-21.25
 20
-56.172379
 40
5
 50
0
 51
90.000003
  0
POLYLINE
  8
0
  6
CONTINUOUS
 62
     7
 66
     1
 10
0
 20
0
  0
VERTEX
  8
0
  6
CONTINUOUS
 62
     7
 10
-16.25
 20
-0.0001373291
 42
0.015336885
  0
VERTEX
  8
0
  6
CONTINUOUS
 62
     7
 10
-16.03717
 20
-6.9113073
 42
0.015044828
  0
VERTEX
  8
0
  6
CONTINUOUS
 62
     7
 10
-15.405215
 20
-13.796855
 42
0.01483889
  0
VERTEX
  8
0
  6
CONTINUOUS
 62
     7
 10
-14.363281
 20
-20.632416
 42
0
  0
SEQEND
  8
0
  0
POLYLINE
  8
0
  6
CONTINUOUS
 62
     7
 66
     1
 10
0
 20
0
  0
VERTEX
  8
0
  6
CONTINUOUS
 62
     7
 10
-14.363281
 20
-20.632416
 42
0.036550225
  0
VERTEX
  8
0
  6
CONTINUOUS
 62
     7
 10
-16.035526
 20
-31.718963
 42
0.038261358
  0
VERTEX
  8
0
  6
CONTINUOUS
 62
     7
 10
-16.035524
 20
-42.930028
 42
0.036550145
  0
VERTEX
  8
0
  6
CONTINUOUS
 62
     7
 10
-14.363281
 20
-54.016556
 42
0
  0
SEQEND
  8
0
  0
POLYLINE
  8
0
  6
CONTINUOUS
 62
     7
 66
     1
 10
0
 20
0
  0
VERTEX
  8
0
  6
CONTINUOUS
 62
     7
 10
14.363281
 20
-20.632416
 42
-0.036550225
  0
VERTEX
  8
0
  6
CONTINUOUS
 62
     7
 10
16.035526
 20
-31.718963
 42
-0.038261358
  0
VERTEX
  8
0
  6
CONTINUOUS
 62
     7
 10
16.035524
 20
-42.930028
 42
-0.036550145
  0
VERTEX
  8
0
  6
CONTINUOUS
 62
     7
 10
14.363281
 20
-54.016556
 42
0
  0
SEQEND
  8
0
  0
POLYLINE
  8
0
  6
CONTINUOUS
 62
     7
 66
     1
 10
0
 20
0
  0
VERTEX
  8
0
  6
CONTINUOUS
 62
     7
 10
-14.363281
 20
-54.016556
 42
0.038194285
  0
VERTEX
  8
0
  6
CONTINUOUS
 62
     7
 10
-15.356091
 20
-56.025609
 42
0.043408183
  0
VERTEX
  8
0
  6
CONTINUOUS
 62
     7
 10
-16.011102
 20
-58.167332
 42
0.051909093
  0
VERTEX
  8
0
  6
CONTINUOUS
 62
     7
 10
-16.25
 20
-60.392273
 42
0
  0
SEQEND
  8
0
  0
POLYLINE
  8
0
  6
CONTINUOUS
 62
     7
 66
     1
 10
0
 20
0
  0
VERTEX
  8
0
  6
CONTINUOUS
 62
     7
 10
-14.363281
 20
20.632278
 42
-0.036550225
  0
VERTEX
  8
0
  6
CONTINUOUS
 62
     7
 10
-16.035526
 20
31.718826
 42
-0.038261358
  0
VERTEX
  8
0
  6
CONTINUOUS
 62
     7
 10
-16.035524
 20
42.92989
 42
-0.036550145
  0
VERTEX
  8
0
  6
CONTINUOUS
 62
     7
 10
-14.363281
 20
54.016418
 42
0
  0
SEQEND
  8
0
  0
POLYLINE
  8
0
  6
CONTINUOUS
 62
     7
 66
     1
 10
0
 20
0
  0
VERTEX
  8
0
  6
CONTINUOUS
 62
     7
 10
-14.363281
 20
54.016418
 42
-0.038194285
  0
VERTEX
  8
0
  6
CONTINUOUS
 62
     7
 10
-15.356091
 20
56.025472
 42
-0.043408183
  0
VERTEX
  8
0
  6
CONTINUOUS
 62
     7
 10
-16.011102
 20
58.167195
 42
-0.051909093
  0
VERTEX
  8
0
  6
CONTINUOUS
 62
     7
 10
-16.25
 20
60.392136
 42
0
  0
SEQEND
  8
0
  0
POLYLINE
  8
0
  6
CONTINUOUS
 62
     7
 66
     1
 10
0
 20
0
  0
VERTEX
  8
0
  6
CONTINUOUS
 62
     7
 10
-16.25
 20
0
 42
-0.015336885
  0
VERTEX
  8
0
  6
CONTINUOUS
 62
     7
 10
-16.03717
 20
6.91117
 42
-0.015044828
  0
VERTEX
  8
0
  6
CONTINUOUS
 62
     7
 10
-15.405215
 20
13.796718
 42
-0.01483889
  0
VERTEX
  8
0
  6
CONTINUOUS
 62
     7
 10
-14.363281
 20
20.632278
 42
0
  0
SEQEND
  8
0
  0
POLYLINE
  8
0
  6
CONTINUOUS
 62
     7
 66
     1
 10
0
 20
0
  0
VERTEX
  8
0
  6
CONTINUOUS
 62
     7
 10
14.363281
 20
20.632278
 42
0.036550225
  0
VERTEX
  8
0
  6
CONTINUOUS
 62
     7
 10
16.035526
 20
31.718826
 42
0.038261358
  0
VERTEX
  8
0
  6
CONTINUOUS
 62
     7
 10
16.035524
 20
42.92989
 42
0.036550145
  0
VERTEX
  8
0
  6
CONTINUOUS
 62
     7
 10
14.363281
 20
54.016418
 42
0
  0
SEQEND
  8
0
  0
POLYLINE
  8
0
  6
CONTINUOUS
 62
     7
 66
     1
 10
0
 20
0
  0
VERTEX
  8
0
  6
CONTINUOUS
 62
     7
 10
14.363281
 20
54.016418
 42
0.038194285
  0
VERTEX
  8
0
  6
CONTINUOUS
 62
     7
 10
15.356091
 20
56.025472
 42
0.043408183
  0
VERTEX
  8
0
  6
CONTINUOUS
 62
     7
 10
16.011102
 20
58.167195
 42
0.051909093
  0
VERTEX
  8
0
  6
CONTINUOUS
 62
     7
 10
16.25
 20
60.392136
 42
0
  0
SEQEND
  8
0
  0
POLYLINE
  8
0
  6
CONTINUOUS
 62
     7
 66
     1
 10
0
 20
0
  0
VERTEX
  8
0
  6
CONTINUOUS
 62
     7
 10
16.25
 20
0
 42
0.015336885
  0
VERTEX
  8
0
  6
CONTINUOUS
 62
     7
 10
16.03717
 20
6.91117
 42
0.015044828
  0
VERTEX
  8
0
  6
CONTINUOUS
 62
     7
 10
15.405215
 20
13.796718
 42
0.01483889
  0
VERTEX
  8
0
  6
CONTINUOUS
 62
     7
 10
14.363281
 20
20.632278
 42
0
  0
SEQEND
  8
0
  0
POLYLINE
  8
0
  6
CONTINUOUS
 62
     7
 66
     1
 10
0
 20
0
  0
VERTEX
  8
0
  6
CONTINUOUS
 62
     7
 10
16.25
 20
-0.0001373291
 42
-0.015336885
  0
VERTEX
  8
0
  6
CONTINUOUS
 62
     7
 10
16.03717
 20
-6.9113073
 42
-0.015044828
  0
VERTEX
  8
0
  6
CONTINUOUS
 62
     7
 10
15.405215
 20
-13.796855
 42
-0.01483889
  0
VERTEX
  8
0
  6
CONTINUOUS
 62
     7
 10
14.363281
 20
-20.632416
 42
0
  0
SEQEND
  8
0
  0
POLYLINE
  8
0
  6
CONTINUOUS
 62
     7
 66
     1
 10
0
 20
0
  0
VERTEX
  8
0
  6
CONTINUOUS
 62
     7
 10
14.363281
 20
-54.016556
 42
-0.038194285
  0
VERTEX
  8
0
  6
CONTINUOUS
 62
     7
 10
15.356091
 20
-56.025609
 42
-0.043408183
  0
VERTEX
  8
0
  6
CONTINUOUS
 62
     7
 10
16.011102
 20
-58.167332
 42
-0.051909093
  0
VERTEX
  8
0
  6
CONTINUOUS
 62
     7
 10
16.25
 20
-60.392273
 42
0
  0
SEQEND
  8
0
  0
TEXT
  8
0
  6
CONTINUOUS
 62
     7
 10
-2.0374982
 20
75.454626
 40
3.2
 41
1.0715625
  1
3
  0
LINE
  8
0
  6
CONTINUOUS
 62
     7
 10
-9
 20
0.89999958
 11
-6.5348001
 21
0.89999969
  0
LINE
  8
0
  6
CONTINUOUS
 62
     7
 10
-9
 20
-0.90000037
 11
-6.5348
 21
-0.90000026
  0
LINE
  8
0
  6
CONTINUOUS
 62
     7
 10
6.5348001
 20
-0.89999969
 11
9
 21
-0.89999958
  0
LINE
  8
0
  6
CONTINUOUS
 62
     7
 10
6.5348
 20
0.90000026
 11
9
 21
0.90000037
  0
LINE
  8
0
  6
CONTINUOUS
 62
     7
 10
-4.7282581
 20
-0.90000018
 11
3.934025E-008
 21
-0.89999998
  0
LINE
  8
0
  6
CONTINUOUS
 62
     7
 10
-4.7282582
 20
0.89999977
 11
-3.934025E-008
 21
0.89999998
  0
ARC
  8
0
  6
CONTINUOUS
 62
     7
 10
-1.57361E-007
 20
3.5999999
 40
3.5999999
 50
36.008327
 51
143.99168
  0
ARC
  8
0
  6
CONTINUOUS
 62
     7
 10
-1.57361E-007
 20
3.5999999
 40
5.4000001
 50
36.008327
 51
143.99168
  0
ARC
  8
0
  6
CONTINUOUS
 62
     7
 10
1.57361E-007
 20
-3.5999999
 40
3.5999999
 50
216.00833
 51
323.99168
  0
ARC
  8
0
  6
CONTINUOUS
 62
     7
 10
1.57361E-007
 20
-3.5999999
 40
5.4000001
 50
216.00833
 51
323.99168
  0
ARC
  8
0
  6
CONTINUOUS
 62
     7
 10
4.9534616
 20
2.1652269E-007
 40
11.523461
 50
143.99168
 51
175.52056
  0
ARC
  8
0
  6
CONTINUOUS
 62
     7
 10
4.9534616
 20
2.1652269E-007
 40
9.7234612
 50
143.99168
 51
174.68912
  0
ARC
  8
0
  6
CONTINUOUS
 62
     7
 10
-4.9534616
 20
-2.1652269E-007
 40
9.7234612
 50
323.99167
 51
36.008327
  0
ARC
  8
0
  6
CONTINUOUS
 62
     7
 10
-4.9534616
 20
-2.1652269E-007
 40
11.523461
 50
323.99167
 51
355.52055
  0
ARC
  8
0
  6
CONTINUOUS
 62
     7
 10
-8.3249998
 20
-3.6389731E-007
 40
1.125
 50
126.8699
 51
233.1301
  0
ARC
  8
0
  6
CONTINUOUS
 62
     7
 10
-0.67500001
 20
-2.9505189E-008
 40
1.125
 50
306.86991
 51
53.130105
  0
ARC
  8
0
  6
CONTINUOUS
 62
     7
 10
8.3249998
 20
3.6389731E-007
 40
1.125
 50
306.86991
 51
53.130105
  0
ARC
  8
0
  6
CONTINUOUS
 62
     7
 10
4.9534616
 20
2.1652269E-007
 40
11.523461
 50
184.47945
 51
216.00833
  0
ARC
  8
0
  6
CONTINUOUS
 62
     7
 10
4.9534616
 20
2.1652269E-007
 40
9.7234612
 50
185.31088
 51
216.00833
  0
ARC
  8
0
  6
CONTINUOUS
 62
     7
 10
-4.9534616
 20
-2.1652269E-007
 40
11.523461
 50
4.4794498
 51
36.008327
  0
ENDBLK
  8
0
  0
BLOCK
  8
0
  2
KOZU12
 70
    64
 10
0
 20
0
  0
POINT
  8
0
  6
CONTINUOUS
 62
     7
 10
0
 20
0
  0
POINT
  8
0
  6
CONTINUOUS
 62
     7
 10
3.9999924
 20
0
  0
POINT
  8
0
  6
CONTINUOUS
 62
     7
 10
-19.500008
 20
66.767853
  0
POINT
  8
0
  6
CONTINUOUS
 62
     7
 10
-19.500008
 20
-66.767853
  0
POINT
  8
0
  6
CONTINUOUS
 62
     7
 10
0
 20
0
  0
LINE
  8
0
  6
CONTINUOUS
 62
     7
 10
17.152794
 20
-25.668869
 11
-17.152794
 21
-25.668869
  0
LINE
  8
0
  6
CONTINUOUS
 62
     7
 10
-19.499994
 20
-79
 11
-17.152782
 21
-83.065498
  0
LINE
  8
0
  6
CONTINUOUS
 62
     7
 10
19.499992
 20
-79
 11
19.499992
 21
78.999985
  0
LINE
  8
0
  6
CONTINUOUS
 62
     7
 10
-19.500008
 20
-78.999985
 11
-19.500008
 21
79.000008
  0
LINE
  8
0
  6
CONTINUOUS
 62
     7
 10
17.152763
 20
83.065491
 11
-17.152794
 21
83.065491
  0
LINE
  8
0
  6
CONTINUOUS
 62
     7
 10
17.152794
 20
25.668747
 11
-17.152794
 21
25.668747
  0
LINE
  8
0
  6
CONTINUOUS
 62
     7
 10
17.152794
 20
67.201447
 11
-17.152794
 21
67.201447
  0
LINE
  8
0
  6
CONTINUOUS
 62
     7
 10
17.152763
 20
-83.065506
 11
-17.152794
 21
-83.065506
  0
LINE
  8
0
  6
CONTINUOUS
 62
     7
 10
-19.499985
 20
78.999977
 11
-17.152773
 21
83.065475
  0
LINE
  8
0
  6
CONTINUOUS
 62
     7
 10
19.500019
 20
-79.000031
 11
17.152802
 21
-83.065536
  0
LINE
  8
0
  6
CONTINUOUS
 62
     7
 10
19.499996
 20
79.000015
 11
17.152784
 21
83.065506
  0
LINE
  8
0
  6
CONTINUOUS
 62
     7
 10
17.152794
 20
-67.201569
 11
-17.152794
 21
-67.201569
  0
LINE
  8
0
  6
CONTINUOUS
 62
     7
 10
-58.911476
 20
63.5
 11
-58.911476
 21
0
  0
LINE
  8
0
  6
CONTINUOUS
 62
     7
 10
-57.02478
 20
66.767853
 11
-24.500008
 21
66.767853
  0
LINE
  8
0
  6
CONTINUOUS
 62
     7
 10
-57.02478
 20
54.016327
 11
-24.500008
 21
54.016327
  0
LINE
  8
0
  6
CONTINUOUS
 62
     7
 10
-57.02478
 20
20.632401
 11
-24.500008
 21
20.632401
  0
LINE
  8
0
  6
CONTINUOUS
 62
     7
 10
-58.911476
 20
63.5
 11
-57.024784
 21
66.767853
  0
LINE
  8
0
  6
CONTINUOUS
 62
     7
 10
-57.02478
 20
-66.767853
 11
-24.500008
 21
-66.767853
  0
LINE
  8
0
  6
CONTINUOUS
 62
     7
 10
-57.02478
 20
-20.632401
 11
-24.500008
 21
-20.632401
  0
LINE
  8
0
  6
CONTINUOUS
 62
     7
 10
-57.02478
 20
-54.016327
 11
-24.500008
 21
-54.016327
  0
LINE
  8
0
  6
CONTINUOUS
 62
     7
 10
-58.911476
 20
-63.5
 11
-58.911476
 21
0
  0
LINE
  8
0
  6
CONTINUOUS
 62
     7
 10
-58.911476
 20
-63.5
 11
-57.024784
 21
-66.767853
  0
LINE
  8
0
  6
CONTINUOUS
 62
     7
 10
57.02478
 20
-66.767853
 11
19.500008
 21
-66.767853
  0
LINE
  8
0
  6
CONTINUOUS
 62
     7
 10
57.02478
 20
66.767853
 11
19.500008
 21
66.767853
  0
LINE
  8
0
  6
CONTINUOUS
 62
     7
 10
57.02478
 20
20.632401
 11
19.500008
 21
20.632401
  0
LINE
  8
0
  6
CONTINUOUS
 62
     7
 10
57.02478
 20
54.016327
 11
19.500008
 21
54.016327
  0
LINE
  8
0
  6
CONTINUOUS
 62
     7
 10
58.911476
 20
-63.5
 11
57.024784
 21
-66.767853
  0
LINE
  8
0
  6
CONTINUOUS
 62
     7
 10
58.911476
 20
-63.5
 11
58.911476
 21
0
  0
LINE
  8
0
  6
CONTINUOUS
 62
     7
 10
57.02478
 20
-54.016327
 11
19.500008
 21
-54.016327
  0
LINE
  8
0
  6
CONTINUOUS
 62
     7
 10
57.02478
 20
-20.632401
 11
19.500008
 21
-20.632401
  0
LINE
  8
0
  6
CONTINUOUS
 62
     7
 10
58.911476
 20
63.5
 11
58.911476
 21
0
  0
LINE
  8
0
  6
CONTINUOUS
 62
     7
 10
58.911476
 20
63.5
 11
57.024784
 21
66.767853
  0
LINE
  8
0
  6
CENTER
 62
     7
 10
-72.327141
 20
0
 11
70.434273
 21
0
  0
ARC
  8
0
  6
CONTINUOUS
 62
     7
 10
-47.195229
 20
60.39209
 40
11.716247
 50
147.03127
 51
212.96874
  0
ARC
  8
0
  6
CONTINUOUS
 62
     7
 10
15.870423
 20
37.324364
 40
74.781898
 50
167.10244
 51
192.89756
  0
ARC
  8
0
  6
CONTINUOUS
 62
     7
 10
54.847141
 20
0
 40
113.75861
 50
169.55043
 51
180.00001
  0
ARC
  8
0
  6
CONTINUOUS
 62
     7
 10
15.870423
 20
-37.324364
 40
74.781898
 50
167.10244
 51
192.89756
  0
ARC
  8
0
  6
CONTINUOUS
 62
     7
 10
-47.195229
 20
-60.39209
 40
11.716247
 50
147.03127
 51
212.96874
  0
ARC
  8
0
  6
CONTINUOUS
 62
     7
 10
54.847141
 20
0
 40
113.75861
 50
179.99999
 51
190.44957
  0
ARC
  8
0
  6
CONTINUOUS
 62
     7
 10
-15.870423
 20
37.324364
 40
74.781898
 50
347.10244
 51
12.89756
  0
ARC
  8
0
  6
CONTINUOUS
 62
     7
 10
-54.847141
 20
0
 40
113.75861
 50
349.55043
 51
3.685592E-014
  0
ARC
  8
0
  6
CONTINUOUS
 62
     7
 10
47.195229
 20
-60.39209
 40
11.716247
 50
327.03126
 51
32.968736
  0
ARC
  8
0
  6
CONTINUOUS
 62
     7
 10
-15.870423
 20
-37.324364
 40
74.781898
 50
347.10244
 51
12.89756
  0
ARC
  8
0
  6
CONTINUOUS
 62
     7
 10
47.195229
 20
60.39209
 40
11.716247
 50
327.03126
 51
32.968736
  0
ARC
  8
0
  6
CONTINUOUS
 62
     7
 10
-54.847141
 20
0
 40
113.75861
 50
5.0888875E-014
 51
10.449569
  0
ARC
  8
0
  6
CONTINUOUS
 62
     7
 10
-24.500008
 20
71.767853
 40
5
 50
270
 51
0
  0
ARC
  8
0
  6
CONTINUOUS
 62
     7
 10
-24.500008
 20
-71.767853
 40
5
 50
0
 51
90.000003
  0
POLYLINE
  8
0
  6
CONTINUOUS
 62
     7
 66
     1
 10
0
 20
0
  0
VERTEX
  8
0
  6
CONTINUOUS
 62
     7
 10
19.499992
 20
-75.133591
 42
0.051921497
  0
VERTEX
  8
0
  6
CONTINUOUS
 62
     7
 10
19.202615
 20
-72.3647
 42
0.043405505
  0
VERTEX
  8
0
  6
CONTINUOUS
 62
     7
 10
18.387603
 20
-69.700235
 42
0.038182783
  0
VERTEX
  8
0
  6
CONTINUOUS
 62
     7
 10
17.152794
 20
-67.201569
 42
0
  0
SEQEND
  8
0
  0
POLYLINE
  8
0
  6
CONTINUOUS
 62
     7
 66
     1
 10
0
 20
0
  0
VERTEX
  8
0
  6
CONTINUOUS
 62
     7
 10
-19.500008
 20
-75.133591
 42
-0.051922109
  0
VERTEX
  8
0
  6
CONTINUOUS
 62
     7
 10
-19.202626
 20
-72.364699
 42
-0.043405457
  0
VERTEX
  8
0
  6
CONTINUOUS
 62
     7
 10
-18.387606
 20
-69.700235
 42
-0.038182214
  0
VERTEX
  8
0
  6
CONTINUOUS
 62
     7
 10
-17.152794
 20
-67.201569
 42
0
  0
SEQEND
  8
0
  0
POLYLINE
  8
0
  6
CONTINUOUS
 62
     7
 66
     1
 10
0
 20
0
  0
VERTEX
  8
0
  6
CONTINUOUS
 62
     7
 10
17.152794
 20
-67.201569
 42
0.036550404
  0
VERTEX
  8
0
  6
CONTINUOUS
 62
     7
 10
19.233176
 20
-53.408963
 42
0.038260258
  0
VERTEX
  8
0
  6
CONTINUOUS
 62
     7
 10
19.233172
 20
-39.461426
 42
0.036550281
  0
VERTEX
  8
0
  6
CONTINUOUS
 62
     7
 10
17.152794
 20
-25.668869
 42
0
  0
SEQEND
  8
0
  0
POLYLINE
  8
0
  6
CONTINUOUS
 62
     7
 66
     1
 10
0
 20
0
  0
VERTEX
  8
0
  6
CONTINUOUS
 62
     7
 10
-17.152794
 20
-25.668869
 42
-0.014838657
  0
VERTEX
  8
0
  6
CONTINUOUS
 62
     7
 10
-18.449037
 20
-17.164707
 42
-0.015043491
  0
VERTEX
  8
0
  6
CONTINUOUS
 62
     7
 10
-19.235199
 20
-8.5989179
 42
-0.015337392
  0
VERTEX
  8
0
  6
CONTINUOUS
 62
     7
 10
-19.500008
 20
-0.00012207031
 42
0
  0
SEQEND
  8
0
  0
POLYLINE
  8
0
  6
CONTINUOUS
 62
     7
 66
     1
 10
0
 20
0
  0
VERTEX
  8
0
  6
CONTINUOUS
 62
     7
 10
-19.500008
 20
75.133469
 42
0.051922109
  0
VERTEX
  8
0
  6
CONTINUOUS
 62
     7
 10
-19.202626
 20
72.364577
 42
0.043405457
  0
VERTEX
  8
0
  6
CONTINUOUS
 62
     7
 10
-18.387606
 20
69.700113
 42
0.038182214
  0
VERTEX
  8
0
  6
CONTINUOUS
 62
     7
 10
-17.152794
 20
67.201447
 42
0
  0
SEQEND
  8
0
  0
POLYLINE
  8
0
  6
CONTINUOUS
 62
     7
 66
     1
 10
0
 20
0
  0
VERTEX
  8
0
  6
CONTINUOUS
 62
     7
 10
-17.152794
 20
67.201447
 42
0.036550159
  0
VERTEX
  8
0
  6
CONTINUOUS
 62
     7
 10
-19.233187
 20
53.408841
 42
0.038260827
  0
VERTEX
  8
0
  6
CONTINUOUS
 62
     7
 10
-19.233184
 20
39.461304
 42
0.036550035
  0
VERTEX
  8
0
  6
CONTINUOUS
 62
     7
 10
-17.152794
 20
25.668747
 42
0
  0
SEQEND
  8
0
  0
POLYLINE
  8
0
  6
CONTINUOUS
 62
     7
 66
     1
 10
0
 20
0
  0
VERTEX
  8
0
  6
CONTINUOUS
 62
     7
 10
-17.152794
 20
25.668747
 42
0.014838657
  0
VERTEX
  8
0
  6
CONTINUOUS
 62
     7
 10
-18.449037
 20
17.164585
 42
0.015043491
  0
VERTEX
  8
0
  6
CONTINUOUS
 62
     7
 10
-19.235199
 20
8.5987959
 42
0.015337392
  0
VERTEX
  8
0
  6
CONTINUOUS
 62
     7
 10
-19.500008
 20
0
 42
0
  0
SEQEND
  8
0
  0
POLYLINE
  8
0
  6
CONTINUOUS
 62
     7
 66
     1
 10
0
 20
0
  0
VERTEX
  8
0
  6
CONTINUOUS
 62
     7
 10
17.152794
 20
25.668747
 42
-0.014838853
  0
VERTEX
  8
0
  6
CONTINUOUS
 62
     7
 10
18.449033
 20
17.164585
 42
-0.015043492
  0
VERTEX
  8
0
  6
CONTINUOUS
 62
     7
 10
19.235187
 20
8.5987957
 42
-0.015337195
  0
VERTEX
  8
0
  6
CONTINUOUS
 62
     7
 10
19.499992
 20
0
 42
0
  0
SEQEND
  8
0
  0
POLYLINE
  8
0
  6
CONTINUOUS
 62
     7
 66
     1
 10
0
 20
0
  0
VERTEX
  8
0
  6
CONTINUOUS
 62
     7
 10
19.499992
 20
75.133469
 42
-0.051921497
  0
VERTEX
  8
0
  6
CONTINUOUS
 62
     7
 10
19.202615
 20
72.364578
 42
-0.043405505
  0
VERTEX
  8
0
  6
CONTINUOUS
 62
     7
 10
18.387603
 20
69.700113
 42
-0.038182783
  0
VERTEX
  8
0
  6
CONTINUOUS
 62
     7
 10
17.152794
 20
67.201447
 42
0
  0
SEQEND
  8
0
  0
POLYLINE
  8
0
  6
CONTINUOUS
 62
     7
 66
     1
 10
0
 20
0
  0
VERTEX
  8
0
  6
CONTINUOUS
 62
     7
 10
17.152794
 20
67.201447
 42
-0.036550404
  0
VERTEX
  8
0
  6
CONTINUOUS
 62
     7
 10
19.233176
 20
53.408841
 42
-0.038260258
  0
VERTEX
  8
0
  6
CONTINUOUS
 62
     7
 10
19.233172
 20
39.461304
 42
-0.036550281
  0
VERTEX
  8
0
  6
CONTINUOUS
 62
     7
 10
17.152794
 20
25.668747
 42
0
  0
SEQEND
  8
0
  0
POLYLINE
  8
0
  6
CONTINUOUS
 62
     7
 66
     1
 10
0
 20
0
  0
VERTEX
  8
0
  6
CONTINUOUS
 62
     7
 10
17.152794
 20
-25.668869
 42
0.014838853
  0
VERTEX
  8
0
  6
CONTINUOUS
 62
     7
 10
18.449033
 20
-17.164707
 42
0.015043492
  0
VERTEX
  8
0
  6
CONTINUOUS
 62
     7
 10
19.235187
 20
-8.5989178
 42
0.015337195
  0
VERTEX
  8
0
  6
CONTINUOUS
 62
     7
 10
19.499992
 20
-0.00012207031
 42
0
  0
SEQEND
  8
0
  0
POLYLINE
  8
0
  6
CONTINUOUS
 62
     7
 66
     1
 10
0
 20
0
  0
VERTEX
  8
0
  6
CONTINUOUS
 62
     7
 10
-17.152794
 20
-67.201569
 42
-0.036550159
  0
VERTEX
  8
0
  6
CONTINUOUS
 62
     7
 10
-19.233187
 20
-53.408963
 42
-0.038260827
  0
VERTEX
  8
0
  6
CONTINUOUS
 62
     7
 10
-19.233184
 20
-39.461426
 42
-0.036550035
  0
VERTEX
  8
0
  6
CONTINUOUS
 62
     7
 10
-17.152794
 20
-25.668869
 42
0
  0
SEQEND
  8
0
  0
TEXT
  8
0
  6
CONTINUOUS
 62
     7
 10
-1.2945494
 20
93.309302
 40
3.2
 41
1.0715625
  1
4
  0
LINE
  8
0
  6
CONTINUOUS
 62
     7
 10
-9
 20
0.89999958
 11
-6.5348001
 21
0.89999969
  0
LINE
  8
0
  6
CONTINUOUS
 62
     7
 10
-9
 20
-0.90000037
 11
-6.5348
 21
-0.90000026
  0
LINE
  8
0
  6
CONTINUOUS
 62
     7
 10
6.5348001
 20
-0.89999969
 11
9
 21
-0.89999958
  0
LINE
  8
0
  6
CONTINUOUS
 62
     7
 10
6.5348
 20
0.90000026
 11
9
 21
0.90000037
  0
LINE
  8
0
  6
CONTINUOUS
 62
     7
 10
-4.7282581
 20
-0.90000018
 11
3.934025E-008
 21
-0.89999998
  0
LINE
  8
0
  6
CONTINUOUS
 62
     7
 10
-4.7282582
 20
0.89999977
 11
-3.934025E-008
 21
0.89999998
  0
ARC
  8
0
  6
CONTINUOUS
 62
     7
 10
-1.57361E-007
 20
3.5999999
 40
3.5999999
 50
36.008327
 51
143.99168
  0
ARC
  8
0
  6
CONTINUOUS
 62
     7
 10
-1.57361E-007
 20
3.5999999
 40
5.4000001
 50
36.008327
 51
143.99168
  0
ARC
  8
0
  6
CONTINUOUS
 62
     7
 10
1.57361E-007
 20
-3.5999999
 40
3.5999999
 50
216.00833
 51
323.99168
  0
ARC
  8
0
  6
CONTINUOUS
 62
     7
 10
1.57361E-007
 20
-3.5999999
 40
5.4000001
 50
216.00833
 51
323.99168
  0
ARC
  8
0
  6
CONTINUOUS
 62
     7
 10
4.9534616
 20
2.1652269E-007
 40
11.523461
 50
143.99168
 51
175.52056
  0
ARC
  8
0
  6
CONTINUOUS
 62
     7
 10
4.9534616
 20
2.1652269E-007
 40
9.7234612
 50
143.99168
 51
174.68912
  0
ARC
  8
0
  6
CONTINUOUS
 62
     7
 10
-4.9534616
 20
-2.1652269E-007
 40
9.7234612
 50
323.99167
 51
36.008327
  0
ARC
  8
0
  6
CONTINUOUS
 62
     7
 10
-4.9534616
 20
-2.1652269E-007
 40
11.523461
 50
323.99167
 51
355.52055
  0
ARC
  8
0
  6
CONTINUOUS
 62
     7
 10
-8.3249998
 20
-3.6389731E-007
 40
1.125
 50
126.8699
 51
233.1301
  0
ARC
  8
0
  6
CONTINUOUS
 62
     7
 10
-0.67500001
 20
-2.9505189E-008
 40
1.125
 50
306.86991
 51
53.130105
  0
ARC
  8
0
  6
CONTINUOUS
 62
     7
 10
8.3249998
 20
3.6389731E-007
 40
1.125
 50
306.86991
 51
53.130105
  0
ARC
  8
0
  6
CONTINUOUS
 62
     7
 10
4.9534616
 20
2.1652269E-007
 40
11.523461
 50
184.47945
 51
216.00833
  0
ARC
  8
0
  6
CONTINUOUS
 62
     7
 10
4.9534616
 20
2.1652269E-007
 40
9.7234612
 50
185.31088
 51
216.00833
  0
ARC
  8
0
  6
CONTINUOUS
 62
     7
 10
-4.9534616
 20
-2.1652269E-007
 40
11.523461
 50
4.4794498
 51
36.008327
  0
ENDBLK
  8
0
  0
BLOCK
  8
0
  2
KOZU13
 70
    64
 10
0
 20
0
  0
POINT
  8
0
  6
CONTINUOUS
 62
     7
 10
0
 20
0
  0
ARC
  8
0
  6
CONTINUOUS
 62
     7
 10
-2.5724182
 20
0
 40
2.9999235
 50
30.963761
 51
179.99996
  0
ARC
  8
0
  6
CONTINUOUS
 62
     7
 10
2.5724182
 20
3.0868988
 40
2.9999235
 50
210.96377
 51
359.99997
  0
ENDBLK
  8
0
  0
BLOCK
  8
0
  2
KOZU14
 70
    64
 10
0
 20
0
  0
POINT
  8
0
  6
CONTINUOUS
 62
     7
 10
0
 20
0
  0
LINE
  8
0
  6
CONTINUOUS
 62
     7
 10
-1.0105909E-005
 20
-4.1073316E-005
 11
-2.309428
 21
3.9999876
  0
LINE
  8
0
  6
CONTINUOUS
 62
     7
 10
-2.3094177
 20
4
 11
2.3094177
 21
4
  0
LINE
  8
0
  6
CONTINUOUS
 62
     7
 10
-4.3311291E-005
 20
3.8220289E-005
 11
2.3093593
 21
4.0000405
  0
ENDBLK
  8
0
  0
ENDSEC
  0
SECTION
  2
ENTITIES
  0
POINT
  8
0
  6
CONTINUOUS
 62
     7
 10
120
 20
0
  0
POINT
  8
0
  6
CONTINUOUS
 62
     7
 10
-297
 20
-210
  0
POINT
  8
0
  6
CONTINUOUS
 62
     7
 10
297
 20
-210
  0
POINT
  8
0
  6
CONTINUOUS
 62
     7
 10
-297
 20
210
  0
POINT
  8
0
  6
CONTINUOUS
 62
     7
 10
297
 20
210
  0
LINE
  8
0
  6
CONTINUOUS
 62
     7
 10
287
 20
200
 11
287
 21
-200
  0
LINE
  8
0
  6
CONTINUOUS
 62
     7
 10
-287
 20
200
 11
287
 21
200
  0
LINE
  8
0
  6
CONTINUOUS
 62
     7
 10
-287
 20
200
 11
-287
 21
-200
  0
LINE
  8
0
  6
CONTINUOUS
 62
     7
 10
-287
 20
-200
 11
287
 21
-200
  0
TEXT
  8
0
  6
CONTINUOUS
 62
     7
 10
-42.8575
 20
176
 40
8
 41
0.85127006
  1
ユニオン
  0
INSERT
  8
0
  6
CONTINUOUS
 62
     7
  2
KOZU12
 10
210
 20
-90
  0
INSERT
  8
0
  6
CONTINUOUS
 62
     7
  2
KOZU11
 10
50
 20
-90
  0
INSERT
  8
0
  6
CONTINUOUS
 62
     7
  2
KOZU10
 10
-90
 20
-90
  0
INSERT
  8
0
  6
CONTINUOUS
 62
     7
  2
KOZU9
 10
-210
 20
-90
  0
INSERT
  8
0
  6
CONTINUOUS
 62
     7
  2
KOZU7
 10
130
 20
100
  0
INSERT
  8
0
  6
CONTINUOUS
 62
     7
  2
KOZU6
 10
50
 20
100
  0
INSERT
  8
0
  6
CONTINUOUS
 62
     7
  2
KOZU5
 10
-30
 20
100
  0
INSERT
  8
0
  6
CONTINUOUS
 62
     7
  2
KOZU4
 10
-100
 20
100
  0
INSERT
  8
0
  6
CONTINUOUS
 62
     7
  2
KOZU3
 10
-160
 20
100
  0
INSERT
  8
0
  6
CONTINUOUS
 62
     7
  2
KOZU2
 10
-210
 20
100
  0
INSERT
  8
0
  6
CONTINUOUS
 62
     7
  2
KOZU1
 10
-260
 20
100
  0
INSERT
  8
0
  6
CONTINUOUS
 62
     7
  2
KOZU8
 10
220
 20
100
  0
ENDSEC
  0
EOF
