  0
SECTION
  2
HEADER
  9
$EXTMAX
 10
297.25922
 20
211.66544
  9
$EXTMIN
 10
-297.25922
 20
-210.82214
  0
ENDSEC
  0
SECTION
  2
TABLES
  0
TABLE
  2
LTYPE
 70
    22
  0
LTYPE
  2
CONTINUOUS
 70
    64
  3
Solid line
 72
    65
 73
     0
 40
0.000000
  0
LTYPE
  2
DASHED
 70
    64
  3
__ __ __ __ __ __ __ __ __ __ __ __ __ __ __
 72
    65
 73
     2
 40
3.500000
 49
2.000000
 49
-1.500000
  0
LTYPE
  2
CENTER
 70
    64
  3
____ _ ____ _ ____ _ ____ _ ____ _ ____ _ ____
 72
    65
 73
     4
 40
17.500000
 49
13.000000
 49
-1.500000
 49
1.500000
 49
-1.500000
  0
LTYPE
  2
PHANTOM
 70
    64
  3
_____ _ _ _____ _ _ _____ _ _ _____ _ _ ____  
 72
    65
 73
     6
 40
15.500000
 49
8.000000
 49
-1.500000
 49
1.500000
 49
-1.500000
 49
1.500000
 49
-1.500000
  0
LTYPE
  2
DOT
 70
    64
  3
. . . . . . . . . . . . . . . . . . . . . . . .
 72
    65
 73
     2
 40
0.25
 49
0.0
 49
-0.25
  0
ENDTAB
  0
TABLE
  2
LAYER
 70
     1
  0
LAYER
  2
0
 70
     0
 62
     7
  6
CONTINUOUS
  0
ENDTAB
  0
TABLE
  2
STYLE
 70
     1
  0
STYLE
  2
STANDARD
 70
     0
 40
0.000000
 41
1.000000
 50
0.000000
 71
     0
 42
0.200000
  3
txt
  4
BIGFONT
  0
ENDTAB
  0
TABLE
  2
VIEW
 70
     0
  0
ENDTAB
  0
ENDSEC
  0
SECTION
  2
BLOCKS
  0
BLOCK
  8
0
  2
KOZU1
 70
    64
 10
0
 20
0
  0
POINT
  8
0
  6
CONTINUOUS
 62
     7
 10
0
 20
0
  0
LINE
  8
0
  6
CENTER
 62
     7
 10
-22.129295
 20
0
 11
2.3672855
 21
0
  0
LINE
  8
0
  6
CONTINUOUS
 62
     7
 10
-13.707756
 20
13.5
 11
0
 21
13.5
  0
LINE
  8
0
  6
CONTINUOUS
 62
     7
 10
-13.707756
 20
-13.5
 11
0
 21
-13.5
  0
LINE
  8
0
  6
CONTINUOUS
 62
     7
 10
-12.150475
 20
15
 11
7.9609081E-006
 21
15
  0
LINE
  8
0
  6
CONTINUOUS
 62
     7
 10
-12.150475
 20
-15
 11
7.9609081E-006
 21
-15
  0
LINE
  8
0
  6
CONTINUOUS
 62
     7
 10
0
 20
15
 11
0
 21
-15
  0
ARC
  8
0
  6
CONTINUOUS
 62
     7
 10
-12.150475
 20
-13.5
 40
1.5
 50
179.99998
 51
269.99997
  0
ARC
  8
0
  6
CONTINUOUS
 62
     7
 10
58.349518
 20
0
 40
78
 50
173.66481
 51
186.33517
  0
ARC
  8
0
  6
CONTINUOUS
 62
     7
 10
-13.707756
 20
8
 40
5.5
 50
89.999982
 51
173.66476
  0
ARC
  8
0
  6
CONTINUOUS
 62
     7
 10
-13.707756
 20
-8
 40
5.5
 50
186.33524
 51
270.00002
  0
ARC
  8
0
  6
CONTINUOUS
 62
     7
 10
-12.150475
 20
13.5
 40
1.5
 50
89.999982
 51
179.99996
  0
TEXT
  8
0
  6
CONTINUOUS
 62
     7
 10
-17.713
 20
15.825837
 40
3.2
 41
0.85537027
  1
１／２
  0
LINE
  8
0
  6
CONTINUOUS
 62
     7
 10
-6.2479907
 20
-12.961722
 11
-6.2479906
 21
-12.139989
  0
LINE
  8
0
  6
CONTINUOUS
 62
     7
 10
-5.6479907
 20
-12.961722
 11
-5.6479906
 21
-12.139989
  0
LINE
  8
0
  6
CONTINUOUS
 62
     7
 10
-5.6479902
 20
-7.7834556
 11
-5.6479901
 21
-6.9617224
  0
LINE
  8
0
  6
CONTINUOUS
 62
     7
 10
-6.2479902
 20
-7.7834556
 11
-6.2479902
 21
-6.9617223
  0
LINE
  8
0
  6
CONTINUOUS
 62
     7
 10
-5.6479905
 20
-11.537809
 11
-5.6479904
 21
-9.9617224
  0
LINE
  8
0
  6
CONTINUOUS
 62
     7
 10
-6.2479906
 20
-11.537809
 11
-6.2479904
 21
-9.9617223
  0
ARC
  8
0
  6
CONTINUOUS
 62
     7
 10
-7.1479905
 20
-9.9617223
 40
1.2
 50
126.00832
 51
233.99167
  0
ARC
  8
0
  6
CONTINUOUS
 62
     7
 10
-7.1479905
 20
-9.9617223
 40
1.8
 50
126.00832
 51
233.99167
  0
ARC
  8
0
  6
CONTINUOUS
 62
     7
 10
-4.7479904
 20
-9.9617225
 40
1.2
 50
306.00832
 51
53.991676
  0
ARC
  8
0
  6
CONTINUOUS
 62
     7
 10
-4.7479904
 20
-9.9617225
 40
1.8
 50
306.00832
 51
53.991676
  0
ARC
  8
0
  6
CONTINUOUS
 62
     7
 10
-5.9479903
 20
-8.3105686
 40
3.8411539
 50
233.99167
 51
265.52055
  0
ARC
  8
0
  6
CONTINUOUS
 62
     7
 10
-5.9479903
 20
-8.3105686
 40
3.241154
 50
233.99167
 51
264.68912
  0
ARC
  8
0
  6
CONTINUOUS
 62
     7
 10
-5.9479906
 20
-11.612876
 40
3.241154
 50
53.991665
 51
126.00832
  0
ARC
  8
0
  6
CONTINUOUS
 62
     7
 10
-5.9479906
 20
-11.612876
 40
3.8411539
 50
53.991665
 51
85.520543
  0
ARC
  8
0
  6
CONTINUOUS
 62
     7
 10
-5.9479907
 20
-12.736722
 40
0.375
 50
216.86989
 51
323.13009
  0
ARC
  8
0
  6
CONTINUOUS
 62
     7
 10
-5.9479904
 20
-10.186722
 40
0.375
 50
36.869898
 51
143.1301
  0
ARC
  8
0
  6
CONTINUOUS
 62
     7
 10
-5.9479902
 20
-7.1867223
 40
0.375
 50
36.869898
 51
143.1301
  0
ARC
  8
0
  6
CONTINUOUS
 62
     7
 10
-5.9479906
 20
-11.612876
 40
3.8411539
 50
94.479442
 51
126.00832
  0
ARC
  8
0
  6
CONTINUOUS
 62
     7
 10
-5.9479903
 20
-8.3105686
 40
3.241154
 50
275.31087
 51
306.00832
  0
ARC
  8
0
  6
CONTINUOUS
 62
     7
 10
-5.9479903
 20
-8.3105686
 40
3.8411539
 50
274.47945
 51
306.00832
  0
ENDBLK
  8
0
  0
BLOCK
  8
0
  2
KOZU2
 70
    64
 10
0
 20
0
  0
POINT
  8
0
  6
CONTINUOUS
 62
     7
 10
0
 20
0
  0
LINE
  8
0
  6
CONTINUOUS
 62
     7
 10
-13.611572
 20
11.5
 11
0
 21
11.5
  0
LINE
  8
0
  6
CONTINUOUS
 62
     7
 10
-13.611572
 20
-11.5
 11
0
 21
-11.5
  0
LINE
  8
0
  6
CONTINUOUS
 62
     7
 10
-7.3684316
 20
-14.5
 11
-8.0445816E-006
 21
-14.5
  0
LINE
  8
0
  6
CENTER
 62
     7
 10
-19.476349
 20
0
 11
1.6971807
 21
0
  0
LINE
  8
0
  6
CONTINUOUS
 62
     7
 10
-7.3684316
 20
14.5
 11
-8.0445816E-006
 21
14.5
  0
LINE
  8
0
  6
CONTINUOUS
 62
     7
 10
0
 20
14.5
 11
0
 21
-14.5
  0
ARC
  8
0
  6
CONTINUOUS
 62
     7
 10
45.631569
 20
0
 40
62
 50
170.88984
 51
189.11014
  0
ARC
  8
0
  6
CONTINUOUS
 62
     7
 10
-13.611572
 20
-9.5
 40
2
 50
189.1101
 51
270.00002
  0
ARC
  8
0
  6
CONTINUOUS
 62
     7
 10
-13.611572
 20
9.5
 40
2
 50
89.999982
 51
170.8899
  0
ARC
  8
0
  6
CONTINUOUS
 62
     7
 10
-7.3684316
 20
11.5
 40
3
 50
89.999982
 51
179.99996
  0
ARC
  8
0
  6
CONTINUOUS
 62
     7
 10
-7.3684316
 20
-11.5
 40
3
 50
179.99998
 51
270.00003
  0
TEXT
  8
0
  6
CONTINUOUS
 62
     7
 10
-14.268
 20
18.525
 40
3.2
 41
0.85537027
  1
３／８
  0
LINE
  8
0
  6
CONTINUOUS
 62
     7
 10
-6.2757088
 20
-10.853589
 11
-6.2757087
 21
-10.031855
  0
LINE
  8
0
  6
CONTINUOUS
 62
     7
 10
-5.6757087
 20
-10.853589
 11
-5.6757087
 21
-10.031855
  0
LINE
  8
0
  6
CONTINUOUS
 62
     7
 10
-5.6757083
 20
-5.6753218
 11
-5.6757082
 21
-4.8535886
  0
LINE
  8
0
  6
CONTINUOUS
 62
     7
 10
-6.2757083
 20
-5.6753218
 11
-6.2757082
 21
-4.8535886
  0
LINE
  8
0
  6
CONTINUOUS
 62
     7
 10
-5.6757086
 20
-9.4296748
 11
-5.6757085
 21
-7.8535886
  0
LINE
  8
0
  6
CONTINUOUS
 62
     7
 10
-6.2757086
 20
-9.4296747
 11
-6.2757085
 21
-7.8535886
  0
ARC
  8
0
  6
CONTINUOUS
 62
     7
 10
-7.1757085
 20
-7.8535885
 40
1.2
 50
126.00832
 51
233.99167
  0
ARC
  8
0
  6
CONTINUOUS
 62
     7
 10
-7.1757085
 20
-7.8535885
 40
1.8
 50
126.00832
 51
233.99167
  0
ARC
  8
0
  6
CONTINUOUS
 62
     7
 10
-4.7757084
 20
-7.8535887
 40
1.2
 50
306.00832
 51
53.991676
  0
ARC
  8
0
  6
CONTINUOUS
 62
     7
 10
-4.7757084
 20
-7.8535887
 40
1.8
 50
306.00832
 51
53.991676
  0
ARC
  8
0
  6
CONTINUOUS
 62
     7
 10
-5.9757083
 20
-6.2024348
 40
3.8411539
 50
233.99167
 51
265.52055
  0
ARC
  8
0
  6
CONTINUOUS
 62
     7
 10
-5.9757083
 20
-6.2024348
 40
3.241154
 50
233.99167
 51
264.68912
  0
ARC
  8
0
  6
CONTINUOUS
 62
     7
 10
-5.9757086
 20
-9.5047424
 40
3.241154
 50
53.991665
 51
126.00832
  0
ARC
  8
0
  6
CONTINUOUS
 62
     7
 10
-5.9757086
 20
-9.5047424
 40
3.8411539
 50
53.991665
 51
85.520543
  0
ARC
  8
0
  6
CONTINUOUS
 62
     7
 10
-5.9757087
 20
-10.628589
 40
0.375
 50
216.86989
 51
323.13009
  0
ARC
  8
0
  6
CONTINUOUS
 62
     7
 10
-5.9757085
 20
-8.0785886
 40
0.375
 50
36.869898
 51
143.1301
  0
ARC
  8
0
  6
CONTINUOUS
 62
     7
 10
-5.9757082
 20
-5.0785885
 40
0.375
 50
36.869898
 51
143.1301
  0
ARC
  8
0
  6
CONTINUOUS
 62
     7
 10
-5.9757086
 20
-9.5047424
 40
3.8411539
 50
94.479442
 51
126.00832
  0
ARC
  8
0
  6
CONTINUOUS
 62
     7
 10
-5.9757083
 20
-6.2024348
 40
3.241154
 50
275.31087
 51
306.00832
  0
ARC
  8
0
  6
CONTINUOUS
 62
     7
 10
-5.9757083
 20
-6.2024348
 40
3.8411539
 50
274.47945
 51
306.00832
  0
ENDBLK
  8
0
  0
BLOCK
  8
0
  2
KOZU3
 70
    64
 10
0
 20
0
  0
POINT
  8
0
  6
CONTINUOUS
 62
     7
 10
0
 20
0
  0
LINE
  8
0
  6
CONTINUOUS
 62
     7
 10
-17.051176
 20
-16.5
 11
0
 21
-16.5
  0
LINE
  8
0
  6
CENTER
 62
     7
 10
-27.277662
 20
0
 11
2.1068752
 21
0
  0
LINE
  8
0
  6
CONTINUOUS
 62
     7
 10
-15.172728
 20
18
 11
2.1159124E-006
 21
18
  0
LINE
  8
0
  6
CONTINUOUS
 62
     7
 10
-17.051176
 20
16.5
 11
0
 21
16.5
  0
LINE
  8
0
  6
CONTINUOUS
 62
     7
 10
-15.172728
 20
-18
 11
2.1159124E-006
 21
-18
  0
LINE
  8
0
  6
CONTINUOUS
 62
     7
 10
0
 20
18
 11
0
 21
-18
  0
ARC
  8
0
  6
CONTINUOUS
 62
     7
 10
71.327271
 20
0
 40
95
 50
173.22462
 51
186.77536
  0
ARC
  8
0
  6
CONTINUOUS
 62
     7
 10
-17.051176
 20
-10.5
 40
6
 50
186.77542
 51
270.00002
  0
ARC
  8
0
  6
CONTINUOUS
 62
     7
 10
-17.051176
 20
10.5
 40
6
 50
89.999982
 51
173.22458
  0
ARC
  8
0
  6
CONTINUOUS
 62
     7
 10
-15.172728
 20
-16.5
 40
1.5
 50
179.99998
 51
269.99997
  0
ARC
  8
0
  6
CONTINUOUS
 62
     7
 10
-15.172728
 20
16.5
 40
1.5
 50
89.999982
 51
179.99996
  0
TEXT
  8
0
  6
CONTINUOUS
 62
     7
 10
-21.268
 20
24.125
 40
3.2
 41
0.85537027
  1
３／４
  0
LINE
  8
0
  6
CONTINUOUS
 62
     7
 10
-8.9996716
 20
-15.820399
 11
-8.9996714
 21
-14.5878
  0
LINE
  8
0
  6
CONTINUOUS
 62
     7
 10
-8.0996716
 20
-15.820399
 11
-8.0996715
 21
-14.5878
  0
LINE
  8
0
  6
CONTINUOUS
 62
     7
 10
-8.0996709
 20
-8.0529991
 11
-8.0996708
 21
-6.8203993
  0
LINE
  8
0
  6
CONTINUOUS
 62
     7
 10
-8.9996709
 20
-8.052999
 11
-8.9996708
 21
-6.8203992
  0
LINE
  8
0
  6
CONTINUOUS
 62
     7
 10
-8.0996714
 20
-13.684529
 11
-8.0996712
 21
-11.320399
  0
LINE
  8
0
  6
CONTINUOUS
 62
     7
 10
-8.9996714
 20
-13.684529
 11
-8.9996712
 21
-11.320399
  0
ARC
  8
0
  6
CONTINUOUS
 62
     7
 10
-10.349671
 20
-11.320399
 40
1.8
 50
126.00832
 51
233.99167
  0
ARC
  8
0
  6
CONTINUOUS
 62
     7
 10
-10.349671
 20
-11.320399
 40
2.7
 50
126.00832
 51
233.99167
  0
ARC
  8
0
  6
CONTINUOUS
 62
     7
 10
-6.7496712
 20
-11.320399
 40
1.8
 50
306.00832
 51
53.991676
  0
ARC
  8
0
  6
CONTINUOUS
 62
     7
 10
-6.7496712
 20
-11.320399
 40
2.7
 50
306.00832
 51
53.991676
  0
ARC
  8
0
  6
CONTINUOUS
 62
     7
 10
-8.549671
 20
-8.8436685
 40
5.7617307
 50
233.99167
 51
265.52055
  0
ARC
  8
0
  6
CONTINUOUS
 62
     7
 10
-8.549671
 20
-8.8436685
 40
4.8617306
 50
233.99167
 51
264.68912
  0
ARC
  8
0
  6
CONTINUOUS
 62
     7
 10
-8.5496714
 20
-13.79713
 40
4.8617306
 50
53.991665
 51
126.00832
  0
ARC
  8
0
  6
CONTINUOUS
 62
     7
 10
-8.5496714
 20
-13.79713
 40
5.7617307
 50
53.991665
 51
85.520543
  0
ARC
  8
0
  6
CONTINUOUS
 62
     7
 10
-8.5496715
 20
-15.482899
 40
0.5625
 50
216.86989
 51
323.13009
  0
ARC
  8
0
  6
CONTINUOUS
 62
     7
 10
-8.5496712
 20
-11.657899
 40
0.5625
 50
36.869898
 51
143.1301
  0
ARC
  8
0
  6
CONTINUOUS
 62
     7
 10
-8.5496708
 20
-7.1578994
 40
0.5625
 50
36.869898
 51
143.1301
  0
ARC
  8
0
  6
CONTINUOUS
 62
     7
 10
-8.549671
 20
-8.8436685
 40
5.7617307
 50
274.47945
 51
306.00832
  0
ARC
  8
0
  6
CONTINUOUS
 62
     7
 10
-8.549671
 20
-8.8436685
 40
4.8617306
 50
275.31087
 51
306.00832
  0
ARC
  8
0
  6
CONTINUOUS
 62
     7
 10
-8.5496714
 20
-13.79713
 40
5.7617307
 50
94.479442
 51
126.00832
  0
ENDBLK
  8
0
  0
BLOCK
  8
0
  2
KOZU4
 70
    64
 10
0
 20
0
  0
POINT
  8
0
  6
CONTINUOUS
 62
     7
 10
0
 20
0
  0
LINE
  8
0
  6
CENTER
 62
     7
 10
-31.011839
 20
0
 11
2.545177
 21
0
  0
LINE
  8
0
  6
CONTINUOUS
 62
     7
 10
-18.223082
 20
-22
 11
-1.2699321E-005
 21
-22
  0
LINE
  8
0
  6
CONTINUOUS
 62
     7
 10
-18.223082
 20
22
 11
-1.2699321E-005
 21
22
  0
LINE
  8
0
  6
CONTINUOUS
 62
     7
 10
-20.393187
 20
20.5
 11
0
 21
20.5
  0
LINE
  8
0
  6
CONTINUOUS
 62
     7
 10
-20.393187
 20
-20.5
 11
0
 21
-20.5
  0
LINE
  8
0
  6
CONTINUOUS
 62
     7
 10
0
 20
22
 11
0
 21
-22
  0
ARC
  8
0
  6
CONTINUOUS
 62
     7
 10
-20.393187
 20
-14
 40
6.5
 50
186.78491
 51
270.00002
  0
ARC
  8
0
  6
CONTINUOUS
 62
     7
 10
-20.393187
 20
14
 40
6.5
 50
89.999982
 51
173.21509
  0
ARC
  8
0
  6
CONTINUOUS
 62
     7
 10
97.276909
 20
0
 40
125
 50
173.21505
 51
186.78494
  0
ARC
  8
0
  6
CONTINUOUS
 62
     7
 10
-18.223082
 20
20.5
 40
1.5
 50
89.999982
 51
179.99996
  0
ARC
  8
0
  6
CONTINUOUS
 62
     7
 10
-18.223082
 20
-20.5
 40
1.5
 50
179.99998
 51
269.99997
  0
TEXT
  8
0
  6
CONTINUOUS
 62
     7
 10
-26.168
 20
27.975001
 40
3.2
 41
0.90047268
  1
１
  0
LINE
  8
0
  6
CONTINUOUS
 62
     7
 10
-12.522986
 20
-19.635995
 11
-12.522985
 21
-17.992528
  0
LINE
  8
0
  6
CONTINUOUS
 62
     7
 10
-11.322986
 20
-19.635995
 11
-11.322985
 21
-17.992528
  0
LINE
  8
0
  6
CONTINUOUS
 62
     7
 10
-11.322985
 20
-9.2794614
 11
-11.322985
 21
-7.635995
  0
LINE
  8
0
  6
CONTINUOUS
 62
     7
 10
-12.522985
 20
-9.2794613
 11
-12.522985
 21
-7.6359949
  0
LINE
  8
0
  6
CONTINUOUS
 62
     7
 10
-11.322985
 20
-16.788167
 11
-11.322985
 21
-13.635995
  0
LINE
  8
0
  6
CONTINUOUS
 62
     7
 10
-12.522985
 20
-16.788167
 11
-12.522985
 21
-13.635995
  0
ARC
  8
0
  6
CONTINUOUS
 62
     7
 10
-14.322985
 20
-13.635995
 40
2.4000001
 50
126.00832
 51
233.99167
  0
ARC
  8
0
  6
CONTINUOUS
 62
     7
 10
-14.322985
 20
-13.635995
 40
3.5999999
 50
126.00832
 51
233.99167
  0
ARC
  8
0
  6
CONTINUOUS
 62
     7
 10
-9.522985
 20
-13.635995
 40
2.4000001
 50
306.00832
 51
53.991676
  0
ARC
  8
0
  6
CONTINUOUS
 62
     7
 10
-9.522985
 20
-13.635995
 40
3.5999999
 50
306.00832
 51
53.991676
  0
ARC
  8
0
  6
CONTINUOUS
 62
     7
 10
-11.922985
 20
-10.333687
 40
7.6823077
 50
233.99167
 51
265.52055
  0
ARC
  8
0
  6
CONTINUOUS
 62
     7
 10
-11.922985
 20
-10.333687
 40
6.4823079
 50
233.99167
 51
264.68912
  0
ARC
  8
0
  6
CONTINUOUS
 62
     7
 10
-11.922985
 20
-16.938303
 40
6.4823079
 50
53.991665
 51
126.00832
  0
ARC
  8
0
  6
CONTINUOUS
 62
     7
 10
-11.922985
 20
-16.938303
 40
7.6823077
 50
53.991665
 51
85.520543
  0
ARC
  8
0
  6
CONTINUOUS
 62
     7
 10
-11.922986
 20
-19.185995
 40
0.75
 50
216.86989
 51
323.13009
  0
ARC
  8
0
  6
CONTINUOUS
 62
     7
 10
-11.922985
 20
-14.085995
 40
0.75
 50
36.869898
 51
143.1301
  0
ARC
  8
0
  6
CONTINUOUS
 62
     7
 10
-11.922985
 20
-8.0859947
 40
0.75
 50
36.869898
 51
143.1301
  0
ARC
  8
0
  6
CONTINUOUS
 62
     7
 10
-11.922985
 20
-10.333687
 40
6.4823079
 50
275.31087
 51
306.00832
  0
ARC
  8
0
  6
CONTINUOUS
 62
     7
 10
-11.922985
 20
-10.333687
 40
7.6823077
 50
274.47945
 51
306.00832
  0
ARC
  8
0
  6
CONTINUOUS
 62
     7
 10
-11.922985
 20
-16.938303
 40
7.6823077
 50
94.479442
 51
126.00832
  0
ENDBLK
  8
0
  0
BLOCK
  8
0
  2
KOZU5
 70
    64
 10
0
 20
0
  0
POINT
  8
0
  6
CONTINUOUS
 62
     7
 10
0
 20
0
  0
LINE
  8
0
  6
CONTINUOUS
 62
     7
 10
-19.18656
 20
26.5
 11
-5.7076618E-006
 21
26.5
  0
LINE
  8
0
  6
CENTER
 62
     7
 10
-32.686558
 20
0
 11
4.5296454
 21
0
  0
LINE
  8
0
  6
CONTINUOUS
 62
     7
 10
-21.54917
 20
25
 11
0
 21
25
  0
LINE
  8
0
  6
CONTINUOUS
 62
     7
 10
-21.54917
 20
-25
 11
0
 21
-25
  0
LINE
  8
0
  6
CONTINUOUS
 62
     7
 10
-19.18656
 20
-26.5
 11
1.9217327E-006
 21
-26.5
  0
LINE
  8
0
  6
CONTINUOUS
 62
     7
 10
0
 20
26.5
 11
0
 21
-26.5
  0
ARC
  8
0
  6
CONTINUOUS
 62
     7
 10
120.31344
 20
0
 40
150
 50
172.76877
 51
187.23121
  0
ARC
  8
0
  6
CONTINUOUS
 62
     7
 10
-21.54917
 20
18
 40
7
 50
89.999982
 51
172.76877
  0
ARC
  8
0
  6
CONTINUOUS
 62
     7
 10
-19.18656
 20
-25
 40
1.5
 50
179.99998
 51
269.99997
  0
ARC
  8
0
  6
CONTINUOUS
 62
     7
 10
-21.54917
 20
-18
 40
7
 50
187.23123
 51
270.00002
  0
ARC
  8
0
  6
CONTINUOUS
 62
     7
 10
-19.18656
 20
25
 40
1.5
 50
89.999982
 51
179.99996
  0
TEXT
  8
0
  6
CONTINUOUS
 62
     7
 10
-25.468001
 20
32.175002
 40
3.2
 41
0.85127005
  1
１１／４
  0
LINE
  8
0
  6
CONTINUOUS
 62
     7
 10
-12.759841
 20
-24.172661
 11
-12.759841
 21
-22.529194
  0
LINE
  8
0
  6
CONTINUOUS
 62
     7
 10
-11.559841
 20
-24.172661
 11
-11.559841
 21
-22.529194
  0
LINE
  8
0
  6
CONTINUOUS
 62
     7
 10
-11.55984
 20
-13.816127
 11
-11.55984
 21
-12.172661
  0
LINE
  8
0
  6
CONTINUOUS
 62
     7
 10
-12.75984
 20
-13.816127
 11
-12.75984
 21
-12.172661
  0
LINE
  8
0
  6
CONTINUOUS
 62
     7
 10
-11.559841
 20
-21.324833
 11
-11.559841
 21
-18.172661
  0
LINE
  8
0
  6
CONTINUOUS
 62
     7
 10
-12.759841
 20
-21.324833
 11
-12.759841
 21
-18.172661
  0
ARC
  8
0
  6
CONTINUOUS
 62
     7
 10
-14.559841
 20
-18.172661
 40
2.4000001
 50
126.00832
 51
233.99167
  0
ARC
  8
0
  6
CONTINUOUS
 62
     7
 10
-14.559841
 20
-18.172661
 40
3.5999999
 50
126.00832
 51
233.99167
  0
ARC
  8
0
  6
CONTINUOUS
 62
     7
 10
-9.7598405
 20
-18.172661
 40
2.4000001
 50
306.00832
 51
53.991676
  0
ARC
  8
0
  6
CONTINUOUS
 62
     7
 10
-9.7598405
 20
-18.172661
 40
3.5999999
 50
306.00832
 51
53.991676
  0
ARC
  8
0
  6
CONTINUOUS
 62
     7
 10
-12.15984
 20
-14.870353
 40
7.6823077
 50
233.99167
 51
265.52055
  0
ARC
  8
0
  6
CONTINUOUS
 62
     7
 10
-12.15984
 20
-14.870353
 40
6.4823079
 50
233.99167
 51
264.68912
  0
ARC
  8
0
  6
CONTINUOUS
 62
     7
 10
-12.159841
 20
-21.474968
 40
6.4823079
 50
53.991665
 51
126.00832
  0
ARC
  8
0
  6
CONTINUOUS
 62
     7
 10
-12.159841
 20
-21.474968
 40
7.6823077
 50
53.991665
 51
85.520543
  0
ARC
  8
0
  6
CONTINUOUS
 62
     7
 10
-12.159841
 20
-23.722661
 40
0.75
 50
216.86989
 51
323.13009
  0
ARC
  8
0
  6
CONTINUOUS
 62
     7
 10
-12.159841
 20
-18.622661
 40
0.75
 50
36.869898
 51
143.1301
  0
ARC
  8
0
  6
CONTINUOUS
 62
     7
 10
-12.15984
 20
-12.622661
 40
0.75
 50
36.869898
 51
143.1301
  0
ARC
  8
0
  6
CONTINUOUS
 62
     7
 10
-12.15984
 20
-14.870353
 40
6.4823079
 50
275.31087
 51
306.00832
  0
ARC
  8
0
  6
CONTINUOUS
 62
     7
 10
-12.15984
 20
-14.870353
 40
7.6823077
 50
274.47945
 51
306.00832
  0
ARC
  8
0
  6
CONTINUOUS
 62
     7
 10
-12.159841
 20
-21.474968
 40
7.6823077
 50
94.479442
 51
126.00832
  0
ENDBLK
  8
0
  0
BLOCK
  8
0
  2
KOZU6
 70
    64
 10
0
 20
0
  0
POINT
  8
0
  6
CONTINUOUS
 62
     7
 10
0
 20
0
  0
LINE
  8
0
  6
CENTER
 62
     7
 10
-34.856529
 20
0
 11
6.1041455
 21
0
  0
LINE
  8
0
  6
CONTINUOUS
 62
     7
 10
-19.599997
 20
-30
 11
1.0461941E-006
 21
-30
  0
LINE
  8
0
  6
CONTINUOUS
 62
     7
 10
-19.599997
 20
30
 11
1.0461941E-006
 21
30
  0
LINE
  8
0
  6
CONTINUOUS
 62
     7
 10
-22.801733
 20
28
 11
0
 21
28
  0
LINE
  8
0
  6
CONTINUOUS
 62
     7
 10
-22.801733
 20
-28
 11
0
 21
-28
  0
LINE
  8
0
  6
CONTINUOUS
 62
     7
 10
0
 20
30
 11
0
 21
-30
  0
ARC
  8
0
  6
CONTINUOUS
 62
     7
 10
-22.801733
 20
-20.5
 40
7.5
 50
187.24734
 51
270.00002
  0
ARC
  8
0
  6
CONTINUOUS
 62
     7
 10
-19.599997
 20
-28
 40
2
 50
179.99998
 51
269.99997
  0
ARC
  8
0
  6
CONTINUOUS
 62
     7
 10
138.40001
 20
0
 40
170
 50
172.75263
 51
187.24735
  0
ARC
  8
0
  6
CONTINUOUS
 62
     7
 10
-22.801733
 20
20.5
 40
7.5
 50
89.999982
 51
172.75266
  0
ARC
  8
0
  6
CONTINUOUS
 62
     7
 10
-19.599997
 20
28
 40
2
 50
89.999982
 51
179.99996
  0
TEXT
  8
0
  6
CONTINUOUS
 62
     7
 10
-30.018
 20
38.475001
 40
3.2
 41
0.85127005
  1
１１／２
  0
LINE
  8
0
  6
CONTINUOUS
 62
     7
 10
-12.453153
 20
-27.252903
 11
-12.453153
 21
-25.609436
  0
LINE
  8
0
  6
CONTINUOUS
 62
     7
 10
-11.253153
 20
-27.252903
 11
-11.253153
 21
-25.609437
  0
LINE
  8
0
  6
CONTINUOUS
 62
     7
 10
-11.253152
 20
-16.89637
 11
-11.253152
 21
-15.252903
  0
LINE
  8
0
  6
CONTINUOUS
 62
     7
 10
-12.453152
 20
-16.896369
 11
-12.453152
 21
-15.252903
  0
LINE
  8
0
  6
CONTINUOUS
 62
     7
 10
-11.253153
 20
-24.405075
 11
-11.253152
 21
-21.252903
  0
LINE
  8
0
  6
CONTINUOUS
 62
     7
 10
-12.453153
 20
-24.405075
 11
-12.453152
 21
-21.252903
  0
ARC
  8
0
  6
CONTINUOUS
 62
     7
 10
-14.253152
 20
-21.252903
 40
2.4000001
 50
126.00832
 51
233.99167
  0
ARC
  8
0
  6
CONTINUOUS
 62
     7
 10
-14.253152
 20
-21.252903
 40
3.5999999
 50
126.00832
 51
233.99167
  0
ARC
  8
0
  6
CONTINUOUS
 62
     7
 10
-9.4531522
 20
-21.252903
 40
2.4000001
 50
306.00832
 51
53.991676
  0
ARC
  8
0
  6
CONTINUOUS
 62
     7
 10
-9.4531522
 20
-21.252903
 40
3.5999999
 50
306.00832
 51
53.991676
  0
ARC
  8
0
  6
CONTINUOUS
 62
     7
 10
-11.853152
 20
-17.950595
 40
7.6823077
 50
233.99167
 51
265.52055
  0
ARC
  8
0
  6
CONTINUOUS
 62
     7
 10
-11.853152
 20
-17.950595
 40
6.4823079
 50
233.99167
 51
264.68912
  0
ARC
  8
0
  6
CONTINUOUS
 62
     7
 10
-11.853153
 20
-24.555211
 40
6.4823079
 50
53.991665
 51
126.00832
  0
ARC
  8
0
  6
CONTINUOUS
 62
     7
 10
-11.853153
 20
-24.555211
 40
7.6823077
 50
53.991665
 51
85.520543
  0
ARC
  8
0
  6
CONTINUOUS
 62
     7
 10
-11.853153
 20
-26.802903
 40
0.75
 50
216.86989
 51
323.13009
  0
ARC
  8
0
  6
CONTINUOUS
 62
     7
 10
-11.853152
 20
-21.702903
 40
0.75
 50
36.869898
 51
143.1301
  0
ARC
  8
0
  6
CONTINUOUS
 62
     7
 10
-11.853152
 20
-15.702903
 40
0.75
 50
36.869898
 51
143.1301
  0
ARC
  8
0
  6
CONTINUOUS
 62
     7
 10
-11.853152
 20
-17.950595
 40
6.4823079
 50
275.31087
 51
306.00832
  0
ARC
  8
0
  6
CONTINUOUS
 62
     7
 10
-11.853152
 20
-17.950595
 40
7.6823077
 50
274.47945
 51
306.00832
  0
ARC
  8
0
  6
CONTINUOUS
 62
     7
 10
-11.853153
 20
-24.555211
 40
7.6823077
 50
94.479442
 51
126.00832
  0
ENDBLK
  8
0
  0
BLOCK
  8
0
  2
KOZU7
 70
    64
 10
0
 20
0
  0
POINT
  8
0
  6
CONTINUOUS
 62
     7
 10
0
 20
0
  0
LINE
  8
0
  6
CENTER
 62
     7
 10
-39.165802
 20
0
 11
5.534317
 21
0
  0
LINE
  8
0
  6
CONTINUOUS
 62
     7
 10
-25.870073
 20
34.5
 11
0
 21
34.5
  0
LINE
  8
0
  6
CONTINUOUS
 62
     7
 10
-25.870073
 20
-34.5
 11
0
 21
-34.5
  0
LINE
  8
0
  6
CONTINUOUS
 62
     7
 10
-21.573336
 20
36.5
 11
-1.8850999E-006
 21
36.5
  0
LINE
  8
0
  6
CONTINUOUS
 62
     7
 10
-21.573336
 20
-36.5
 11
-1.8850999E-006
 21
-36.5
  0
LINE
  8
0
  6
CONTINUOUS
 62
     7
 10
0
 20
36.5
 11
0
 21
-36.5
  0
ARC
  8
0
  6
CONTINUOUS
 62
     7
 10
179.42667
 20
0
 40
215
 50
172.64486
 51
187.35512
  0
ARC
  8
0
  6
CONTINUOUS
 62
     7
 10
-25.870073
 20
-26.5
 40
8
 50
187.35515
 51
270.00002
  0
ARC
  8
0
  6
CONTINUOUS
 62
     7
 10
-25.870073
 20
26.5
 40
8
 50
89.999982
 51
172.64485
  0
ARC
  8
0
  6
CONTINUOUS
 62
     7
 10
-21.573336
 20
34.5
 40
2
 50
89.999982
 51
179.99996
  0
ARC
  8
0
  6
CONTINUOUS
 62
     7
 10
-21.573336
 20
-34.5
 40
2
 50
179.99998
 51
269.99997
  0
TEXT
  8
0
  6
CONTINUOUS
 62
     7
 10
-31.768
 20
45.124998
 40
3.2
 41
0.90047268
  1
２
  0
LINE
  8
0
  6
CONTINUOUS
 62
     7
 10
-14.345241
 20
-33.084133
 11
-14.345241
 21
-31.0298
  0
LINE
  8
0
  6
CONTINUOUS
 62
     7
 10
-12.845241
 20
-33.084133
 11
-12.845241
 21
-31.0298
  0
LINE
  8
0
  6
CONTINUOUS
 62
     7
 10
-12.84524
 20
-20.138466
 11
-12.84524
 21
-18.084133
  0
LINE
  8
0
  6
CONTINUOUS
 62
     7
 10
-14.34524
 20
-20.138466
 11
-14.34524
 21
-18.084133
  0
LINE
  8
0
  6
CONTINUOUS
 62
     7
 10
-12.845241
 20
-29.524349
 11
-12.845241
 21
-25.584133
  0
LINE
  8
0
  6
CONTINUOUS
 62
     7
 10
-14.345241
 20
-29.524349
 11
-14.345241
 21
-25.584133
  0
ARC
  8
0
  6
CONTINUOUS
 62
     7
 10
-16.595241
 20
-25.584133
 40
3
 50
126.00832
 51
233.99167
  0
ARC
  8
0
  6
CONTINUOUS
 62
     7
 10
-16.595241
 20
-25.584133
 40
4.5
 50
126.00832
 51
233.99167
  0
ARC
  8
0
  6
CONTINUOUS
 62
     7
 10
-10.595241
 20
-25.584133
 40
3
 50
306.00832
 51
53.991676
  0
ARC
  8
0
  6
CONTINUOUS
 62
     7
 10
-10.595241
 20
-25.584133
 40
4.5
 50
306.00832
 51
53.991676
  0
ARC
  8
0
  6
CONTINUOUS
 62
     7
 10
-13.59524
 20
-21.456249
 40
9.6028843
 50
233.99167
 51
265.52055
  0
ARC
  8
0
  6
CONTINUOUS
 62
     7
 10
-13.59524
 20
-21.456249
 40
8.1028843
 50
233.99167
 51
264.68912
  0
ARC
  8
0
  6
CONTINUOUS
 62
     7
 10
-13.595241
 20
-29.712018
 40
8.1028843
 50
53.991665
 51
126.00832
  0
ARC
  8
0
  6
CONTINUOUS
 62
     7
 10
-13.595241
 20
-29.712018
 40
9.6028843
 50
53.991665
 51
85.520543
  0
ARC
  8
0
  6
CONTINUOUS
 62
     7
 10
-13.595241
 20
-32.521633
 40
0.9375
 50
216.86989
 51
323.13009
  0
ARC
  8
0
  6
CONTINUOUS
 62
     7
 10
-13.595241
 20
-26.146633
 40
0.9375
 50
36.869898
 51
143.1301
  0
ARC
  8
0
  6
CONTINUOUS
 62
     7
 10
-13.59524
 20
-18.646633
 40
0.9375
 50
36.869898
 51
143.1301
  0
ARC
  8
0
  6
CONTINUOUS
 62
     7
 10
-13.59524
 20
-21.456249
 40
9.6028843
 50
274.47945
 51
306.00832
  0
ARC
  8
0
  6
CONTINUOUS
 62
     7
 10
-13.59524
 20
-21.456249
 40
8.1028843
 50
275.31087
 51
306.00832
  0
ARC
  8
0
  6
CONTINUOUS
 62
     7
 10
-13.595241
 20
-29.712018
 40
9.6028843
 50
94.479442
 51
126.00832
  0
ENDBLK
  8
0
  0
BLOCK
  8
0
  2
KOZU8
 70
    64
 10
0
 20
0
  0
POINT
  8
0
  6
CONTINUOUS
 62
     7
 10
0
 20
0
  0
LINE
  8
0
  6
CENTER
 62
     7
 10
-47.928425
 20
0
 11
8.8109465
 21
0
  0
LINE
  8
0
  6
CONTINUOUS
 62
     7
 10
-26.936848
 20
45.5
 11
-9.4802133E-005
 21
45.5
  0
LINE
  8
0
  6
CONTINUOUS
 62
     7
 10
-26.936848
 20
-45.500015
 11
-9.4802133E-005
 21
-45.500015
  0
LINE
  8
0
  6
CONTINUOUS
 62
     7
 10
-30.33707
 20
-43.000015
 11
-16.274908
 21
-43.000015
  0
LINE
  8
0
  6
CONTINUOUS
 62
     7
 10
-12.000095
 20
45.5
 11
-12.000095
 21
-45.500015
  0
LINE
  8
0
  6
CONTINUOUS
 62
     7
 10
0
 20
-45.500015
 11
0
 21
45.5
  0
LINE
  8
0
  6
CONTINUOUS
 62
     7
 10
-30.33707
 20
43
 11
-17.51796
 21
43
  0
ARC
  8
0
  6
CONTINUOUS
 62
     7
 10
227.99991
 20
0
 40
270
 50
172.73497
 51
187.26505
  0
ARC
  8
0
  6
CONTINUOUS
 62
     7
 10
-26.936848
 20
32.5
 40
13
 50
90.000003
 51
172.73497
  0
ARC
  8
0
  6
CONTINUOUS
 62
     7
 10
-26.936848
 20
-32.500015
 40
13
 50
187.26505
 51
269.99996
  0
ARC
  8
0
  6
CONTINUOUS
 62
     7
 10
-30.33707
 20
33.5
 40
9.5
 50
90.000003
 51
172.61138
  0
ARC
  8
0
  6
CONTINUOUS
 62
     7
 10
-30.33707
 20
-33.500015
 40
9.5
 50
187.38869
 51
269.99996
  0
ARC
  8
0
  6
CONTINUOUS
 62
     7
 10
-16.896507
 20
48.967731
 40
6
 50
264.05491
 51
324.69317
  0
ARC
  8
0
  6
CONTINUOUS
 62
     7
 10
-16.896507
 20
-48.967731
 40
6
 50
35.306832
 51
95.945095
  0
TEXT
  8
0
  6
CONTINUOUS
 62
     7
 10
-35.968001
 20
53.525
 40
3.2
 41
0.85127005
  1
２１／２
  0
LINE
  8
0
  6
CONTINUOUS
 62
     7
 10
-23.554913
 20
-41.790443
 11
-23.554913
 21
-40.146977
  0
LINE
  8
0
  6
CONTINUOUS
 62
     7
 10
-22.354913
 20
-41.790443
 11
-22.354913
 21
-40.146977
  0
LINE
  8
0
  6
CONTINUOUS
 62
     7
 10
-22.354912
 20
-31.43391
 11
-22.354912
 21
-29.790443
  0
LINE
  8
0
  6
CONTINUOUS
 62
     7
 10
-23.554912
 20
-31.43391
 11
-23.554912
 21
-29.790443
  0
LINE
  8
0
  6
CONTINUOUS
 62
     7
 10
-22.354912
 20
-38.942616
 11
-22.354912
 21
-35.790443
  0
LINE
  8
0
  6
CONTINUOUS
 62
     7
 10
-23.554912
 20
-38.942616
 11
-23.554912
 21
-35.790443
  0
ARC
  8
0
  6
CONTINUOUS
 62
     7
 10
-25.354912
 20
-35.790443
 40
2.4000001
 50
126.00832
 51
233.99167
  0
ARC
  8
0
  6
CONTINUOUS
 62
     7
 10
-25.354912
 20
-35.790443
 40
3.5999999
 50
126.00832
 51
233.99167
  0
ARC
  8
0
  6
CONTINUOUS
 62
     7
 10
-20.554912
 20
-35.790444
 40
2.4000001
 50
306.00832
 51
53.991676
  0
ARC
  8
0
  6
CONTINUOUS
 62
     7
 10
-20.554912
 20
-35.790444
 40
3.5999999
 50
306.00832
 51
53.991676
  0
ARC
  8
0
  6
CONTINUOUS
 62
     7
 10
-22.954912
 20
-32.488136
 40
7.6823077
 50
233.99167
 51
265.52055
  0
ARC
  8
0
  6
CONTINUOUS
 62
     7
 10
-22.954912
 20
-32.488136
 40
6.4823079
 50
233.99167
 51
264.68912
  0
ARC
  8
0
  6
CONTINUOUS
 62
     7
 10
-22.954912
 20
-39.092751
 40
6.4823079
 50
53.991665
 51
126.00832
  0
ARC
  8
0
  6
CONTINUOUS
 62
     7
 10
-22.954912
 20
-39.092751
 40
7.6823077
 50
53.991665
 51
85.520543
  0
ARC
  8
0
  6
CONTINUOUS
 62
     7
 10
-22.954913
 20
-41.340444
 40
0.75
 50
216.86989
 51
323.13009
  0
ARC
  8
0
  6
CONTINUOUS
 62
     7
 10
-22.954912
 20
-36.240443
 40
0.75
 50
36.869898
 51
143.1301
  0
ARC
  8
0
  6
CONTINUOUS
 62
     7
 10
-22.954912
 20
-30.240443
 40
0.75
 50
36.869898
 51
143.1301
  0
ARC
  8
0
  6
CONTINUOUS
 62
     7
 10
-22.954912
 20
-32.488136
 40
6.4823079
 50
275.31087
 51
306.00832
  0
ARC
  8
0
  6
CONTINUOUS
 62
     7
 10
-22.954912
 20
-32.488136
 40
7.6823077
 50
274.47945
 51
306.00832
  0
ARC
  8
0
  6
CONTINUOUS
 62
     7
 10
-22.954912
 20
-39.092751
 40
7.6823077
 50
94.479442
 51
126.00832
  0
ENDBLK
  8
0
  0
BLOCK
  8
0
  2
KOZU9
 70
    64
 10
0
 20
0
  0
POINT
  8
0
  6
CONTINUOUS
 62
     7
 10
0
 20
0
  0
LINE
  8
0
  6
CENTER
 62
     7
 10
-49.399586
 20
0
 11
12.518206
 21
0
  0
LINE
  8
0
  6
CONTINUOUS
 62
     7
 10
-29.361609
 20
-52.5
 11
9.7296443E-006
 21
-52.5
  0
LINE
  8
0
  6
CONTINUOUS
 62
     7
 10
-29.361609
 20
52.500015
 11
9.7296443E-006
 21
52.500015
  0
LINE
  8
0
  6
CONTINUOUS
 62
     7
 10
-32.388218
 20
49.500015
 11
-20.141409
 21
49.500015
  0
LINE
  8
0
  6
CONTINUOUS
 62
     7
 10
-32.388218
 20
-49.5
 11
-20.141409
 21
-49.5
  0
LINE
  8
0
  6
CONTINUOUS
 62
     7
 10
-12.999995
 20
52.500015
 11
-12.999995
 21
-52.5
  0
LINE
  8
0
  6
CONTINUOUS
 62
     7
 10
0
 20
52.500015
 11
0
 21
-52.5
  0
ARC
  8
0
  6
CONTINUOUS
 62
     7
 10
-20.141424
 20
59.500015
 40
10
 50
270.00001
 51
315.573
  0
ARC
  8
0
  6
CONTINUOUS
 62
     7
 10
-32.388218
 20
39.500015
 40
10
 50
90.000003
 51
172.43408
  0
ARC
  8
0
  6
CONTINUOUS
 62
     7
 10
-32.388218
 20
-39.5
 40
10
 50
187.56593
 51
269.99996
  0
ARC
  8
0
  6
CONTINUOUS
 62
     7
 10
-20.141409
 20
-59.5
 40
10
 50
44.427006
 51
90.000009
  0
ARC
  8
0
  6
CONTINUOUS
 62
     7
 10
-29.361609
 20
-39.5
 40
13
 50
187.64283
 51
269.99996
  0
ARC
  8
0
  6
CONTINUOUS
 62
     7
 10
265
 20
0
 40
310
 50
172.3572
 51
187.64281
  0
ARC
  8
0
  6
CONTINUOUS
 62
     7
 10
-29.361609
 20
39.500015
 40
13
 50
90.000003
 51
172.35721
  0
TEXT
  8
0
  6
CONTINUOUS
 62
     7
 10
-38.067999
 20
62.624998
 40
3.2
 41
0.90047268
  1
３
  0
LINE
  8
0
  6
CONTINUOUS
 62
     7
 10
-28.964433
 20
-48.837242
 11
-28.964433
 21
-46.372042
  0
LINE
  8
0
  6
CONTINUOUS
 62
     7
 10
-27.164433
 20
-48.837242
 11
-27.164433
 21
-46.372042
  0
LINE
  8
0
  6
CONTINUOUS
 62
     7
 10
-27.164432
 20
-33.302442
 11
-27.164431
 21
-30.837242
  0
LINE
  8
0
  6
CONTINUOUS
 62
     7
 10
-28.964432
 20
-33.302442
 11
-28.964431
 21
-30.837242
  0
LINE
  8
0
  6
CONTINUOUS
 62
     7
 10
-27.164433
 20
-44.5655
 11
-27.164432
 21
-39.837242
  0
LINE
  8
0
  6
CONTINUOUS
 62
     7
 10
-28.964433
 20
-44.5655
 11
-28.964432
 21
-39.837242
  0
ARC
  8
0
  6
CONTINUOUS
 62
     7
 10
-31.664432
 20
-39.837242
 40
3.5999999
 50
126.00832
 51
233.99167
  0
ARC
  8
0
  6
CONTINUOUS
 62
     7
 10
-31.664432
 20
-39.837242
 40
5.4000001
 50
126.00832
 51
233.99167
  0
ARC
  8
0
  6
CONTINUOUS
 62
     7
 10
-24.464432
 20
-39.837242
 40
3.5999999
 50
306.00832
 51
53.991676
  0
ARC
  8
0
  6
CONTINUOUS
 62
     7
 10
-24.464432
 20
-39.837242
 40
5.4000001
 50
306.00832
 51
53.991676
  0
ARC
  8
0
  6
CONTINUOUS
 62
     7
 10
-28.064432
 20
-34.88378
 40
11.523461
 50
233.99167
 51
265.52055
  0
ARC
  8
0
  6
CONTINUOUS
 62
     7
 10
-28.064432
 20
-34.88378
 40
9.7234612
 50
233.99167
 51
264.68912
  0
ARC
  8
0
  6
CONTINUOUS
 62
     7
 10
-28.064433
 20
-44.790704
 40
9.7234612
 50
53.991665
 51
126.00832
  0
ARC
  8
0
  6
CONTINUOUS
 62
     7
 10
-28.064433
 20
-44.790704
 40
11.523461
 50
53.991665
 51
85.520543
  0
ARC
  8
0
  6
CONTINUOUS
 62
     7
 10
-28.064433
 20
-48.162242
 40
1.125
 50
216.86989
 51
323.13009
  0
ARC
  8
0
  6
CONTINUOUS
 62
     7
 10
-28.064432
 20
-40.512242
 40
1.125
 50
36.869898
 51
143.1301
  0
ARC
  8
0
  6
CONTINUOUS
 62
     7
 10
-28.064431
 20
-31.512242
 40
1.125
 50
36.869898
 51
143.1301
  0
ARC
  8
0
  6
CONTINUOUS
 62
     7
 10
-28.064432
 20
-34.88378
 40
11.523461
 50
274.47945
 51
306.00832
  0
ARC
  8
0
  6
CONTINUOUS
 62
     7
 10
-28.064432
 20
-34.88378
 40
9.7234612
 50
275.31087
 51
306.00832
  0
ARC
  8
0
  6
CONTINUOUS
 62
     7
 10
-28.064433
 20
-44.790704
 40
11.523461
 50
94.479442
 51
126.00832
  0
ENDBLK
  8
0
  0
BLOCK
  8
0
  2
KOZU10
 70
    64
 10
0
 20
0
  0
POINT
  8
0
  6
CONTINUOUS
 62
     7
 10
0
 20
0
  0
LINE
  8
0
  6
CENTER
 62
     7
 10
-60.294632
 20
0
 11
10
 21
0
  0
LINE
  8
0
  6
CONTINUOUS
 62
     7
 10
-40.486588
 20
-63.499985
 11
-23.141418
 21
-63.499985
  0
LINE
  8
0
  6
CONTINUOUS
 62
     7
 10
-40.486557
 20
63.500031
 11
-23.141418
 21
63.500031
  0
LINE
  8
0
  6
CONTINUOUS
 62
     7
 10
-37.459366
 20
66.500031
 11
-7.7628312E-007
 21
66.500031
  0
LINE
  8
0
  6
CONTINUOUS
 62
     7
 10
-37.459366
 20
-66.499969
 11
-7.7628312E-007
 21
-66.499969
  0
LINE
  8
0
  6
CONTINUOUS
 62
     7
 10
0
 20
66.500031
 11
0
 21
-66.499969
  0
LINE
  8
0
  6
CONTINUOUS
 62
     7
 10
-15.999946
 20
66.500031
 11
-15.999946
 21
14
  0
LINE
  8
0
  6
CONTINUOUS
 62
     7
 10
-41.360683
 20
4
 11
-25.999945
 21
4
  0
LINE
  8
0
  6
CONTINUOUS
 62
     7
 10
-41.360683
 20
-4
 11
-25.999945
 21
-4
  0
LINE
  8
0
  6
CONTINUOUS
 62
     7
 10
-15.999946
 20
-14
 11
-15.999946
 21
-66.499969
  0
ARC
  8
0
  6
CONTINUOUS
 62
     7
 10
-23.141403
 20
73.5
 40
10
 50
269.99999
 51
315.57299
  0
ARC
  8
0
  6
CONTINUOUS
 62
     7
 10
-23.141449
 20
-73.5
 40
10
 50
44.42701
 51
90.000003
  0
ARC
  8
0
  6
CONTINUOUS
 62
     7
 10
-40.486588
 20
-52.499985
 40
11
 50
187.65742
 51
269.99996
  0
ARC
  8
0
  6
CONTINUOUS
 62
     7
 10
-37.459366
 20
-52.499969
 40
14
 50
187.71648
 51
269.99996
  0
ARC
  8
0
  6
CONTINUOUS
 62
     7
 10
-37.459366
 20
52.500031
 40
14
 50
90.000003
 51
172.28352
  0
ARC
  8
0
  6
CONTINUOUS
 62
     7
 10
349.99997
 20
0
 40
405
 50
172.28352
 51
187.71648
  0
ARC
  8
0
  6
CONTINUOUS
 62
     7
 10
-40.486557
 20
52.500031
 40
11
 50
90.000003
 51
172.34261
  0
ARC
  8
0
  6
CONTINUOUS
 62
     7
 10
-25.999945
 20
14
 40
10
 50
270
 51
360
  0
ARC
  8
0
  6
CONTINUOUS
 62
     7
 10
-41.360683
 20
14
 40
10
 50
179.99999
 51
270
  0
ARC
  8
0
  6
CONTINUOUS
 62
     7
 10
-25.999945
 20
-14
 40
10
 50
0
 51
90.000003
  0
ARC
  8
0
  6
CONTINUOUS
 62
     7
 10
-41.360683
 20
-14
 40
10
 50
90.000003
 51
180.00001
  0
TEXT
  8
0
  6
CONTINUOUS
 62
     7
 10
-45.768
 20
74.525
 40
3.2
 41
0.90047268
  1
４
  0
LINE
  8
0
  6
CONTINUOUS
 62
     7
 10
-32.435113
 20
-62.535808
 11
-32.435113
 21
-60.070609
  0
LINE
  8
0
  6
CONTINUOUS
 62
     7
 10
-30.635113
 20
-62.535809
 11
-30.635113
 21
-60.070609
  0
LINE
  8
0
  6
CONTINUOUS
 62
     7
 10
-30.635112
 20
-47.001009
 11
-30.635112
 21
-44.535809
  0
LINE
  8
0
  6
CONTINUOUS
 62
     7
 10
-32.435112
 20
-47.001008
 11
-32.435112
 21
-44.535808
  0
LINE
  8
0
  6
CONTINUOUS
 62
     7
 10
-30.635113
 20
-58.264067
 11
-30.635112
 21
-53.535809
  0
LINE
  8
0
  6
CONTINUOUS
 62
     7
 10
-32.435113
 20
-58.264067
 11
-32.435112
 21
-53.535808
  0
ARC
  8
0
  6
CONTINUOUS
 62
     7
 10
-35.135112
 20
-53.535808
 40
3.5999999
 50
126.00832
 51
233.99167
  0
ARC
  8
0
  6
CONTINUOUS
 62
     7
 10
-35.135112
 20
-53.535808
 40
5.4000001
 50
126.00832
 51
233.99167
  0
ARC
  8
0
  6
CONTINUOUS
 62
     7
 10
-27.935112
 20
-53.535809
 40
3.5999999
 50
306.00832
 51
53.991676
  0
ARC
  8
0
  6
CONTINUOUS
 62
     7
 10
-27.935112
 20
-53.535809
 40
5.4000001
 50
306.00832
 51
53.991676
  0
ARC
  8
0
  6
CONTINUOUS
 62
     7
 10
-31.535112
 20
-48.582347
 40
11.523461
 50
233.99167
 51
265.52055
  0
ARC
  8
0
  6
CONTINUOUS
 62
     7
 10
-31.535112
 20
-48.582347
 40
9.7234612
 50
233.99167
 51
264.68912
  0
ARC
  8
0
  6
CONTINUOUS
 62
     7
 10
-31.535113
 20
-58.48927
 40
9.7234612
 50
53.991665
 51
126.00832
  0
ARC
  8
0
  6
CONTINUOUS
 62
     7
 10
-31.535113
 20
-58.48927
 40
11.523461
 50
53.991665
 51
85.520543
  0
ARC
  8
0
  6
CONTINUOUS
 62
     7
 10
-31.535113
 20
-61.860808
 40
1.125
 50
216.86989
 51
323.13009
  0
ARC
  8
0
  6
CONTINUOUS
 62
     7
 10
-31.535112
 20
-54.210809
 40
1.125
 50
36.869898
 51
143.1301
  0
ARC
  8
0
  6
CONTINUOUS
 62
     7
 10
-31.535112
 20
-45.210809
 40
1.125
 50
36.869898
 51
143.1301
  0
ARC
  8
0
  6
CONTINUOUS
 62
     7
 10
-31.535112
 20
-48.582347
 40
11.523461
 50
274.47945
 51
306.00832
  0
ARC
  8
0
  6
CONTINUOUS
 62
     7
 10
-31.535112
 20
-48.582347
 40
9.7234612
 50
275.31087
 51
306.00832
  0
ARC
  8
0
  6
CONTINUOUS
 62
     7
 10
-31.535113
 20
-58.48927
 40
11.523461
 50
94.479442
 51
126.00832
  0
ENDBLK
  8
0
  0
BLOCK
  8
0
  2
KOZU11
 70
    64
 10
0
 20
0
  0
POINT
  8
0
  6
CONTINUOUS
 62
     7
 10
0
 20
0
  0
LINE
  8
0
  6
CENTER
 62
     7
 10
-69.171028
 20
0
 11
10
 21
0
  0
LINE
  8
0
  6
CONTINUOUS
 62
     7
 10
-42.848675
 20
80.500015
 11
-1.0260591E-005
 21
80.500015
  0
LINE
  8
0
  6
CONTINUOUS
 62
     7
 10
-42.848675
 20
-80.5
 11
-1.0260591E-005
 21
-80.5
  0
LINE
  8
0
  6
CONTINUOUS
 62
     7
 10
-44.219311
 20
77.000015
 11
-25.599344
 21
77.000015
  0
LINE
  8
0
  6
CONTINUOUS
 62
     7
 10
-44.21928
 20
-77
 11
-25.599344
 21
-77
  0
LINE
  8
0
  6
CONTINUOUS
 62
     7
 10
0
 20
80.500015
 11
0
 21
-80.5
  0
LINE
  8
0
  6
CONTINUOUS
 62
     7
 10
-18.000004
 20
14
 11
-18.000004
 21
80.500015
  0
LINE
  8
0
  6
CONTINUOUS
 62
     7
 10
-43.130764
 20
4
 11
-28.000004
 21
4
  0
LINE
  8
0
  6
CONTINUOUS
 62
     7
 10
-18.000004
 20
-14
 11
-18.000004
 21
-80.500015
  0
LINE
  8
0
  6
CONTINUOUS
 62
     7
 10
-43.130764
 20
-4
 11
-28.000004
 21
-4
  0
ARC
  8
0
  6
CONTINUOUS
 62
     7
 10
437
 20
0
 40
495
 50
171.64185
 51
188.35813
  0
ARC
  8
0
  6
CONTINUOUS
 62
     7
 10
-42.848675
 20
70.5
 40
10
 50
89.999982
 51
171.64182
  0
ARC
  8
0
  6
CONTINUOUS
 62
     7
 10
-25.599344
 20
86.999985
 40
10
 50
270
 51
319.45841
  0
ARC
  8
0
  6
CONTINUOUS
 62
     7
 10
-25.599344
 20
-87
 40
10
 50
40.541602
 51
90.000003
  0
ARC
  8
0
  6
CONTINUOUS
 62
     7
 10
-44.21928
 20
-68
 40
9
 50
188.04306
 51
270.00002
  0
ARC
  8
0
  6
CONTINUOUS
 62
     7
 10
-44.219311
 20
68
 40
9
 50
89.999982
 51
171.95694
  0
ARC
  8
0
  6
CONTINUOUS
 62
     7
 10
-42.848675
 20
-70.5
 40
10
 50
188.35815
 51
270.00002
  0
ARC
  8
0
  6
CONTINUOUS
 62
     7
 10
-43.130764
 20
14
 40
10
 50
179.99999
 51
270
  0
ARC
  8
0
  6
CONTINUOUS
 62
     7
 10
-28.000004
 20
14
 40
10
 50
270
 51
360
  0
ARC
  8
0
  6
CONTINUOUS
 62
     7
 10
-28.000004
 20
-14
 40
10
 50
0
 51
90.000003
  0
ARC
  8
0
  6
CONTINUOUS
 62
     7
 10
-43.130764
 20
-14
 40
10
 50
90.000003
 51
180.00001
  0
TEXT
  8
0
  6
CONTINUOUS
 62
     7
 10
-45.067999
 20
92.724997
 40
3.2
 41
0.90047268
  1
５
  0
LINE
  8
0
  6
CONTINUOUS
 62
     7
 10
-37.258702
 20
-75.013397
 11
-37.258701
 21
-71.726465
  0
LINE
  8
0
  6
CONTINUOUS
 62
     7
 10
-34.858702
 20
-75.013397
 11
-34.858701
 21
-71.726465
  0
LINE
  8
0
  6
CONTINUOUS
 62
     7
 10
-34.8587
 20
-54.300329
 11
-34.858699
 21
-51.013397
  0
LINE
  8
0
  6
CONTINUOUS
 62
     7
 10
-37.2587
 20
-54.300329
 11
-37.2587
 21
-51.013397
  0
LINE
  8
0
  6
CONTINUOUS
 62
     7
 10
-34.858701
 20
-69.317743
 11
-34.858701
 21
-63.013397
  0
LINE
  8
0
  6
CONTINUOUS
 62
     7
 10
-37.258701
 20
-69.317743
 11
-37.258701
 21
-63.013397
  0
ARC
  8
0
  6
CONTINUOUS
 62
     7
 10
-40.858701
 20
-63.013397
 40
4.8000002
 50
126.00832
 51
233.99167
  0
ARC
  8
0
  6
CONTINUOUS
 62
     7
 10
-40.858701
 20
-63.013397
 40
7.1999998
 50
126.00832
 51
233.99167
  0
ARC
  8
0
  6
CONTINUOUS
 62
     7
 10
-31.2587
 20
-63.013398
 40
4.8000002
 50
306.00832
 51
53.991676
  0
ARC
  8
0
  6
CONTINUOUS
 62
     7
 10
-31.2587
 20
-63.013398
 40
7.1999998
 50
306.00832
 51
53.991676
  0
ARC
  8
0
  6
CONTINUOUS
 62
     7
 10
-36.0587
 20
-56.408782
 40
15.364615
 50
233.99167
 51
265.52055
  0
ARC
  8
0
  6
CONTINUOUS
 62
     7
 10
-36.0587
 20
-56.408782
 40
12.964616
 50
233.99167
 51
264.68912
  0
ARC
  8
0
  6
CONTINUOUS
 62
     7
 10
-36.058701
 20
-69.618012
 40
15.364615
 50
53.991665
 51
85.520543
  0
ARC
  8
0
  6
CONTINUOUS
 62
     7
 10
-36.058702
 20
-74.113398
 40
1.5
 50
216.86989
 51
323.13009
  0
ARC
  8
0
  6
CONTINUOUS
 62
     7
 10
-36.058701
 20
-63.913397
 40
1.5
 50
36.869898
 51
143.1301
  0
ARC
  8
0
  6
CONTINUOUS
 62
     7
 10
-36.0587
 20
-51.913397
 40
1.5
 50
36.869898
 51
143.1301
  0
ARC
  8
0
  6
CONTINUOUS
 62
     7
 10
-36.058701
 20
-69.618012
 40
12.964616
 50
53.991665
 51
126.00832
  0
ARC
  8
0
  6
CONTINUOUS
 62
     7
 10
-36.058701
 20
-69.618012
 40
15.364615
 50
94.479442
 51
126.00832
  0
ARC
  8
0
  6
CONTINUOUS
 62
     7
 10
-36.0587
 20
-56.408782
 40
12.964616
 50
275.31087
 51
306.00832
  0
ARC
  8
0
  6
CONTINUOUS
 62
     7
 10
-36.0587
 20
-56.408782
 40
15.364615
 50
274.47945
 51
306.00832
  0
ENDBLK
  8
0
  0
BLOCK
  8
0
  2
KOZU12
 70
    64
 10
0
 20
0
  0
POINT
  8
0
  6
CONTINUOUS
 62
     7
 10
0
 20
0
  0
LINE
  8
0
  6
CENTER
 62
     7
 10
-70.622177
 20
0
 11
10.325
 21
0
  0
LINE
  8
0
  6
CONTINUOUS
 62
     7
 10
-47.479324
 20
91.000015
 11
-27.599352
 21
91.000015
  0
LINE
  8
0
  6
CONTINUOUS
 62
     7
 10
-46.976639
 20
-94.5
 11
-1.6471415E-005
 21
-94.5
  0
LINE
  8
0
  6
CONTINUOUS
 62
     7
 10
-47.479324
 20
-91
 11
-27.599352
 21
-91
  0
LINE
  8
0
  6
CONTINUOUS
 62
     7
 10
-46.976639
 20
94.500015
 11
-1.6471415E-005
 21
94.500015
  0
LINE
  8
0
  6
CONTINUOUS
 62
     7
 10
-20.00001
 20
94.500015
 11
-20.00001
 21
14
  0
LINE
  8
0
  6
CONTINUOUS
 62
     7
 10
0
 20
-94.5
 11
0
 21
94.500015
  0
LINE
  8
0
  6
CONTINUOUS
 62
     7
 10
-48.849445
 20
4
 11
-30.00001
 21
4
  0
LINE
  8
0
  6
CONTINUOUS
 62
     7
 10
-20.00001
 20
-94.500015
 11
-20.00001
 21
-14
  0
LINE
  8
0
  6
CONTINUOUS
 62
     7
 10
-48.849445
 20
-4
 11
-30.00001
 21
-4
  0
ARC
  8
0
  6
CONTINUOUS
 62
     7
 10
-47.479324
 20
79.000015
 40
12
 50
89.999982
 51
172.00517
  0
ARC
  8
0
  6
CONTINUOUS
 62
     7
 10
515
 20
0
 40
580
 50
171.64847
 51
188.35152
  0
ARC
  8
0
  6
CONTINUOUS
 62
     7
 10
-47.479324
 20
-79
 40
12
 50
187.99485
 51
270.00002
  0
ARC
  8
0
  6
CONTINUOUS
 62
     7
 10
-27.599352
 20
101.00002
 40
10
 50
270
 51
319.45841
  0
ARC
  8
0
  6
CONTINUOUS
 62
     7
 10
-27.599352
 20
-101
 40
10
 50
40.541602
 51
90.000003
  0
ARC
  8
0
  6
CONTINUOUS
 62
     7
 10
-46.976639
 20
-82.5
 40
12
 50
188.35154
 51
270.00002
  0
ARC
  8
0
  6
CONTINUOUS
 62
     7
 10
-46.976639
 20
82.500015
 40
12
 50
89.999982
 51
171.6485
  0
ARC
  8
0
  6
CONTINUOUS
 62
     7
 10
-30.00001
 20
14
 40
10
 50
270
 51
360
  0
ARC
  8
0
  6
CONTINUOUS
 62
     7
 10
-48.849445
 20
14
 40
10
 50
179.99999
 51
270
  0
ARC
  8
0
  6
CONTINUOUS
 62
     7
 10
-48.849445
 20
-14
 40
10
 50
90.000003
 51
180.00001
  0
ARC
  8
0
  6
CONTINUOUS
 62
     7
 10
-30.00001
 20
-14
 40
10
 50
0
 51
90.000003
  0
TEXT
  8
0
  6
CONTINUOUS
 62
     7
 10
-49.617998
 20
103.925
 40
3.2
 41
0.90047268
  1
６
  0
LINE
  8
0
  6
CONTINUOUS
 62
     7
 10
-40.148739
 20
-89.227753
 11
-40.148739
 21
-85.940821
  0
LINE
  8
0
  6
CONTINUOUS
 62
     7
 10
-37.748739
 20
-89.227753
 11
-37.748739
 21
-85.940821
  0
LINE
  8
0
  6
CONTINUOUS
 62
     7
 10
-37.748737
 20
-68.514685
 11
-37.748737
 21
-65.227753
  0
LINE
  8
0
  6
CONTINUOUS
 62
     7
 10
-40.148737
 20
-68.514685
 11
-40.148737
 21
-65.227753
  0
LINE
  8
0
  6
CONTINUOUS
 62
     7
 10
-37.748739
 20
-83.532098
 11
-37.748738
 21
-77.227753
  0
LINE
  8
0
  6
CONTINUOUS
 62
     7
 10
-40.148739
 20
-83.532098
 11
-40.148738
 21
-77.227753
  0
ARC
  8
0
  6
CONTINUOUS
 62
     7
 10
-43.748738
 20
-77.227752
 40
4.8000002
 50
126.00832
 51
233.99167
  0
ARC
  8
0
  6
CONTINUOUS
 62
     7
 10
-43.748738
 20
-77.227752
 40
7.1999998
 50
126.00832
 51
233.99167
  0
ARC
  8
0
  6
CONTINUOUS
 62
     7
 10
-34.148738
 20
-77.227753
 40
4.8000002
 50
306.00832
 51
53.991676
  0
ARC
  8
0
  6
CONTINUOUS
 62
     7
 10
-34.148738
 20
-77.227753
 40
7.1999998
 50
306.00832
 51
53.991676
  0
ARC
  8
0
  6
CONTINUOUS
 62
     7
 10
-38.948738
 20
-70.623137
 40
15.364615
 50
233.99167
 51
265.52055
  0
ARC
  8
0
  6
CONTINUOUS
 62
     7
 10
-38.948738
 20
-70.623137
 40
12.964616
 50
233.99167
 51
264.68912
  0
ARC
  8
0
  6
CONTINUOUS
 62
     7
 10
-38.948739
 20
-83.832368
 40
15.364615
 50
53.991665
 51
85.520543
  0
ARC
  8
0
  6
CONTINUOUS
 62
     7
 10
-38.948739
 20
-88.327753
 40
1.5
 50
216.86989
 51
323.13009
  0
ARC
  8
0
  6
CONTINUOUS
 62
     7
 10
-38.948738
 20
-78.127753
 40
1.5
 50
36.869898
 51
143.1301
  0
ARC
  8
0
  6
CONTINUOUS
 62
     7
 10
-38.948737
 20
-66.127752
 40
1.5
 50
36.869898
 51
143.1301
  0
ARC
  8
0
  6
CONTINUOUS
 62
     7
 10
-38.948739
 20
-83.832368
 40
12.964616
 50
53.991665
 51
126.00832
  0
ARC
  8
0
  6
CONTINUOUS
 62
     7
 10
-38.948739
 20
-83.832368
 40
15.364615
 50
94.479442
 51
126.00832
  0
ARC
  8
0
  6
CONTINUOUS
 62
     7
 10
-38.948738
 20
-70.623137
 40
12.964616
 50
275.31087
 51
306.00832
  0
ARC
  8
0
  6
CONTINUOUS
 62
     7
 10
-38.948738
 20
-70.623137
 40
15.364615
 50
274.47945
 51
306.00832
  0
ENDBLK
  8
0
  0
ENDSEC
  0
SECTION
  2
ENTITIES
  0
POINT
  8
0
  6
CONTINUOUS
 62
     7
 10
0
 20
0
  0
POINT
  8
0
  6
CONTINUOUS
 62
     7
 10
-297
 20
-210
  0
POINT
  8
0
  6
CONTINUOUS
 62
     7
 10
297
 20
-210
  0
POINT
  8
0
  6
CONTINUOUS
 62
     7
 10
-297
 20
210
  0
POINT
  8
0
  6
CONTINUOUS
 62
     7
 10
297
 20
210
  0
LINE
  8
0
  6
CONTINUOUS
 62
     7
 10
287
 20
200
 11
287
 21
-200
  0
LINE
  8
0
  6
CONTINUOUS
 62
     7
 10
-287
 20
200
 11
287
 21
200
  0
LINE
  8
0
  6
CONTINUOUS
 62
     7
 10
-287
 20
200
 11
-287
 21
-200
  0
LINE
  8
0
  6
CONTINUOUS
 62
     7
 10
-287
 20
-200
 11
287
 21
-200
  0
TEXT
  8
0
  6
CONTINUOUS
 62
     7
 10
-22.8575
 20
186
 40
8
 41
0.85127006
  1
キャップ
  0
INSERT
  8
0
  6
CONTINUOUS
 62
     7
  2
KOZU1
 10
-160
 20
120
  0
INSERT
  8
0
  6
CONTINUOUS
 62
     7
  2
KOZU2
 10
-220
 20
120
  0
INSERT
  8
0
  6
CONTINUOUS
 62
     7
  2
KOZU3
 10
-90
 20
120
  0
INSERT
  8
0
  6
CONTINUOUS
 62
     7
  2
KOZU4
 10
-20
 20
120
  0
INSERT
  8
0
  6
CONTINUOUS
 62
     7
  2
KOZU5
 10
60
 20
120
  0
INSERT
  8
0
  6
CONTINUOUS
 62
     7
  2
KOZU6
 10
150
 20
120
  0
INSERT
  8
0
  6
CONTINUOUS
 62
     7
  2
KOZU7
 10
240
 20
120
  0
INSERT
  8
0
  6
CONTINUOUS
 62
     7
  2
KOZU9
 10
-120
 20
-70
  0
INSERT
  8
0
  6
CONTINUOUS
 62
     7
  2
KOZU10
 10
-10
 20
-70
  0
INSERT
  8
0
  6
CONTINUOUS
 62
     7
  2
KOZU11
 10
100
 20
-70
  0
INSERT
  8
0
  6
CONTINUOUS
 62
     7
  2
KOZU12
 10
210
 20
-70
  0
INSERT
  8
0
  6
CONTINUOUS
 62
     7
  2
KOZU8
 10
-210
 20
-70
  0
ENDSEC
  0
EOF
