  0
SECTION
  2
HEADER
  9
$EXTMAX
 10
297.25922
 20
211.66544
  9
$EXTMIN
 10
-297.25922
 20
-210.82214
  0
ENDSEC
  0
SECTION
  2
TABLES
  0
TABLE
  2
LTYPE
 70
    22
  0
LTYPE
  2
CONTINUOUS
 70
    64
  3
Solid line
 72
    65
 73
     0
 40
0.000000
  0
LTYPE
  2
DASHED
 70
    64
  3
__ __ __ __ __ __ __ __ __ __ __ __ __ __ __
 72
    65
 73
     2
 40
3.500000
 49
2.000000
 49
-1.500000
  0
LTYPE
  2
CENTER
 70
    64
  3
____ _ ____ _ ____ _ ____ _ ____ _ ____ _ ____
 72
    65
 73
     4
 40
17.500000
 49
13.000000
 49
-1.500000
 49
1.500000
 49
-1.500000
  0
LTYPE
  2
PHANTOM
 70
    64
  3
_____ _ _ _____ _ _ _____ _ _ _____ _ _ ____  
 72
    65
 73
     6
 40
15.500000
 49
8.000000
 49
-1.500000
 49
1.500000
 49
-1.500000
 49
1.500000
 49
-1.500000
  0
LTYPE
  2
DOT
 70
    64
  3
. . . . . . . . . . . . . . . . . . . . . . . .
 72
    65
 73
     2
 40
0.25
 49
0.0
 49
-0.25
  0
ENDTAB
  0
TABLE
  2
LAYER
 70
     1
  0
LAYER
  2
0
 70
     0
 62
     7
  6
CONTINUOUS
  0
ENDTAB
  0
TABLE
  2
STYLE
 70
     1
  0
STYLE
  2
STANDARD
 70
     0
 40
0.000000
 41
1.000000
 50
0.000000
 71
     0
 42
0.200000
  3
txt
  4
BIGFONT
  0
ENDTAB
  0
TABLE
  2
VIEW
 70
     0
  0
ENDTAB
  0
ENDSEC
  0
SECTION
  2
BLOCKS
  0
BLOCK
  8
0
  2
KOZU1
 70
    64
 10
0
 20
0
  0
POINT
  8
0
  6
CONTINUOUS
 62
     7
 10
-4.2408104
 20
9.8149548
  0
POINT
  8
0
  6
CONTINUOUS
 62
     7
 10
-4.2408104
 20
4.9074774
  0
POINT
  8
0
  6
CONTINUOUS
 62
     7
 10
-4.2408104
 20
-4.9074774
  0
POINT
  8
0
  6
CONTINUOUS
 62
     7
 10
-5
 20
0
  0
POINT
  8
0
  6
CONTINUOUS
 62
     7
 10
-4.2408104
 20
-9.8149548
  0
POINT
  8
0
  6
CONTINUOUS
 62
     7
 10
-5
 20
-7.3612161
  0
POINT
  8
0
  6
CONTINUOUS
 62
     7
 10
-10.99
 20
6.5784998
  0
POINT
  8
0
  6
CONTINUOUS
 62
     7
 10
-10.99
 20
5.7224998
  0
POINT
  8
0
  6
CONTINUOUS
 62
     7
 10
0
 20
4.9074774
  0
POINT
  8
0
  6
CONTINUOUS
 62
     7
 10
0
 20
-4.9074774
  0
POINT
  8
0
  6
CONTINUOUS
 62
     7
 10
-5
 20
7.5
  0
POINT
  8
0
  6
CONTINUOUS
 62
     7
 10
-17
 20
7.0999999
  0
POINT
  8
0
  6
CONTINUOUS
 62
     7
 10
-6.240303
 20
0
  0
POINT
  8
0
  6
CONTINUOUS
 62
     7
 10
-5
 20
7.5
  0
POINT
  8
0
  6
CONTINUOUS
 62
     7
 10
-15
 20
7.1666665
  0
POINT
  8
0
  6
CONTINUOUS
 62
     7
 10
-17
 20
5.1666665
  0
POINT
  8
0
  6
CONTINUOUS
 62
     7
 10
-15.736495
 20
0
  0
POINT
  8
0
  6
CONTINUOUS
 62
     7
 10
-16.620108
 20
0
  0
POINT
  8
0
  6
CONTINUOUS
 62
     7
 10
-6.641613
 20
5.858387
  0
POINT
  8
0
  6
CONTINUOUS
 62
     7
 10
0
 20
0
  0
LINE
  8
0
  6
CENTER
 62
     7
 10
-18.431498
 20
0
 11
2.033644
 21
0
  0
LINE
  8
0
  6
CONTINUOUS
 62
     7
 10
0
 20
9.8149548
 11
0
 21
-9.8149548
  0
LINE
  8
0
  6
CONTINUOUS
 62
     7
 10
-5
 20
8.5
 11
-5
 21
-8.5
  0
LINE
  8
0
  6
CONTINUOUS
 62
     7
 10
-4.2408104
 20
9.8149548
 11
0
 21
9.8149548
  0
LINE
  8
0
  6
CONTINUOUS
 62
     7
 10
-4.2408104
 20
-9.8149548
 11
0
 21
-9.8149548
  0
LINE
  8
0
  6
CONTINUOUS
 62
     7
 10
-4.9999995
 20
8.5
 11
-4.2408104
 21
9.8149548
  0
LINE
  8
0
  6
CONTINUOUS
 62
     7
 10
-4.2408104
 20
-9.8149548
 11
-4.9999995
 21
-8.5
  0
LINE
  8
0
  6
CONTINUOUS
 62
     7
 10
-17
 20
5.1666665
 11
-17
 21
0
  0
LINE
  8
0
  6
CONTINUOUS
 62
     7
 10
-15.736494
 20
6.430172
 11
-5.7579999
 21
6.7420001
  0
LINE
  8
0
  6
CONTINUOUS
 62
     7
 10
-16.620108
 20
5.5465593
 11
-6.641613
 21
5.858387
  0
LINE
  8
0
  6
CONTINUOUS
 62
     7
 10
-4.2408104
 20
4.9074774
 11
0
 21
4.9074774
  0
LINE
  8
0
  6
CONTINUOUS
 62
     7
 10
-4.2408104
 20
-4.9074774
 11
0
 21
-4.9074774
  0
LINE
  8
0
  6
CONTINUOUS
 62
     7
 10
-15.736494
 20
6.430172
 11
-17
 21
5.166666
  0
LINE
  8
0
  6
CONTINUOUS
 62
     7
 10
-15.736495
 20
6.430172
 11
-15.736495
 21
0
  0
LINE
  8
0
  6
CONTINUOUS
 62
     7
 10
-16.620108
 20
5.5465593
 11
-16.620108
 21
0
  0
LINE
  8
0
  6
CONTINUOUS
 62
     7
 10
-5
 20
7.5
 11
-6.641613
 21
5.858387
  0
LINE
  8
0
  6
CONTINUOUS
 62
     7
 10
-6.641613
 20
6.7143869
 11
-6.641613
 21
0
  0
LINE
  8
0
  6
CONTINUOUS
 62
     7
 10
-5
 20
-7.5
 11
-6.641613
 21
-5.858387
  0
LINE
  8
0
  6
CONTINUOUS
 62
     7
 10
-15.736494
 20
-6.430172
 11
-17
 21
-5.166666
  0
LINE
  8
0
  6
CONTINUOUS
 62
     7
 10
-16.620108
 20
-5.5465593
 11
-6.641613
 21
-5.858387
  0
LINE
  8
0
  6
CONTINUOUS
 62
     7
 10
-15.736494
 20
-6.430172
 11
-5.7579999
 21
-6.7420001
  0
LINE
  8
0
  6
CONTINUOUS
 62
     7
 10
-17
 20
-5.1666665
 11
-17
 21
0
  0
LINE
  8
0
  6
CONTINUOUS
 62
     7
 10
-15.736495
 20
-6.430172
 11
-15.736495
 21
0
  0
LINE
  8
0
  6
CONTINUOUS
 62
     7
 10
-16.620108
 20
-5.5465593
 11
-16.620108
 21
0
  0
LINE
  8
0
  6
CONTINUOUS
 62
     7
 10
-6.641613
 20
-6.7143869
 11
-6.641613
 21
0
  0
ARC
  8
0
  6
CONTINUOUS
 62
     7
 10
11.24081
 20
5.3290705E-015
 40
16.24081
 50
162.41205
 51
197.58795
  0
ARC
  8
0
  6
CONTINUOUS
 62
     7
 10
-0.6551013
 20
7.3612161
 40
4.3448987
 50
145.61575
 51
214.38424
  0
ARC
  8
0
  6
CONTINUOUS
 62
     7
 10
-0.6551013
 20
-7.3612161
 40
4.3448987
 50
145.61575
 51
214.38424
  0
TEXT
  8
0
  6
CONTINUOUS
 62
     7
 10
-19.390175
 20
12.886162
 40
3.2
 41
0.84634979
  1
１／４×１／８
  0
ENDBLK
  8
0
  0
BLOCK
  8
0
  2
KOZU2
 70
    64
 10
0
 20
0
  0
POINT
  8
0
  6
CONTINUOUS
 62
     7
 10
0
 20
0
  0
POINT
  8
0
  6
CONTINUOUS
 62
     7
 10
-5
 20
12.299356
  0
POINT
  8
0
  6
CONTINUOUS
 62
     7
 10
-11.65
 20
8.3310003
  0
POINT
  8
0
  6
CONTINUOUS
 62
     7
 10
-5
 20
7.7099671
  0
POINT
  8
0
  6
CONTINUOUS
 62
     7
 10
-7.75
 20
7.596457
  0
POINT
  8
0
  6
CONTINUOUS
 62
     7
 10
-5
 20
10.346457
  0
LINE
  8
0
  6
CONTINUOUS
 62
     7
 10
0
 20
12.299356
 11
0
 21
-11.949356
  0
LINE
  8
0
  6
CONTINUOUS
 62
     7
 10
0
 20
12.299356
 11
0
 21
-11.949356
  0
LINE
  8
0
  6
CENTER
 62
     7
 10
-19.326754
 20
0
 11
2.2950957
 21
0
  0
LINE
  8
0
  6
CONTINUOUS
 62
     7
 10
-4.0621777
 20
12.299356
 11
0
 21
12.299356
  0
LINE
  8
0
  6
CONTINUOUS
 62
     7
 10
-4.0621777
 20
-11.949356
 11
0
 21
-11.949356
  0
LINE
  8
0
  6
CONTINUOUS
 62
     7
 10
-4.0621777
 20
6.2371778
 11
0
 21
6.2371778
  0
LINE
  8
0
  6
CONTINUOUS
 62
     7
 10
-4.0621777
 20
-5.8871779
 11
0
 21
-5.8871779
  0
LINE
  8
0
  6
CONTINUOUS
 62
     7
 10
-5
 20
10.675
 11
-5
 21
-10.325
  0
LINE
  8
0
  6
CONTINUOUS
 62
     7
 10
-18
 20
-6.4000001
 11
-18
 21
0
  0
LINE
  8
0
  6
CONTINUOUS
 62
     7
 10
-16.211548
 20
-8.1884518
 11
-6.054666
 21
-8.5058537
  0
LINE
  8
0
  6
CONTINUOUS
 62
     7
 10
-18
 20
-6.3999996
 11
-16.211548
 21
-8.1884508
  0
LINE
  8
0
  6
CONTINUOUS
 62
     7
 10
-17.095592
 20
-7.3044076
 11
-7.1102686
 21
-7.6164484
  0
LINE
  8
0
  6
CONTINUOUS
 62
     7
 10
-17.095592
 20
-7.3044076
 11
-17.095592
 21
0
  0
LINE
  8
0
  6
CONTINUOUS
 62
     7
 10
-16.211548
 20
-8.1884518
 11
-16.211548
 21
0
  0
LINE
  8
0
  6
CONTINUOUS
 62
     7
 10
-5.0000005
 20
10.675
 11
-4.0621781
 21
12.299356
  0
LINE
  8
0
  6
CONTINUOUS
 62
     7
 10
-5
 20
-10.325
 11
-4.0621777
 21
-11.949356
  0
LINE
  8
0
  6
CONTINUOUS
 62
     7
 10
-4.9732633
 20
7.6832304
 11
-5
 21
7.7099671
  0
LINE
  8
0
  6
CONTINUOUS
 62
     7
 10
-7.1102691
 20
-7.6164489
 11
-5
 21
-9.425251
  0
LINE
  8
0
  6
CONTINUOUS
 62
     7
 10
-18
 20
6.3999996
 11
-16.211548
 21
8.1884508
  0
LINE
  8
0
  6
CONTINUOUS
 62
     7
 10
-18
 20
6.4000001
 11
-18
 21
0
  0
LINE
  8
0
  6
CONTINUOUS
 62
     7
 10
-16.211548
 20
8.1884518
 11
-6.054666
 21
8.5058537
  0
LINE
  8
0
  6
CONTINUOUS
 62
     7
 10
-16.211548
 20
8.1884518
 11
-16.211548
 21
0
  0
LINE
  8
0
  6
CONTINUOUS
 62
     7
 10
-17.095592
 20
7.3044076
 11
-17.095592
 21
0
  0
LINE
  8
0
  6
CONTINUOUS
 62
     7
 10
-17.095592
 20
7.3044076
 11
-7.1102686
 21
7.6164484
  0
LINE
  8
0
  6
CONTINUOUS
 62
     7
 10
-7.1102691
 20
7.6164489
 11
-5
 21
9.425251
  0
LINE
  8
0
  6
CONTINUOUS
 62
     7
 10
-7.1102691
 20
8.472867
 11
-7.1102691
 21
-8.472867
  0
LINE
  8
0
  6
CONTINUOUS
 62
     7
 10
-18
 20
6.3999996
 11
-16.211548
 21
8.1884508
  0
ARC
  8
0
  6
CONTINUOUS
 62
     7
 10
0.36722776
 20
9.2682667
 40
5.3672276
 50
145.61575
 51
214.38424
  0
ARC
  8
0
  6
CONTINUOUS
 62
     7
 10
15.04585
 20
0.175
 40
20.046614
 50
162.39794
 51
197.60206
  0
ARC
  8
0
  6
CONTINUOUS
 62
     7
 10
0.36722776
 20
-8.9182663
 40
5.3672276
 50
145.61575
 51
214.38424
  0
TEXT
  8
0
  6
CONTINUOUS
 62
     7
 10
-18.55843
 20
13.933133
 40
3.2
 41
0.84634979
  1
３／８×１／４
  0
ENDBLK
  8
0
  0
BLOCK
  8
0
  2
KOZU3
 70
    64
 10
0
 20
0
  0
POINT
  8
0
  6
CONTINUOUS
 62
     7
 10
0
 20
0
  0
POINT
  8
0
  6
CONTINUOUS
 62
     7
 10
-6.9105587
 20
0
  0
POINT
  8
0
  6
CONTINUOUS
 62
     7
 10
-20.422005
 20
0
  0
LINE
  8
0
  6
CENTER
 62
     7
 10
-24.326754
 20
0
 11
2.9096093
 21
0
  0
LINE
  8
0
  6
CONTINUOUS
 62
     7
 10
-5
 20
12.825
 11
-5
 21
-12.825
  0
LINE
  8
0
  6
CONTINUOUS
 62
     7
 10
-3.8388867
 20
14.836107
 11
0
 21
14.836107
  0
LINE
  8
0
  6
CONTINUOUS
 62
     7
 10
-3.8388867
 20
7.3305535
 11
0
 21
7.3305535
  0
LINE
  8
0
  6
CONTINUOUS
 62
     7
 10
0
 20
14.836107
 11
0
 21
-14.836107
  0
LINE
  8
0
  6
CONTINUOUS
 62
     7
 10
-5
 20
12.825001
 11
-3.838887
 21
14.836107
  0
LINE
  8
0
  6
CONTINUOUS
 62
     7
 10
-3.8388867
 20
-7.6805534
 11
0
 21
-7.6805534
  0
LINE
  8
0
  6
CONTINUOUS
 62
     7
 10
-21
 20
8.5
 11
-21
 21
0
  0
LINE
  8
0
  6
CONTINUOUS
 62
     7
 10
-19.221935
 20
10.278065
 11
-5.7104897
 21
10.700297
  0
LINE
  8
0
  6
CONTINUOUS
 62
     7
 10
-20.422005
 20
9.0779953
 11
-6.9105587
 21
9.5002279
  0
LINE
  8
0
  6
CONTINUOUS
 62
     7
 10
-21
 20
8.5
 11
-19.221935
 21
10.278065
  0
LINE
  8
0
  6
CONTINUOUS
 62
     7
 10
-6.9105587
 20
9.5002279
 11
-5
 21
11.410787
  0
LINE
  8
0
  6
CONTINUOUS
 62
     7
 10
-6.9105587
 20
10.662795
 11
-6.9105587
 21
0
  0
LINE
  8
0
  6
CONTINUOUS
 62
     7
 10
-20.422005
 20
9.0779953
 11
-20.422005
 21
0
  0
LINE
  8
0
  6
CONTINUOUS
 62
     7
 10
-5
 20
-12.825
 11
-5
 21
12.825
  0
LINE
  8
0
  6
CONTINUOUS
 62
     7
 10
-6.9105587
 20
-10.662795
 11
-6.9105587
 21
0
  0
LINE
  8
0
  6
CONTINUOUS
 62
     7
 10
-3.8388867
 20
-14.836107
 11
0
 21
-14.836107
  0
LINE
  8
0
  6
CONTINUOUS
 62
     7
 10
-21
 20
-8.5
 11
-21
 21
0
  0
LINE
  8
0
  6
CONTINUOUS
 62
     7
 10
-5
 20
-12.825001
 11
-3.838887
 21
-14.836107
  0
LINE
  8
0
  6
CONTINUOUS
 62
     7
 10
-20.422005
 20
-9.0779953
 11
-6.9105587
 21
-9.5002279
  0
LINE
  8
0
  6
CONTINUOUS
 62
     7
 10
-20.422005
 20
-9.0779953
 11
-20.422005
 21
0
  0
LINE
  8
0
  6
CONTINUOUS
 62
     7
 10
-19.221935
 20
-10.278065
 11
-5.7104897
 21
-10.700297
  0
LINE
  8
0
  6
CONTINUOUS
 62
     7
 10
-6.9105587
 20
-9.5002279
 11
-5
 21
-11.410787
  0
LINE
  8
0
  6
CONTINUOUS
 62
     7
 10
-21
 20
-8.5
 11
-19.221935
 21
-10.278065
  0
LINE
  8
0
  6
CONTINUOUS
 62
     7
 10
-19.221935
 20
10.278065
 11
-19.221935
 21
-10.278065
  0
ARC
  8
0
  6
CONTINUOUS
 62
     7
 10
1.6451391
 20
11.08333
 40
6.6451392
 50
145.61575
 51
214.38424
  0
ARC
  8
0
  6
CONTINUOUS
 62
     7
 10
19.825699
 20
-0.175
 40
24.826315
 50
162.40286
 51
197.59715
  0
ARC
  8
0
  6
CONTINUOUS
 62
     7
 10
1.6451391
 20
-11.08333
 40
6.6451392
 50
145.61575
 51
214.38424
  0
TEXT
  8
0
  6
CONTINUOUS
 62
     7
 10
-21.802569
 20
17.304186
 40
3.2
 41
0.84634979
  1
１／２×１／４
  0
ENDBLK
  8
0
  0
BLOCK
  8
0
  2
KOZU4
 70
    64
 10
0
 20
0
  0
POINT
  8
0
  6
CONTINUOUS
 62
     7
 10
0
 20
0
  0
POINT
  8
0
  6
CONTINUOUS
 62
     7
 10
0
 20
10
  0
POINT
  8
0
  6
CONTINUOUS
 62
     7
 10
-6.9105587
 20
10
  0
POINT
  8
0
  6
CONTINUOUS
 62
     7
 10
-20.422005
 20
10
  0
LINE
  8
0
  6
CENTER
 62
     7
 10
-24.326754
 20
10
 11
2.9096093
 21
10
  0
LINE
  8
0
  6
CONTINUOUS
 62
     7
 10
-5
 20
22.825001
 11
-5
 21
-2.825
  0
LINE
  8
0
  6
CONTINUOUS
 62
     7
 10
-3.8388867
 20
24.836107
 11
0
 21
24.836107
  0
LINE
  8
0
  6
CONTINUOUS
 62
     7
 10
-3.8388867
 20
17.330553
 11
0
 21
17.330553
  0
LINE
  8
0
  6
CONTINUOUS
 62
     7
 10
0
 20
24.836107
 11
0
 21
-4.8361068
  0
LINE
  8
0
  6
CONTINUOUS
 62
     7
 10
-4.9999995
 20
22.825001
 11
-3.8388867
 21
24.836107
  0
LINE
  8
0
  6
CONTINUOUS
 62
     7
 10
-3.8388867
 20
2.3194466
 11
0
 21
2.3194466
  0
LINE
  8
0
  6
CONTINUOUS
 62
     7
 10
-21
 20
18.5
 11
-21
 21
10
  0
LINE
  8
0
  6
CONTINUOUS
 62
     7
 10
-19.221935
 20
20.278065
 11
-5.7104897
 21
20.700296
  0
LINE
  8
0
  6
CONTINUOUS
 62
     7
 10
-20.422005
 20
19.077995
 11
-6.9105587
 21
19.500227
  0
LINE
  8
0
  6
CONTINUOUS
 62
     7
 10
-21
 20
18.5
 11
-19.221935
 21
20.278065
  0
LINE
  8
0
  6
CONTINUOUS
 62
     7
 10
-6.9105577
 20
19.500227
 11
-4.9999995
 21
21.410786
  0
LINE
  8
0
  6
CONTINUOUS
 62
     7
 10
-6.9105587
 20
20.662794
 11
-6.9105587
 21
10
  0
LINE
  8
0
  6
CONTINUOUS
 62
     7
 10
-20.422005
 20
19.077995
 11
-20.422005
 21
10
  0
LINE
  8
0
  6
CONTINUOUS
 62
     7
 10
-5
 20
-2.825
 11
-5
 21
22.825001
  0
LINE
  8
0
  6
CONTINUOUS
 62
     7
 10
-6.9105587
 20
-0.66279501
 11
-6.9105587
 21
10
  0
LINE
  8
0
  6
CONTINUOUS
 62
     7
 10
-3.8388867
 20
-4.8361068
 11
0
 21
-4.8361068
  0
LINE
  8
0
  6
CONTINUOUS
 62
     7
 10
-21
 20
1.5
 11
-21
 21
10
  0
LINE
  8
0
  6
CONTINUOUS
 62
     7
 10
-5
 20
-2.825
 11
-3.838887
 21
-4.8361073
  0
LINE
  8
0
  6
CONTINUOUS
 62
     7
 10
-20.422005
 20
0.92200482
 11
-6.9105587
 21
0.49977225
  0
LINE
  8
0
  6
CONTINUOUS
 62
     7
 10
-20.422005
 20
0.92200482
 11
-20.422005
 21
10
  0
LINE
  8
0
  6
CONTINUOUS
 62
     7
 10
-19.221935
 20
-0.27806464
 11
-5.7104897
 21
-0.70029712
  0
LINE
  8
0
  6
CONTINUOUS
 62
     7
 10
-6.9105587
 20
0.49977228
 11
-5
 21
-1.4107865
  0
LINE
  8
0
  6
CONTINUOUS
 62
     7
 10
-21
 20
1.5000002
 11
-19.221935
 21
-0.27806401
  0
LINE
  8
0
  6
CONTINUOUS
 62
     7
 10
-19.221935
 20
20.278065
 11
-19.221935
 21
-0.27806458
  0
ARC
  8
0
  6
CONTINUOUS
 62
     7
 10
1.6451391
 20
21.08333
 40
6.6451392
 50
145.61575
 51
214.38424
  0
ARC
  8
0
  6
CONTINUOUS
 62
     7
 10
19.825699
 20
9.8249998
 40
24.826315
 50
162.40286
 51
197.59715
  0
ARC
  8
0
  6
CONTINUOUS
 62
     7
 10
1.6451391
 20
-1.0833303
 40
6.6451392
 50
145.61575
 51
214.38424
  0
TEXT
  8
0
  6
CONTINUOUS
 62
     7
 10
-21.802569
 20
27.304186
 40
3.2
 41
0.84634979
  1
１／２×３／８
  0
ENDBLK
  8
0
  0
BLOCK
  8
0
  2
KOZU5
 70
    64
 10
0
 20
0
  0
POINT
  8
0
  6
CONTINUOUS
 62
     7
 10
0
 20
0
  0
POINT
  8
0
  6
CONTINUOUS
 62
     7
 10
0
 20
0
  0
LINE
  8
0
  6
CENTER
 62
     7
 10
-26.269258
 20
0
 11
2.6998007
 21
0
  0
LINE
  8
0
  6
CONTINUOUS
 62
     7
 10
-6.5709376
 20
18.475208
 11
0
 21
18.475208
  0
LINE
  8
0
  6
CONTINUOUS
 62
     7
 10
-6.5709376
 20
9.2376041
 11
0
 21
9.2376041
  0
LINE
  8
0
  6
CONTINUOUS
 62
     7
 10
0
 20
18.475208
 11
0
 21
0
  0
LINE
  8
0
  6
CONTINUOUS
 62
     7
 10
-24
 20
10.7
 11
-24
 21
0
  0
LINE
  8
0
  6
CONTINUOUS
 62
     7
 10
-8
 20
16
 11
-8
 21
0
  0
LINE
  8
0
  6
CONTINUOUS
 62
     7
 10
-8
 20
16
 11
-6.5709381
 21
18.475208
  0
LINE
  8
0
  6
CONTINUOUS
 62
     7
 10
-24
 20
10.700001
 11
-21.705614
 21
12.994388
  0
LINE
  8
0
  6
CONTINUOUS
 62
     7
 10
-21.705614
 20
12.994388
 11
-8.8314362
 21
13.396706
  0
LINE
  8
0
  6
CONTINUOUS
 62
     7
 10
-22.905098
 20
11.794904
 11
-9.9326744
 21
12.200292
  0
LINE
  8
0
  6
CONTINUOUS
 62
     7
 10
-22.905096
 20
11.794904
 11
-22.905096
 21
0
  0
LINE
  8
0
  6
CONTINUOUS
 62
     7
 10
-21.705612
 20
12.994388
 11
-21.705612
 21
0
  0
LINE
  8
0
  6
CONTINUOUS
 62
     7
 10
-8
 20
14.3
 11
-9.9326735
 21
12.200292
  0
LINE
  8
0
  6
CONTINUOUS
 62
     7
 10
-9.9326735
 20
13.362291
 11
-9.9326735
 21
0
  0
LINE
  8
0
  6
CONTINUOUS
 62
     7
 10
-22.905098
 20
-11.794904
 11
-9.9326744
 21
-12.200292
  0
LINE
  8
0
  6
CONTINUOUS
 62
     7
 10
-24
 20
-10.700001
 11
-21.705614
 21
-12.994388
  0
LINE
  8
0
  6
CONTINUOUS
 62
     7
 10
-9.9326735
 20
-13.362291
 11
-9.9326735
 21
0
  0
LINE
  8
0
  6
CONTINUOUS
 62
     7
 10
-21.705614
 20
-12.994388
 11
-8.8314362
 21
-13.396706
  0
LINE
  8
0
  6
CONTINUOUS
 62
     7
 10
-8
 20
-14.3
 11
-9.9326735
 21
-12.200292
  0
LINE
  8
0
  6
CONTINUOUS
 62
     7
 10
-8
 20
-16
 11
-6.5709381
 21
-18.475208
  0
LINE
  8
0
  6
CONTINUOUS
 62
     7
 10
-22.905096
 20
-11.794904
 11
-22.905096
 21
0
  0
LINE
  8
0
  6
CONTINUOUS
 62
     7
 10
0
 20
-18.475208
 11
0
 21
0
  0
LINE
  8
0
  6
CONTINUOUS
 62
     7
 10
-6.5709376
 20
-9.2376041
 11
0
 21
-9.2376041
  0
LINE
  8
0
  6
CONTINUOUS
 62
     7
 10
-24
 20
-10.7
 11
-24
 21
0
  0
LINE
  8
0
  6
CONTINUOUS
 62
     7
 10
-8
 20
-16
 11
-8
 21
0
  0
LINE
  8
0
  6
CONTINUOUS
 62
     7
 10
-21.705612
 20
-12.994388
 11
-21.705612
 21
0
  0
LINE
  8
0
  6
CONTINUOUS
 62
     7
 10
-6.5709376
 20
-18.475208
 11
0
 21
-18.475208
  0
LINE
  8
0
  6
CENTER
 62
     7
 10
-26.269258
 20
0
 11
2.6998007
 21
0
  0
ARC
  8
0
  6
CONTINUOUS
 62
     7
 10
0.1786328
 20
13.856406
 40
8.1786327
 50
145.61575
 51
214.38424
  0
ARC
  8
0
  6
CONTINUOUS
 62
     7
 10
22.570938
 20
1.0658141E-014
 40
30.570938
 50
162.41205
 51
180.00001
  0
ARC
  8
0
  6
CONTINUOUS
 62
     7
 10
22.570938
 20
-1.0658141E-014
 40
30.570938
 50
179.99999
 51
197.58795
  0
ARC
  8
0
  6
CONTINUOUS
 62
     7
 10
0.1786328
 20
-13.856406
 40
8.1786327
 50
145.61575
 51
214.38424
  0
TEXT
  8
0
  6
CONTINUOUS
 62
     7
 10
-22.419594
 20
19.636404
 40
3.2
 41
0.84634979
  1
３／４×１／４
  0
ENDBLK
  8
0
  0
BLOCK
  8
0
  2
KOZU6
 70
    64
 10
0
 20
0
  0
POINT
  8
0
  6
CONTINUOUS
 62
     7
 10
0
 20
0
  0
POINT
  8
0
  6
CONTINUOUS
 62
     7
 10
0
 20
0
  0
LINE
  8
0
  6
CENTER
 62
     7
 10
-26.269258
 20
0
 11
2.6998007
 21
0
  0
LINE
  8
0
  6
CONTINUOUS
 62
     7
 10
-6.5709376
 20
18.475208
 11
0
 21
18.475208
  0
LINE
  8
0
  6
CONTINUOUS
 62
     7
 10
-6.5709376
 20
9.2376041
 11
0
 21
9.2376041
  0
LINE
  8
0
  6
CONTINUOUS
 62
     7
 10
0
 20
18.475208
 11
0
 21
0
  0
LINE
  8
0
  6
CONTINUOUS
 62
     7
 10
-24
 20
10.7
 11
-24
 21
0
  0
LINE
  8
0
  6
CONTINUOUS
 62
     7
 10
-8
 20
16
 11
-8
 21
0
  0
LINE
  8
0
  6
CONTINUOUS
 62
     7
 10
-8
 20
16
 11
-6.5709381
 21
18.475208
  0
LINE
  8
0
  6
CONTINUOUS
 62
     7
 10
-24
 20
10.700001
 11
-21.705614
 21
12.994388
  0
LINE
  8
0
  6
CONTINUOUS
 62
     7
 10
-21.705614
 20
12.994388
 11
-8.8314362
 21
13.396706
  0
LINE
  8
0
  6
CONTINUOUS
 62
     7
 10
-22.905098
 20
11.794904
 11
-9.9326744
 21
12.200292
  0
LINE
  8
0
  6
CONTINUOUS
 62
     7
 10
-22.905096
 20
11.794904
 11
-22.905096
 21
0
  0
LINE
  8
0
  6
CONTINUOUS
 62
     7
 10
-21.705612
 20
12.994388
 11
-21.705612
 21
0
  0
LINE
  8
0
  6
CONTINUOUS
 62
     7
 10
-8
 20
14.3
 11
-9.9326735
 21
12.200292
  0
LINE
  8
0
  6
CONTINUOUS
 62
     7
 10
-9.9326735
 20
13.362291
 11
-9.9326735
 21
0
  0
LINE
  8
0
  6
CONTINUOUS
 62
     7
 10
-22.905098
 20
-11.794904
 11
-9.9326744
 21
-12.200292
  0
LINE
  8
0
  6
CONTINUOUS
 62
     7
 10
-24
 20
-10.700001
 11
-21.705614
 21
-12.994388
  0
LINE
  8
0
  6
CONTINUOUS
 62
     7
 10
-9.9326735
 20
-13.362291
 11
-9.9326735
 21
0
  0
LINE
  8
0
  6
CONTINUOUS
 62
     7
 10
-21.705614
 20
-12.994388
 11
-8.8314362
 21
-13.396706
  0
LINE
  8
0
  6
CONTINUOUS
 62
     7
 10
-8
 20
-14.3
 11
-9.9326735
 21
-12.200292
  0
LINE
  8
0
  6
CONTINUOUS
 62
     7
 10
-8
 20
-16
 11
-6.5709381
 21
-18.475208
  0
LINE
  8
0
  6
CONTINUOUS
 62
     7
 10
-22.905096
 20
-11.794904
 11
-22.905096
 21
0
  0
LINE
  8
0
  6
CONTINUOUS
 62
     7
 10
0
 20
-18.475208
 11
0
 21
0
  0
LINE
  8
0
  6
CONTINUOUS
 62
     7
 10
-6.5709376
 20
-9.2376041
 11
0
 21
-9.2376041
  0
LINE
  8
0
  6
CONTINUOUS
 62
     7
 10
-24
 20
-10.7
 11
-24
 21
0
  0
LINE
  8
0
  6
CONTINUOUS
 62
     7
 10
-8
 20
-16
 11
-8
 21
0
  0
LINE
  8
0
  6
CONTINUOUS
 62
     7
 10
-21.705612
 20
-12.994388
 11
-21.705612
 21
0
  0
LINE
  8
0
  6
CONTINUOUS
 62
     7
 10
-6.5709376
 20
-18.475208
 11
0
 21
-18.475208
  0
LINE
  8
0
  6
CENTER
 62
     7
 10
-26.269258
 20
0
 11
2.6998007
 21
0
  0
ARC
  8
0
  6
CONTINUOUS
 62
     7
 10
0.1786328
 20
13.856406
 40
8.1786327
 50
145.61575
 51
214.38424
  0
ARC
  8
0
  6
CONTINUOUS
 62
     7
 10
22.570938
 20
1.0658141E-014
 40
30.570938
 50
162.41205
 51
180.00001
  0
ARC
  8
0
  6
CONTINUOUS
 62
     7
 10
22.570938
 20
-1.0658141E-014
 40
30.570938
 50
179.99999
 51
197.58795
  0
ARC
  8
0
  6
CONTINUOUS
 62
     7
 10
0.1786328
 20
-13.856406
 40
8.1786327
 50
145.61575
 51
214.38424
  0
TEXT
  8
0
  6
CONTINUOUS
 62
     7
 10
-22.419594
 20
19.636404
 40
3.2
 41
0.84634979
  1
３／４×３／８
  0
ENDBLK
  8
0
  0
BLOCK
  8
0
  2
KOZU7
 70
    64
 10
0
 20
0
  0
POINT
  8
0
  6
CONTINUOUS
 62
     7
 10
0
 20
0
  0
POINT
  8
0
  6
CONTINUOUS
 62
     7
 10
0
 20
0
  0
LINE
  8
0
  6
CENTER
 62
     7
 10
-26.269258
 20
0
 11
2.6998007
 21
0
  0
LINE
  8
0
  6
CONTINUOUS
 62
     7
 10
-6.5709376
 20
18.475208
 11
0
 21
18.475208
  0
LINE
  8
0
  6
CONTINUOUS
 62
     7
 10
-6.5709376
 20
9.2376041
 11
0
 21
9.2376041
  0
LINE
  8
0
  6
CONTINUOUS
 62
     7
 10
0
 20
18.475208
 11
0
 21
0
  0
LINE
  8
0
  6
CONTINUOUS
 62
     7
 10
-24
 20
10.7
 11
-24
 21
0
  0
LINE
  8
0
  6
CONTINUOUS
 62
     7
 10
-8
 20
16
 11
-8
 21
0
  0
LINE
  8
0
  6
CONTINUOUS
 62
     7
 10
-8
 20
16
 11
-6.5709381
 21
18.475208
  0
LINE
  8
0
  6
CONTINUOUS
 62
     7
 10
-24
 20
10.700001
 11
-21.705614
 21
12.994388
  0
LINE
  8
0
  6
CONTINUOUS
 62
     7
 10
-21.705614
 20
12.994388
 11
-8.8314362
 21
13.396706
  0
LINE
  8
0
  6
CONTINUOUS
 62
     7
 10
-22.905098
 20
11.794904
 11
-9.9326744
 21
12.200292
  0
LINE
  8
0
  6
CONTINUOUS
 62
     7
 10
-22.905096
 20
11.794904
 11
-22.905096
 21
0
  0
LINE
  8
0
  6
CONTINUOUS
 62
     7
 10
-21.705612
 20
12.994388
 11
-21.705612
 21
0
  0
LINE
  8
0
  6
CONTINUOUS
 62
     7
 10
-8
 20
14.3
 11
-9.9326735
 21
12.200292
  0
LINE
  8
0
  6
CONTINUOUS
 62
     7
 10
-9.9326735
 20
13.362291
 11
-9.9326735
 21
0
  0
LINE
  8
0
  6
CONTINUOUS
 62
     7
 10
-22.905098
 20
-11.794904
 11
-9.9326744
 21
-12.200292
  0
LINE
  8
0
  6
CONTINUOUS
 62
     7
 10
-24
 20
-10.700001
 11
-21.705614
 21
-12.994388
  0
LINE
  8
0
  6
CONTINUOUS
 62
     7
 10
-9.9326735
 20
-13.362291
 11
-9.9326735
 21
0
  0
LINE
  8
0
  6
CONTINUOUS
 62
     7
 10
-21.705614
 20
-12.994388
 11
-8.8314362
 21
-13.396706
  0
LINE
  8
0
  6
CONTINUOUS
 62
     7
 10
-8
 20
-14.3
 11
-9.9326735
 21
-12.200292
  0
LINE
  8
0
  6
CONTINUOUS
 62
     7
 10
-8
 20
-16
 11
-6.5709381
 21
-18.475208
  0
LINE
  8
0
  6
CONTINUOUS
 62
     7
 10
-22.905096
 20
-11.794904
 11
-22.905096
 21
0
  0
LINE
  8
0
  6
CONTINUOUS
 62
     7
 10
0
 20
-18.475208
 11
0
 21
0
  0
LINE
  8
0
  6
CONTINUOUS
 62
     7
 10
-6.5709376
 20
-9.2376041
 11
0
 21
-9.2376041
  0
LINE
  8
0
  6
CONTINUOUS
 62
     7
 10
-24
 20
-10.7
 11
-24
 21
0
  0
LINE
  8
0
  6
CONTINUOUS
 62
     7
 10
-8
 20
-16
 11
-8
 21
0
  0
LINE
  8
0
  6
CONTINUOUS
 62
     7
 10
-21.705612
 20
-12.994388
 11
-21.705612
 21
0
  0
LINE
  8
0
  6
CONTINUOUS
 62
     7
 10
-6.5709376
 20
-18.475208
 11
0
 21
-18.475208
  0
LINE
  8
0
  6
CENTER
 62
     7
 10
-26.269258
 20
0
 11
2.6998007
 21
0
  0
ARC
  8
0
  6
CONTINUOUS
 62
     7
 10
0.1786328
 20
13.856406
 40
8.1786327
 50
145.61575
 51
214.38424
  0
ARC
  8
0
  6
CONTINUOUS
 62
     7
 10
22.570938
 20
1.0658141E-014
 40
30.570938
 50
162.41205
 51
180.00001
  0
ARC
  8
0
  6
CONTINUOUS
 62
     7
 10
22.570938
 20
-1.0658141E-014
 40
30.570938
 50
179.99999
 51
197.58795
  0
ARC
  8
0
  6
CONTINUOUS
 62
     7
 10
0.1786328
 20
-13.856406
 40
8.1786327
 50
145.61575
 51
214.38424
  0
TEXT
  8
0
  6
CONTINUOUS
 62
     7
 10
-22.419594
 20
19.636404
 40
3.2
 41
0.84634979
  1
３／４×１／２
  0
ENDBLK
  8
0
  0
BLOCK
  8
0
  2
KOZU8
 70
    64
 10
0
 20
0
  0
POINT
  8
0
  6
CONTINUOUS
 62
     7
 10
0
 20
0
  0
POINT
  8
0
  6
CONTINUOUS
 62
     7
 10
-16.610001
 20
16.6245
  0
LINE
  8
0
  6
CENTER
 62
     7
 10
-29.296452
 20
0
 11
2.9816985
 21
0
  0
LINE
  8
0
  6
CONTINUOUS
 62
     7
 10
-5.3029885
 20
21.93931
 11
0
 21
21.93931
  0
LINE
  8
0
  6
CONTINUOUS
 62
     7
 10
-5.3029885
 20
10.969655
 11
0
 21
10.969655
  0
LINE
  8
0
  6
CONTINUOUS
 62
     7
 10
0
 20
21.93931
 11
0
 21
-21.93931
  0
LINE
  8
0
  6
CONTINUOUS
 62
     7
 10
-7
 20
19
 11
-7
 21
0
  0
LINE
  8
0
  6
CONTINUOUS
 62
     7
 10
-24.625999
 20
16.373999
 11
-7.7668891
 21
16.900846
  0
LINE
  8
0
  6
CONTINUOUS
 62
     7
 10
-26.153454
 20
14.846545
 11
-9.3507214
 21
15.371631
  0
LINE
  8
0
  6
CONTINUOUS
 62
     7
 10
-5.3029885
 20
-10.969655
 11
0
 21
-10.969655
  0
LINE
  8
0
  6
CONTINUOUS
 62
     7
 10
-6.9999995
 20
19
 11
-5.3029885
 21
21.93931
  0
LINE
  8
0
  6
CONTINUOUS
 62
     7
 10
-7
 20
17.641293
 11
-9.3507204
 21
15.371631
  0
LINE
  8
0
  6
CONTINUOUS
 62
     7
 10
-9.3507204
 20
16.851353
 11
-9.3507204
 21
0
  0
LINE
  8
0
  6
CONTINUOUS
 62
     7
 10
-27
 20
14
 11
-27
 21
0
  0
LINE
  8
0
  6
CONTINUOUS
 62
     7
 10
-27
 20
13.999999
 11
-24.625999
 21
16.374001
  0
LINE
  8
0
  6
CONTINUOUS
 62
     7
 10
-24.625999
 20
16.374001
 11
-24.625999
 21
0
  0
LINE
  8
0
  6
CONTINUOUS
 62
     7
 10
-26.153456
 20
14.846545
 11
-26.153456
 21
0
  0
LINE
  8
0
  6
CONTINUOUS
 62
     7
 10
-26.153454
 20
-14.846545
 11
-9.3507214
 21
-15.371631
  0
LINE
  8
0
  6
CONTINUOUS
 62
     7
 10
-5.3029885
 20
-21.93931
 11
0
 21
-21.93931
  0
LINE
  8
0
  6
CONTINUOUS
 62
     7
 10
-24.625999
 20
-16.374001
 11
-24.625999
 21
0
  0
LINE
  8
0
  6
CONTINUOUS
 62
     7
 10
-7
 20
-19
 11
-7
 21
0
  0
LINE
  8
0
  6
CONTINUOUS
 62
     7
 10
-5.3029885
 20
-10.969655
 11
0
 21
-10.969655
  0
LINE
  8
0
  6
CONTINUOUS
 62
     7
 10
-9.3507204
 20
-16.851353
 11
-9.3507204
 21
0
  0
LINE
  8
0
  6
CONTINUOUS
 62
     7
 10
-24.625999
 20
-16.373999
 11
-7.7668891
 21
-16.900846
  0
LINE
  8
0
  6
CONTINUOUS
 62
     7
 10
-6.9999995
 20
-19
 11
-5.3029885
 21
-21.93931
  0
LINE
  8
0
  6
CONTINUOUS
 62
     7
 10
-27
 20
-13.999999
 11
-24.625999
 21
-16.374001
  0
LINE
  8
0
  6
CONTINUOUS
 62
     7
 10
-27
 20
-14
 11
-27
 21
0
  0
LINE
  8
0
  6
CONTINUOUS
 62
     7
 10
-26.153456
 20
-14.846545
 11
-26.153456
 21
0
  0
LINE
  8
0
  6
CONTINUOUS
 62
     7
 10
-7
 20
-17.641293
 11
-9.3507204
 21
-15.371631
  0
ARC
  8
0
  6
CONTINUOUS
 62
     7
 10
2.7121265
 20
16.454483
 40
9.7121267
 50
145.61575
 51
214.38424
  0
ARC
  8
0
  6
CONTINUOUS
 62
     7
 10
29.302988
 20
1.4210855E-014
 40
36.30299
 50
162.41205
 51
197.58795
  0
ARC
  8
0
  6
CONTINUOUS
 62
     7
 10
2.7121265
 20
-16.454483
 40
9.7121267
 50
145.61575
 51
214.38424
  0
TEXT
  8
0
  6
CONTINUOUS
 62
     7
 10
-28.799847
 20
28.828007
 40
3.2
 41
0.84892707
  1
１×１／４
  0
ENDBLK
  8
0
  0
BLOCK
  8
0
  2
KOZU9
 70
    64
 10
0
 20
0
  0
POINT
  8
0
  6
CONTINUOUS
 62
     7
 10
0
 20
0
  0
POINT
  8
0
  6
CONTINUOUS
 62
     7
 10
0
 20
0
  0
POINT
  8
0
  6
CONTINUOUS
 62
     7
 10
-16.610001
 20
16.6245
  0
LINE
  8
0
  6
CENTER
 62
     7
 10
-29.296452
 20
0
 11
2.9816985
 21
0
  0
LINE
  8
0
  6
CONTINUOUS
 62
     7
 10
-5.3029885
 20
21.93931
 11
0
 21
21.93931
  0
LINE
  8
0
  6
CONTINUOUS
 62
     7
 10
-5.3029885
 20
10.969655
 11
0
 21
10.969655
  0
LINE
  8
0
  6
CONTINUOUS
 62
     7
 10
0
 20
21.93931
 11
0
 21
-21.93931
  0
LINE
  8
0
  6
CONTINUOUS
 62
     7
 10
-7
 20
19
 11
-7
 21
0
  0
LINE
  8
0
  6
CONTINUOUS
 62
     7
 10
-24.625999
 20
16.373999
 11
-7.7668891
 21
16.900846
  0
LINE
  8
0
  6
CONTINUOUS
 62
     7
 10
-26.153454
 20
14.846545
 11
-9.3507214
 21
15.371631
  0
LINE
  8
0
  6
CONTINUOUS
 62
     7
 10
-5.3029885
 20
-10.969655
 11
0
 21
-10.969655
  0
LINE
  8
0
  6
CONTINUOUS
 62
     7
 10
-6.9999995
 20
19
 11
-5.3029885
 21
21.93931
  0
LINE
  8
0
  6
CONTINUOUS
 62
     7
 10
-7
 20
17.641293
 11
-9.3507204
 21
15.371631
  0
LINE
  8
0
  6
CONTINUOUS
 62
     7
 10
-9.3507204
 20
16.851353
 11
-9.3507204
 21
0
  0
LINE
  8
0
  6
CONTINUOUS
 62
     7
 10
-27
 20
14
 11
-27
 21
0
  0
LINE
  8
0
  6
CONTINUOUS
 62
     7
 10
-27
 20
13.999999
 11
-24.625999
 21
16.374001
  0
LINE
  8
0
  6
CONTINUOUS
 62
     7
 10
-24.625999
 20
16.374001
 11
-24.625999
 21
0
  0
LINE
  8
0
  6
CONTINUOUS
 62
     7
 10
-26.153456
 20
14.846545
 11
-26.153456
 21
0
  0
LINE
  8
0
  6
CONTINUOUS
 62
     7
 10
-26.153454
 20
-14.846545
 11
-9.3507214
 21
-15.371631
  0
LINE
  8
0
  6
CONTINUOUS
 62
     7
 10
-5.3029885
 20
-21.93931
 11
0
 21
-21.93931
  0
LINE
  8
0
  6
CONTINUOUS
 62
     7
 10
-24.625999
 20
-16.374001
 11
-24.625999
 21
0
  0
LINE
  8
0
  6
CONTINUOUS
 62
     7
 10
-7
 20
-19
 11
-7
 21
0
  0
LINE
  8
0
  6
CONTINUOUS
 62
     7
 10
-5.3029885
 20
-10.969655
 11
0
 21
-10.969655
  0
LINE
  8
0
  6
CONTINUOUS
 62
     7
 10
-9.3507204
 20
-16.851353
 11
-9.3507204
 21
0
  0
LINE
  8
0
  6
CONTINUOUS
 62
     7
 10
-24.625999
 20
-16.373999
 11
-7.7668891
 21
-16.900846
  0
LINE
  8
0
  6
CONTINUOUS
 62
     7
 10
-6.9999995
 20
-19
 11
-5.3029885
 21
-21.93931
  0
LINE
  8
0
  6
CONTINUOUS
 62
     7
 10
-27
 20
-13.999999
 11
-24.625999
 21
-16.374001
  0
LINE
  8
0
  6
CONTINUOUS
 62
     7
 10
-27
 20
-14
 11
-27
 21
0
  0
LINE
  8
0
  6
CONTINUOUS
 62
     7
 10
-26.153456
 20
-14.846545
 11
-26.153456
 21
0
  0
LINE
  8
0
  6
CONTINUOUS
 62
     7
 10
-7
 20
-17.641293
 11
-9.3507204
 21
-15.371631
  0
ARC
  8
0
  6
CONTINUOUS
 62
     7
 10
2.7121265
 20
16.454483
 40
9.7121267
 50
145.61575
 51
214.38424
  0
ARC
  8
0
  6
CONTINUOUS
 62
     7
 10
29.302988
 20
1.4210855E-014
 40
36.30299
 50
162.41205
 51
197.58795
  0
ARC
  8
0
  6
CONTINUOUS
 62
     7
 10
2.7121265
 20
-16.454483
 40
9.7121267
 50
145.61575
 51
214.38424
  0
TEXT
  8
0
  6
CONTINUOUS
 62
     7
 10
-28.799847
 20
28.828007
 40
3.2
 41
0.84892707
  1
１×３／８
  0
ENDBLK
  8
0
  0
BLOCK
  8
0
  2
KOZU10
 70
    64
 10
0
 20
0
  0
POINT
  8
0
  6
CONTINUOUS
 62
     7
 10
0
 20
0
  0
POINT
  8
0
  6
CONTINUOUS
 62
     7
 10
0
 20
0
  0
POINT
  8
0
  6
CONTINUOUS
 62
     7
 10
0
 20
0
  0
POINT
  8
0
  6
CONTINUOUS
 62
     7
 10
-16.610001
 20
16.6245
  0
LINE
  8
0
  6
CENTER
 62
     7
 10
-29.296452
 20
0
 11
2.9816985
 21
0
  0
LINE
  8
0
  6
CONTINUOUS
 62
     7
 10
-5.3029885
 20
21.93931
 11
0
 21
21.93931
  0
LINE
  8
0
  6
CONTINUOUS
 62
     7
 10
-5.3029885
 20
10.969655
 11
0
 21
10.969655
  0
LINE
  8
0
  6
CONTINUOUS
 62
     7
 10
0
 20
21.93931
 11
0
 21
-21.93931
  0
LINE
  8
0
  6
CONTINUOUS
 62
     7
 10
-7
 20
19
 11
-7
 21
0
  0
LINE
  8
0
  6
CONTINUOUS
 62
     7
 10
-24.625999
 20
16.373999
 11
-7.7668891
 21
16.900846
  0
LINE
  8
0
  6
CONTINUOUS
 62
     7
 10
-26.153454
 20
14.846545
 11
-9.3507214
 21
15.371631
  0
LINE
  8
0
  6
CONTINUOUS
 62
     7
 10
-5.3029885
 20
-10.969655
 11
0
 21
-10.969655
  0
LINE
  8
0
  6
CONTINUOUS
 62
     7
 10
-6.9999995
 20
19
 11
-5.3029885
 21
21.93931
  0
LINE
  8
0
  6
CONTINUOUS
 62
     7
 10
-7
 20
17.641293
 11
-9.3507204
 21
15.371631
  0
LINE
  8
0
  6
CONTINUOUS
 62
     7
 10
-9.3507204
 20
16.851353
 11
-9.3507204
 21
0
  0
LINE
  8
0
  6
CONTINUOUS
 62
     7
 10
-27
 20
14
 11
-27
 21
0
  0
LINE
  8
0
  6
CONTINUOUS
 62
     7
 10
-27
 20
13.999999
 11
-24.625999
 21
16.374001
  0
LINE
  8
0
  6
CONTINUOUS
 62
     7
 10
-24.625999
 20
16.374001
 11
-24.625999
 21
0
  0
LINE
  8
0
  6
CONTINUOUS
 62
     7
 10
-26.153456
 20
14.846545
 11
-26.153456
 21
0
  0
LINE
  8
0
  6
CONTINUOUS
 62
     7
 10
-26.153454
 20
-14.846545
 11
-9.3507214
 21
-15.371631
  0
LINE
  8
0
  6
CONTINUOUS
 62
     7
 10
-5.3029885
 20
-21.93931
 11
0
 21
-21.93931
  0
LINE
  8
0
  6
CONTINUOUS
 62
     7
 10
-24.625999
 20
-16.374001
 11
-24.625999
 21
0
  0
LINE
  8
0
  6
CONTINUOUS
 62
     7
 10
-7
 20
-19
 11
-7
 21
0
  0
LINE
  8
0
  6
CONTINUOUS
 62
     7
 10
-5.3029885
 20
-10.969655
 11
0
 21
-10.969655
  0
LINE
  8
0
  6
CONTINUOUS
 62
     7
 10
-9.3507204
 20
-16.851353
 11
-9.3507204
 21
0
  0
LINE
  8
0
  6
CONTINUOUS
 62
     7
 10
-24.625999
 20
-16.373999
 11
-7.7668891
 21
-16.900846
  0
LINE
  8
0
  6
CONTINUOUS
 62
     7
 10
-6.9999995
 20
-19
 11
-5.3029885
 21
-21.93931
  0
LINE
  8
0
  6
CONTINUOUS
 62
     7
 10
-27
 20
-13.999999
 11
-24.625999
 21
-16.374001
  0
LINE
  8
0
  6
CONTINUOUS
 62
     7
 10
-27
 20
-14
 11
-27
 21
0
  0
LINE
  8
0
  6
CONTINUOUS
 62
     7
 10
-26.153456
 20
-14.846545
 11
-26.153456
 21
0
  0
LINE
  8
0
  6
CONTINUOUS
 62
     7
 10
-7
 20
-17.641293
 11
-9.3507204
 21
-15.371631
  0
ARC
  8
0
  6
CONTINUOUS
 62
     7
 10
2.7121265
 20
16.454483
 40
9.7121267
 50
145.61575
 51
214.38424
  0
ARC
  8
0
  6
CONTINUOUS
 62
     7
 10
29.302988
 20
1.4210855E-014
 40
36.30299
 50
162.41205
 51
197.58795
  0
ARC
  8
0
  6
CONTINUOUS
 62
     7
 10
2.7121265
 20
-16.454483
 40
9.7121267
 50
145.61575
 51
214.38424
  0
TEXT
  8
0
  6
CONTINUOUS
 62
     7
 10
-28.799847
 20
28.828007
 40
3.2
 41
0.84892707
  1
１×１／４
  0
ENDBLK
  8
0
  0
BLOCK
  8
0
  2
KOZU11
 70
    64
 10
0
 20
0
  0
POINT
  8
0
  6
CONTINUOUS
 62
     7
 10
0
 20
0
  0
POINT
  8
0
  6
CONTINUOUS
 62
     7
 10
0
 20
0
  0
POINT
  8
0
  6
CONTINUOUS
 62
     7
 10
0
 20
0
  0
POINT
  8
0
  6
CONTINUOUS
 62
     7
 10
-16.610001
 20
16.6245
  0
LINE
  8
0
  6
CENTER
 62
     7
 10
-29.296452
 20
0
 11
2.9816985
 21
0
  0
LINE
  8
0
  6
CONTINUOUS
 62
     7
 10
-5.3029885
 20
21.93931
 11
0
 21
21.93931
  0
LINE
  8
0
  6
CONTINUOUS
 62
     7
 10
-5.3029885
 20
10.969655
 11
0
 21
10.969655
  0
LINE
  8
0
  6
CONTINUOUS
 62
     7
 10
0
 20
21.93931
 11
0
 21
-21.93931
  0
LINE
  8
0
  6
CONTINUOUS
 62
     7
 10
-7
 20
19
 11
-7
 21
0
  0
LINE
  8
0
  6
CONTINUOUS
 62
     7
 10
-24.625999
 20
16.373999
 11
-7.7668891
 21
16.900846
  0
LINE
  8
0
  6
CONTINUOUS
 62
     7
 10
-26.153454
 20
14.846545
 11
-9.3507214
 21
15.371631
  0
LINE
  8
0
  6
CONTINUOUS
 62
     7
 10
-5.3029885
 20
-10.969655
 11
0
 21
-10.969655
  0
LINE
  8
0
  6
CONTINUOUS
 62
     7
 10
-6.9999995
 20
19
 11
-5.3029885
 21
21.93931
  0
LINE
  8
0
  6
CONTINUOUS
 62
     7
 10
-7
 20
17.641293
 11
-9.3507204
 21
15.371631
  0
LINE
  8
0
  6
CONTINUOUS
 62
     7
 10
-9.3507204
 20
16.851353
 11
-9.3507204
 21
0
  0
LINE
  8
0
  6
CONTINUOUS
 62
     7
 10
-27
 20
14
 11
-27
 21
0
  0
LINE
  8
0
  6
CONTINUOUS
 62
     7
 10
-27
 20
13.999999
 11
-24.625999
 21
16.374001
  0
LINE
  8
0
  6
CONTINUOUS
 62
     7
 10
-24.625999
 20
16.374001
 11
-24.625999
 21
0
  0
LINE
  8
0
  6
CONTINUOUS
 62
     7
 10
-26.153456
 20
14.846545
 11
-26.153456
 21
0
  0
LINE
  8
0
  6
CONTINUOUS
 62
     7
 10
-26.153454
 20
-14.846545
 11
-9.3507214
 21
-15.371631
  0
LINE
  8
0
  6
CONTINUOUS
 62
     7
 10
-5.3029885
 20
-21.93931
 11
0
 21
-21.93931
  0
LINE
  8
0
  6
CONTINUOUS
 62
     7
 10
-24.625999
 20
-16.374001
 11
-24.625999
 21
0
  0
LINE
  8
0
  6
CONTINUOUS
 62
     7
 10
-7
 20
-19
 11
-7
 21
0
  0
LINE
  8
0
  6
CONTINUOUS
 62
     7
 10
-5.3029885
 20
-10.969655
 11
0
 21
-10.969655
  0
LINE
  8
0
  6
CONTINUOUS
 62
     7
 10
-9.3507204
 20
-16.851353
 11
-9.3507204
 21
0
  0
LINE
  8
0
  6
CONTINUOUS
 62
     7
 10
-24.625999
 20
-16.373999
 11
-7.7668891
 21
-16.900846
  0
LINE
  8
0
  6
CONTINUOUS
 62
     7
 10
-6.9999995
 20
-19
 11
-5.3029885
 21
-21.93931
  0
LINE
  8
0
  6
CONTINUOUS
 62
     7
 10
-27
 20
-13.999999
 11
-24.625999
 21
-16.374001
  0
LINE
  8
0
  6
CONTINUOUS
 62
     7
 10
-27
 20
-14
 11
-27
 21
0
  0
LINE
  8
0
  6
CONTINUOUS
 62
     7
 10
-26.153456
 20
-14.846545
 11
-26.153456
 21
0
  0
LINE
  8
0
  6
CONTINUOUS
 62
     7
 10
-7
 20
-17.641293
 11
-9.3507204
 21
-15.371631
  0
ARC
  8
0
  6
CONTINUOUS
 62
     7
 10
2.7121265
 20
16.454483
 40
9.7121267
 50
145.61575
 51
214.38424
  0
ARC
  8
0
  6
CONTINUOUS
 62
     7
 10
29.302988
 20
1.4210855E-014
 40
36.30299
 50
162.41205
 51
197.58795
  0
ARC
  8
0
  6
CONTINUOUS
 62
     7
 10
2.7121265
 20
-16.454483
 40
9.7121267
 50
145.61575
 51
214.38424
  0
TEXT
  8
0
  6
CONTINUOUS
 62
     7
 10
-28.799847
 20
28.828007
 40
3.2
 41
0.84892707
  1
１×３／４
  0
ENDBLK
  8
0
  0
BLOCK
  8
0
  2
KOZU12
 70
    64
 10
0
 20
0
  0
POINT
  8
0
  6
CONTINUOUS
 62
     7
 10
0
 20
0
  0
POINT
  8
0
  6
CONTINUOUS
 62
     7
 10
0
 20
0
  0
POINT
  8
0
  6
CONTINUOUS
 62
     7
 10
-8
 20
22.1
  0
LINE
  8
0
  6
CENTER
 62
     7
 10
-33.363876
 20
0
 11
4.9039073
 21
0
  0
LINE
  8
0
  6
CONTINUOUS
 62
     7
 10
0
 20
26.558113
 11
0
 21
-13.279057
  0
LINE
  8
0
  6
CONTINUOUS
 62
     7
 10
-30
 20
17.799999
 11
-30
 21
0
  0
LINE
  8
0
  6
CONTINUOUS
 62
     7
 10
-8
 20
23
 11
-8
 21
0
  0
LINE
  8
0
  6
CONTINUOUS
 62
     7
 10
-5.9457231
 20
26.558113
 11
0
 21
26.558113
  0
LINE
  8
0
  6
CONTINUOUS
 62
     7
 10
-5.9457231
 20
13.279057
 11
0
 21
13.279057
  0
LINE
  8
0
  6
CONTINUOUS
 62
     7
 10
-5.9457231
 20
-13.279057
 11
0
 21
-13.279057
  0
LINE
  8
0
  6
CONTINUOUS
 62
     7
 10
-8
 20
23
 11
-5.9457235
 21
26.558111
  0
LINE
  8
0
  6
CONTINUOUS
 62
     7
 10
-30.000002
 20
17.800001
 11
-27.152905
 21
20.647099
  0
LINE
  8
0
  6
CONTINUOUS
 62
     7
 10
-27.152903
 20
20.647097
 11
-9.1508074
 21
21.209661
  0
LINE
  8
0
  6
CONTINUOUS
 62
     7
 10
-28.679613
 20
19.120388
 11
-11.142957
 21
19.668407
  0
LINE
  8
0
  6
CONTINUOUS
 62
     7
 10
-8
 20
22.1
 11
-11.142957
 21
19.668407
  0
LINE
  8
0
  6
CONTINUOUS
 62
     7
 10
-28.679613
 20
19.120388
 11
-28.679613
 21
0
  0
LINE
  8
0
  6
CONTINUOUS
 62
     7
 10
-27.152903
 20
20.647097
 11
-27.152903
 21
0
  0
LINE
  8
0
  6
CONTINUOUS
 62
     7
 10
-11.142957
 20
21.147408
 11
-11.142957
 21
0
  0
LINE
  8
0
  6
CONTINUOUS
 62
     7
 10
0
 20
-26.558113
 11
0
 21
13.279057
  0
LINE
  8
0
  6
CONTINUOUS
 62
     7
 10
-30
 20
-17.799999
 11
-30
 21
0
  0
LINE
  8
0
  6
CONTINUOUS
 62
     7
 10
-8
 20
-23
 11
-8
 21
0
  0
LINE
  8
0
  6
CONTINUOUS
 62
     7
 10
-5.9457231
 20
-26.558113
 11
0
 21
-26.558113
  0
LINE
  8
0
  6
CONTINUOUS
 62
     7
 10
-28.679613
 20
-19.120388
 11
-28.679613
 21
0
  0
LINE
  8
0
  6
CONTINUOUS
 62
     7
 10
-28.679613
 20
-19.120388
 11
-11.142957
 21
-19.668407
  0
LINE
  8
0
  6
CONTINUOUS
 62
     7
 10
-27.152903
 20
-20.647097
 11
-9.1508074
 21
-21.209661
  0
LINE
  8
0
  6
CONTINUOUS
 62
     7
 10
-8
 20
-23
 11
-5.9457235
 21
-26.558111
  0
LINE
  8
0
  6
CONTINUOUS
 62
     7
 10
-27.152903
 20
-20.647097
 11
-27.152903
 21
0
  0
LINE
  8
0
  6
CONTINUOUS
 62
     7
 10
-8
 20
-22.1
 11
-11.142957
 21
-19.668407
  0
LINE
  8
0
  6
CONTINUOUS
 62
     7
 10
-30.000002
 20
-17.800001
 11
-27.152905
 21
-20.647099
  0
LINE
  8
0
  6
CONTINUOUS
 62
     7
 10
-11.142957
 20
-21.147408
 11
-11.142957
 21
0
  0
ARC
  8
0
  6
CONTINUOUS
 62
     7
 10
3.7567847
 20
19.918585
 40
11.756784
 50
145.61575
 51
214.38424
  0
ARC
  8
0
  6
CONTINUOUS
 62
     7
 10
35.945724
 20
1.2434498E-014
 40
43.945724
 50
162.41205
 51
197.58795
  0
ARC
  8
0
  6
CONTINUOUS
 62
     7
 10
3.7567847
 20
-19.918585
 40
11.756784
 50
145.61575
 51
214.38424
  0
TEXT
  8
0
  6
CONTINUOUS
 62
     7
 10
-27.043
 20
31.65
 40
3.2
 41
0.8455654
  1
１１／４×３／８
  0
ENDBLK
  8
0
  0
BLOCK
  8
0
  2
KOZU13
 70
    64
 10
0
 20
0
  0
POINT
  8
0
  6
CONTINUOUS
 62
     7
 10
-4.5500002
 20
10.85
  0
POINT
  8
0
  6
CONTINUOUS
 62
     7
 10
-12.55
 20
32.950001
  0
LINE
  8
0
  6
CENTER
 62
     7
 10
-37.913876
 20
10.85
 11
0.3539075
 21
10.85
  0
LINE
  8
0
  6
CONTINUOUS
 62
     7
 10
-4.5500002
 20
37.408112
 11
-4.5500002
 21
-2.4290562
  0
LINE
  8
0
  6
CONTINUOUS
 62
     7
 10
-34.549999
 20
28.65
 11
-34.549999
 21
10.85
  0
LINE
  8
0
  6
CONTINUOUS
 62
     7
 10
-12.55
 20
33.849998
 11
-12.55
 21
10.85
  0
LINE
  8
0
  6
CONTINUOUS
 62
     7
 10
-10.495723
 20
37.408112
 11
-4.5500002
 21
37.408112
  0
LINE
  8
0
  6
CONTINUOUS
 62
     7
 10
-10.495723
 20
24.129057
 11
-4.5500002
 21
24.129057
  0
LINE
  8
0
  6
CONTINUOUS
 62
     7
 10
-10.495723
 20
-2.4290562
 11
-4.5500002
 21
-2.4290562
  0
LINE
  8
0
  6
CONTINUOUS
 62
     7
 10
-12.549999
 20
33.850002
 11
-10.495723
 21
37.408112
  0
LINE
  8
0
  6
CONTINUOUS
 62
     7
 10
-34.549999
 20
28.65
 11
-31.702902
 21
31.497097
  0
LINE
  8
0
  6
CONTINUOUS
 62
     7
 10
-31.702902
 20
31.497099
 11
-13.700807
 21
32.059662
  0
LINE
  8
0
  6
CONTINUOUS
 62
     7
 10
-33.229614
 20
29.970388
 11
-15.692957
 21
30.518408
  0
LINE
  8
0
  6
CONTINUOUS
 62
     7
 10
-12.550001
 20
32.950001
 11
-15.692958
 21
30.518408
  0
LINE
  8
0
  6
CONTINUOUS
 62
     7
 10
-33.229614
 20
29.970387
 11
-33.229614
 21
10.85
  0
LINE
  8
0
  6
CONTINUOUS
 62
     7
 10
-31.702904
 20
31.497097
 11
-31.702904
 21
10.85
  0
LINE
  8
0
  6
CONTINUOUS
 62
     7
 10
-15.692957
 20
31.997408
 11
-15.692957
 21
10.85
  0
LINE
  8
0
  6
CONTINUOUS
 62
     7
 10
-4.5500002
 20
-15.708113
 11
-4.5500002
 21
24.129057
  0
LINE
  8
0
  6
CONTINUOUS
 62
     7
 10
-34.549999
 20
-6.9499998
 11
-34.549999
 21
10.85
  0
LINE
  8
0
  6
CONTINUOUS
 62
     7
 10
-12.55
 20
-12.15
 11
-12.55
 21
10.85
  0
LINE
  8
0
  6
CONTINUOUS
 62
     7
 10
-10.495723
 20
-15.708113
 11
-4.5500002
 21
-15.708113
  0
LINE
  8
0
  6
CONTINUOUS
 62
     7
 10
-33.229614
 20
-8.2703876
 11
-33.229614
 21
10.85
  0
LINE
  8
0
  6
CONTINUOUS
 62
     7
 10
-33.22961
 20
-8.2703876
 11
-15.692956
 21
-8.818408
  0
LINE
  8
0
  6
CONTINUOUS
 62
     7
 10
-31.702902
 20
-9.7970972
 11
-13.700807
 21
-10.359662
  0
LINE
  8
0
  6
CONTINUOUS
 62
     7
 10
-12.55
 20
-12.15
 11
-10.495723
 21
-15.708112
  0
LINE
  8
0
  6
CONTINUOUS
 62
     7
 10
-31.702904
 20
-9.7970972
 11
-31.702904
 21
10.85
  0
LINE
  8
0
  6
CONTINUOUS
 62
     7
 10
-12.55
 20
-11.249999
 11
-15.692957
 21
-8.8184061
  0
LINE
  8
0
  6
CONTINUOUS
 62
     7
 10
-34.549999
 20
-6.9500008
 11
-31.702904
 21
-9.7970972
  0
LINE
  8
0
  6
CONTINUOUS
 62
     7
 10
-15.692957
 20
-10.297407
 11
-15.692957
 21
10.85
  0
ARC
  8
0
  6
CONTINUOUS
 62
     7
 10
-0.79321533
 20
30.768585
 40
11.756784
 50
145.61575
 51
214.38424
  0
ARC
  8
0
  6
CONTINUOUS
 62
     7
 10
31.395723
 20
10.85
 40
43.945724
 50
162.41205
 51
197.58795
  0
ARC
  8
0
  6
CONTINUOUS
 62
     7
 10
-0.79321533
 20
-9.0685844
 40
11.756784
 50
145.61575
 51
214.38424
  0
TEXT
  8
0
  6
CONTINUOUS
 62
     7
 10
-31.593001
 20
42.499998
 40
3.2
 41
0.8455654
  1
１１／４×１／２
  0
ENDBLK
  8
0
  0
BLOCK
  8
0
  2
KOZU14
 70
    64
 10
0
 20
0
  0
POINT
  8
0
  6
CONTINUOUS
 62
     7
 10
0
 20
0
  0
POINT
  8
0
  6
CONTINUOUS
 62
     7
 10
0
 20
0
  0
POINT
  8
0
  6
CONTINUOUS
 62
     7
 10
0
 20
0
  0
POINT
  8
0
  6
CONTINUOUS
 62
     7
 10
-8
 20
22.1
  0
LINE
  8
0
  6
CENTER
 62
     7
 10
-33.363876
 20
0
 11
4.9039073
 21
0
  0
LINE
  8
0
  6
CONTINUOUS
 62
     7
 10
0
 20
26.558113
 11
0
 21
-13.279057
  0
LINE
  8
0
  6
CONTINUOUS
 62
     7
 10
-30
 20
17.799999
 11
-30
 21
0
  0
LINE
  8
0
  6
CONTINUOUS
 62
     7
 10
-8
 20
23
 11
-8
 21
0
  0
LINE
  8
0
  6
CONTINUOUS
 62
     7
 10
-5.9457231
 20
26.558113
 11
0
 21
26.558113
  0
LINE
  8
0
  6
CONTINUOUS
 62
     7
 10
-5.9457231
 20
13.279057
 11
0
 21
13.279057
  0
LINE
  8
0
  6
CONTINUOUS
 62
     7
 10
-5.9457231
 20
-13.279057
 11
0
 21
-13.279057
  0
LINE
  8
0
  6
CONTINUOUS
 62
     7
 10
-8
 20
23
 11
-5.9457235
 21
26.558111
  0
LINE
  8
0
  6
CONTINUOUS
 62
     7
 10
-30.000002
 20
17.800001
 11
-27.152905
 21
20.647099
  0
LINE
  8
0
  6
CONTINUOUS
 62
     7
 10
-27.152903
 20
20.647097
 11
-9.1508074
 21
21.209661
  0
LINE
  8
0
  6
CONTINUOUS
 62
     7
 10
-28.679613
 20
19.120388
 11
-11.142957
 21
19.668407
  0
LINE
  8
0
  6
CONTINUOUS
 62
     7
 10
-8
 20
22.1
 11
-11.142957
 21
19.668407
  0
LINE
  8
0
  6
CONTINUOUS
 62
     7
 10
-28.679613
 20
19.120388
 11
-28.679613
 21
0
  0
LINE
  8
0
  6
CONTINUOUS
 62
     7
 10
-27.152903
 20
20.647097
 11
-27.152903
 21
0
  0
LINE
  8
0
  6
CONTINUOUS
 62
     7
 10
-11.142957
 20
21.147408
 11
-11.142957
 21
0
  0
LINE
  8
0
  6
CONTINUOUS
 62
     7
 10
0
 20
-26.558113
 11
0
 21
13.279057
  0
LINE
  8
0
  6
CONTINUOUS
 62
     7
 10
-30
 20
-17.799999
 11
-30
 21
0
  0
LINE
  8
0
  6
CONTINUOUS
 62
     7
 10
-8
 20
-23
 11
-8
 21
0
  0
LINE
  8
0
  6
CONTINUOUS
 62
     7
 10
-5.9457231
 20
-26.558113
 11
0
 21
-26.558113
  0
LINE
  8
0
  6
CONTINUOUS
 62
     7
 10
-28.679613
 20
-19.120388
 11
-28.679613
 21
0
  0
LINE
  8
0
  6
CONTINUOUS
 62
     7
 10
-28.679613
 20
-19.120388
 11
-11.142957
 21
-19.668407
  0
LINE
  8
0
  6
CONTINUOUS
 62
     7
 10
-27.152903
 20
-20.647097
 11
-9.1508074
 21
-21.209661
  0
LINE
  8
0
  6
CONTINUOUS
 62
     7
 10
-8
 20
-23
 11
-5.9457235
 21
-26.558111
  0
LINE
  8
0
  6
CONTINUOUS
 62
     7
 10
-27.152903
 20
-20.647097
 11
-27.152903
 21
0
  0
LINE
  8
0
  6
CONTINUOUS
 62
     7
 10
-8
 20
-22.1
 11
-11.142957
 21
-19.668407
  0
LINE
  8
0
  6
CONTINUOUS
 62
     7
 10
-30.000002
 20
-17.800001
 11
-27.152905
 21
-20.647099
  0
LINE
  8
0
  6
CONTINUOUS
 62
     7
 10
-11.142957
 20
-21.147408
 11
-11.142957
 21
0
  0
ARC
  8
0
  6
CONTINUOUS
 62
     7
 10
3.7567847
 20
19.918585
 40
11.756784
 50
145.61575
 51
214.38424
  0
ARC
  8
0
  6
CONTINUOUS
 62
     7
 10
35.945724
 20
1.4210855E-014
 40
43.945724
 50
162.41205
 51
197.58795
  0
ARC
  8
0
  6
CONTINUOUS
 62
     7
 10
3.7567847
 20
-19.918585
 40
11.756784
 50
145.61575
 51
214.38424
  0
TEXT
  8
0
  6
CONTINUOUS
 62
     7
 10
-27.043
 20
31.65
 40
3.2
 41
0.8455654
  1
１１／４×３／４
  0
ENDBLK
  8
0
  0
BLOCK
  8
0
  2
KOZU15
 70
    64
 10
0
 20
0
  0
POINT
  8
0
  6
CONTINUOUS
 62
     7
 10
0
 20
0
  0
POINT
  8
0
  6
CONTINUOUS
 62
     7
 10
0
 20
0
  0
POINT
  8
0
  6
CONTINUOUS
 62
     7
 10
-8
 20
22.1
  0
LINE
  8
0
  6
CENTER
 62
     7
 10
-33.363876
 20
0
 11
4.9039073
 21
0
  0
LINE
  8
0
  6
CONTINUOUS
 62
     7
 10
0
 20
26.558113
 11
0
 21
-13.279057
  0
LINE
  8
0
  6
CONTINUOUS
 62
     7
 10
-30
 20
17.799999
 11
-30
 21
0
  0
LINE
  8
0
  6
CONTINUOUS
 62
     7
 10
-8
 20
23
 11
-8
 21
0
  0
LINE
  8
0
  6
CONTINUOUS
 62
     7
 10
-5.9457231
 20
26.558113
 11
0
 21
26.558113
  0
LINE
  8
0
  6
CONTINUOUS
 62
     7
 10
-5.9457231
 20
13.279057
 11
0
 21
13.279057
  0
LINE
  8
0
  6
CONTINUOUS
 62
     7
 10
-5.9457231
 20
-13.279057
 11
0
 21
-13.279057
  0
LINE
  8
0
  6
CONTINUOUS
 62
     7
 10
-8
 20
23
 11
-5.9457235
 21
26.558111
  0
LINE
  8
0
  6
CONTINUOUS
 62
     7
 10
-30.000002
 20
17.800001
 11
-27.152905
 21
20.647099
  0
LINE
  8
0
  6
CONTINUOUS
 62
     7
 10
-27.152903
 20
20.647097
 11
-9.1508074
 21
21.209661
  0
LINE
  8
0
  6
CONTINUOUS
 62
     7
 10
-28.679613
 20
19.120388
 11
-11.142957
 21
19.668407
  0
LINE
  8
0
  6
CONTINUOUS
 62
     7
 10
-8
 20
22.1
 11
-11.142957
 21
19.668407
  0
LINE
  8
0
  6
CONTINUOUS
 62
     7
 10
-28.679613
 20
19.120388
 11
-28.679613
 21
0
  0
LINE
  8
0
  6
CONTINUOUS
 62
     7
 10
-27.152903
 20
20.647097
 11
-27.152903
 21
0
  0
LINE
  8
0
  6
CONTINUOUS
 62
     7
 10
-11.142957
 20
21.147408
 11
-11.142957
 21
0
  0
LINE
  8
0
  6
CONTINUOUS
 62
     7
 10
0
 20
-26.558113
 11
0
 21
13.279057
  0
LINE
  8
0
  6
CONTINUOUS
 62
     7
 10
-30
 20
-17.799999
 11
-30
 21
0
  0
LINE
  8
0
  6
CONTINUOUS
 62
     7
 10
-8
 20
-23
 11
-8
 21
0
  0
LINE
  8
0
  6
CONTINUOUS
 62
     7
 10
-5.9457231
 20
-26.558113
 11
0
 21
-26.558113
  0
LINE
  8
0
  6
CONTINUOUS
 62
     7
 10
-28.679613
 20
-19.120388
 11
-28.679613
 21
0
  0
LINE
  8
0
  6
CONTINUOUS
 62
     7
 10
-28.679613
 20
-19.120388
 11
-11.142957
 21
-19.668407
  0
LINE
  8
0
  6
CONTINUOUS
 62
     7
 10
-27.152903
 20
-20.647097
 11
-9.1508074
 21
-21.209661
  0
LINE
  8
0
  6
CONTINUOUS
 62
     7
 10
-8
 20
-23
 11
-5.9457235
 21
-26.558111
  0
LINE
  8
0
  6
CONTINUOUS
 62
     7
 10
-27.152903
 20
-20.647097
 11
-27.152903
 21
0
  0
LINE
  8
0
  6
CONTINUOUS
 62
     7
 10
-8
 20
-22.1
 11
-11.142957
 21
-19.668407
  0
LINE
  8
0
  6
CONTINUOUS
 62
     7
 10
-30.000002
 20
-17.800001
 11
-27.152905
 21
-20.647099
  0
LINE
  8
0
  6
CONTINUOUS
 62
     7
 10
-11.142957
 20
-21.147408
 11
-11.142957
 21
0
  0
ARC
  8
0
  6
CONTINUOUS
 62
     7
 10
3.7567847
 20
19.918585
 40
11.756784
 50
145.61575
 51
214.38424
  0
ARC
  8
0
  6
CONTINUOUS
 62
     7
 10
35.945724
 20
1.4210855E-014
 40
43.945724
 50
162.41205
 51
197.58795
  0
ARC
  8
0
  6
CONTINUOUS
 62
     7
 10
3.7567847
 20
-19.918585
 40
11.756784
 50
145.61575
 51
214.38424
  0
TEXT
  8
0
  6
CONTINUOUS
 62
     7
 10
-27.043
 20
31.65
 40
3.2
 41
0.84741102
  1
１１／４×１
  0
ENDBLK
  8
0
  0
BLOCK
  8
0
  2
KOZU16
 70
    64
 10
0
 20
0
  0
POINT
  8
0
  6
CONTINUOUS
 62
     7
 10
0
 20
0
  0
POINT
  8
0
  6
CONTINUOUS
 62
     7
 10
-9
 20
25.1
  0
LINE
  8
0
  6
CONTINUOUS
 62
     7
 10
-6.5884571
 20
31.176914
 11
0
 21
31.176914
  0
LINE
  8
0
  6
CONTINUOUS
 62
     7
 10
-6.5884571
 20
15.588457
 11
0
 21
15.588457
  0
LINE
  8
0
  6
CONTINUOUS
 62
     7
 10
0
 20
31.176914
 11
0
 21
0
  0
LINE
  8
0
  6
CONTINUOUS
 62
     7
 10
-32
 20
20.799999
 11
-32
 21
0
  0
LINE
  8
0
  6
CONTINUOUS
 62
     7
 10
-9
 20
27
 11
-9
 21
0
  0
LINE
  8
0
  6
CONTINUOUS
 62
     7
 10
-9
 20
27
 11
-9
 21
0
  0
LINE
  8
0
  6
CONTINUOUS
 62
     7
 10
-9
 20
27.000002
 11
-6.5884581
 21
31.176914
  0
LINE
  8
0
  6
CENTER
 62
     7
 10
-35.678394
 20
0
 11
4.5181813
 21
0
  0
LINE
  8
0
  6
CONTINUOUS
 62
     7
 10
-32
 20
20.800001
 11
-29.20813
 21
23.591873
  0
LINE
  8
0
  6
CONTINUOUS
 62
     7
 10
-29.208128
 20
23.591871
 11
-9.7738581
 21
24.199192
  0
LINE
  8
0
  6
CONTINUOUS
 62
     7
 10
-30.734838
 20
22.065163
 11
-11.079476
 21
22.679392
  0
LINE
  8
0
  6
CONTINUOUS
 62
     7
 10
-9
 20
25.1
 11
-11.079476
 21
22.679392
  0
LINE
  8
0
  6
CONTINUOUS
 62
     7
 10
-30.734838
 20
22.065161
 11
-30.734838
 21
0
  0
LINE
  8
0
  6
CONTINUOUS
 62
     7
 10
-29.208128
 20
23.591871
 11
-29.208128
 21
0
  0
LINE
  8
0
  6
CONTINUOUS
 62
     7
 10
-11.079476
 20
24.158392
 11
-11.079476
 21
0
  0
LINE
  8
0
  6
CONTINUOUS
 62
     7
 10
-9
 20
-27.000002
 11
-6.5884581
 21
-31.176914
  0
LINE
  8
0
  6
CONTINUOUS
 62
     7
 10
-6.5884571
 20
-31.176914
 11
0
 21
-31.176914
  0
LINE
  8
0
  6
CONTINUOUS
 62
     7
 10
-32
 20
-20.800001
 11
-29.20813
 21
-23.591873
  0
LINE
  8
0
  6
CONTINUOUS
 62
     7
 10
-29.208128
 20
-23.591871
 11
-29.208128
 21
0
  0
LINE
  8
0
  6
CONTINUOUS
 62
     7
 10
-9
 20
-25.1
 11
-11.079476
 21
-22.679392
  0
LINE
  8
0
  6
CONTINUOUS
 62
     7
 10
-9
 20
-27
 11
-9
 21
0
  0
LINE
  8
0
  6
CONTINUOUS
 62
     7
 10
-6.5884571
 20
-15.588457
 11
0
 21
-15.588457
  0
LINE
  8
0
  6
CONTINUOUS
 62
     7
 10
-32
 20
-20.799999
 11
-32
 21
0
  0
LINE
  8
0
  6
CONTINUOUS
 62
     7
 10
0
 20
-31.176914
 11
0
 21
0
  0
LINE
  8
0
  6
CONTINUOUS
 62
     7
 10
-29.208128
 20
-23.591871
 11
-9.7738581
 21
-24.199192
  0
LINE
  8
0
  6
CONTINUOUS
 62
     7
 10
-30.734838
 20
-22.065161
 11
-30.734838
 21
0
  0
LINE
  8
0
  6
CONTINUOUS
 62
     7
 10
-30.734838
 20
-22.065163
 11
-11.079476
 21
-22.679392
  0
LINE
  8
0
  6
CONTINUOUS
 62
     7
 10
-11.079476
 20
-24.158392
 11
-11.079476
 21
0
  0
ARC
  8
0
  6
CONTINUOUS
 62
     7
 10
4.8014426
 20
23.382687
 40
13.801443
 50
145.61575
 51
214.38424
  0
ARC
  8
0
  6
CONTINUOUS
 62
     7
 10
42.588459
 20
1.5987212E-014
 40
51.588459
 50
162.41205
 51
197.58795
  0
ARC
  8
0
  6
CONTINUOUS
 62
     7
 10
4.8014426
 20
-23.382687
 40
13.801443
 50
145.61575
 51
214.38424
  0
TEXT
  8
0
  6
CONTINUOUS
 62
     7
 10
-31.819296
 20
34.499586
 40
3.2
 41
0.8455654
  1
１１／２×１／２
  0
ENDBLK
  8
0
  0
BLOCK
  8
0
  2
KOZU17
 70
    64
 10
0
 20
0
  0
POINT
  8
0
  6
CONTINUOUS
 62
     7
 10
0
 20
0
  0
POINT
  8
0
  6
CONTINUOUS
 62
     7
 10
0
 20
0
  0
POINT
  8
0
  6
CONTINUOUS
 62
     7
 10
-9
 20
25.1
  0
LINE
  8
0
  6
CONTINUOUS
 62
     7
 10
-6.5884571
 20
31.176914
 11
0
 21
31.176914
  0
LINE
  8
0
  6
CONTINUOUS
 62
     7
 10
-6.5884571
 20
15.588457
 11
0
 21
15.588457
  0
LINE
  8
0
  6
CONTINUOUS
 62
     7
 10
0
 20
31.176914
 11
0
 21
0
  0
LINE
  8
0
  6
CONTINUOUS
 62
     7
 10
-32
 20
20.799999
 11
-32
 21
0
  0
LINE
  8
0
  6
CONTINUOUS
 62
     7
 10
-9
 20
27
 11
-9
 21
0
  0
LINE
  8
0
  6
CONTINUOUS
 62
     7
 10
-9
 20
27
 11
-9
 21
0
  0
LINE
  8
0
  6
CONTINUOUS
 62
     7
 10
-9
 20
27.000002
 11
-6.5884581
 21
31.176914
  0
LINE
  8
0
  6
CENTER
 62
     7
 10
-35.678394
 20
0
 11
4.5181813
 21
0
  0
LINE
  8
0
  6
CONTINUOUS
 62
     7
 10
-32
 20
20.800001
 11
-29.20813
 21
23.591873
  0
LINE
  8
0
  6
CONTINUOUS
 62
     7
 10
-29.208128
 20
23.591871
 11
-9.7738581
 21
24.199192
  0
LINE
  8
0
  6
CONTINUOUS
 62
     7
 10
-30.734838
 20
22.065163
 11
-11.079476
 21
22.679392
  0
LINE
  8
0
  6
CONTINUOUS
 62
     7
 10
-9
 20
25.1
 11
-11.079476
 21
22.679392
  0
LINE
  8
0
  6
CONTINUOUS
 62
     7
 10
-30.734838
 20
22.065161
 11
-30.734838
 21
0
  0
LINE
  8
0
  6
CONTINUOUS
 62
     7
 10
-29.208128
 20
23.591871
 11
-29.208128
 21
0
  0
LINE
  8
0
  6
CONTINUOUS
 62
     7
 10
-11.079476
 20
24.158392
 11
-11.079476
 21
0
  0
LINE
  8
0
  6
CONTINUOUS
 62
     7
 10
-9
 20
-27.000002
 11
-6.5884581
 21
-31.176914
  0
LINE
  8
0
  6
CONTINUOUS
 62
     7
 10
-6.5884571
 20
-31.176914
 11
0
 21
-31.176914
  0
LINE
  8
0
  6
CONTINUOUS
 62
     7
 10
-32
 20
-20.800001
 11
-29.20813
 21
-23.591873
  0
LINE
  8
0
  6
CONTINUOUS
 62
     7
 10
-29.208128
 20
-23.591871
 11
-29.208128
 21
0
  0
LINE
  8
0
  6
CONTINUOUS
 62
     7
 10
-9
 20
-25.1
 11
-11.079476
 21
-22.679392
  0
LINE
  8
0
  6
CONTINUOUS
 62
     7
 10
-9
 20
-27
 11
-9
 21
0
  0
LINE
  8
0
  6
CONTINUOUS
 62
     7
 10
-6.5884571
 20
-15.588457
 11
0
 21
-15.588457
  0
LINE
  8
0
  6
CONTINUOUS
 62
     7
 10
-32
 20
-20.799999
 11
-32
 21
0
  0
LINE
  8
0
  6
CONTINUOUS
 62
     7
 10
0
 20
-31.176914
 11
0
 21
0
  0
LINE
  8
0
  6
CONTINUOUS
 62
     7
 10
-29.208128
 20
-23.591871
 11
-9.7738581
 21
-24.199192
  0
LINE
  8
0
  6
CONTINUOUS
 62
     7
 10
-30.734838
 20
-22.065161
 11
-30.734838
 21
0
  0
LINE
  8
0
  6
CONTINUOUS
 62
     7
 10
-30.734838
 20
-22.065163
 11
-11.079476
 21
-22.679392
  0
LINE
  8
0
  6
CONTINUOUS
 62
     7
 10
-11.079476
 20
-24.158392
 11
-11.079476
 21
0
  0
ARC
  8
0
  6
CONTINUOUS
 62
     7
 10
4.8014426
 20
23.382687
 40
13.801443
 50
145.61575
 51
214.38424
  0
ARC
  8
0
  6
CONTINUOUS
 62
     7
 10
42.588459
 20
1.5987212E-014
 40
51.588459
 50
162.41205
 51
197.58795
  0
ARC
  8
0
  6
CONTINUOUS
 62
     7
 10
4.8014426
 20
-23.382687
 40
13.801443
 50
145.61575
 51
214.38424
  0
TEXT
  8
0
  6
CONTINUOUS
 62
     7
 10
-31.819296
 20
34.499586
 40
3.2
 41
0.8455654
  1
１１／２×３／４
  0
ENDBLK
  8
0
  0
BLOCK
  8
0
  2
KOZU18
 70
    64
 10
0
 20
0
  0
POINT
  8
0
  6
CONTINUOUS
 62
     7
 10
0
 20
0
  0
POINT
  8
0
  6
CONTINUOUS
 62
     7
 10
0
 20
0
  0
POINT
  8
0
  6
CONTINUOUS
 62
     7
 10
-9
 20
25.1
  0
LINE
  8
0
  6
CONTINUOUS
 62
     7
 10
-6.5884571
 20
31.176914
 11
0
 21
31.176914
  0
LINE
  8
0
  6
CONTINUOUS
 62
     7
 10
-6.5884571
 20
15.588457
 11
0
 21
15.588457
  0
LINE
  8
0
  6
CONTINUOUS
 62
     7
 10
0
 20
31.176914
 11
0
 21
0
  0
LINE
  8
0
  6
CONTINUOUS
 62
     7
 10
-32
 20
20.799999
 11
-32
 21
0
  0
LINE
  8
0
  6
CONTINUOUS
 62
     7
 10
-9
 20
27
 11
-9
 21
0
  0
LINE
  8
0
  6
CONTINUOUS
 62
     7
 10
-9
 20
27
 11
-9
 21
0
  0
LINE
  8
0
  6
CONTINUOUS
 62
     7
 10
-9
 20
27.000002
 11
-6.5884581
 21
31.176914
  0
LINE
  8
0
  6
CENTER
 62
     7
 10
-35.678394
 20
0
 11
4.5181813
 21
0
  0
LINE
  8
0
  6
CONTINUOUS
 62
     7
 10
-32
 20
20.800001
 11
-29.20813
 21
23.591873
  0
LINE
  8
0
  6
CONTINUOUS
 62
     7
 10
-29.208128
 20
23.591871
 11
-9.7738581
 21
24.199192
  0
LINE
  8
0
  6
CONTINUOUS
 62
     7
 10
-30.734838
 20
22.065163
 11
-11.079476
 21
22.679392
  0
LINE
  8
0
  6
CONTINUOUS
 62
     7
 10
-9
 20
25.1
 11
-11.079476
 21
22.679392
  0
LINE
  8
0
  6
CONTINUOUS
 62
     7
 10
-30.734838
 20
22.065161
 11
-30.734838
 21
0
  0
LINE
  8
0
  6
CONTINUOUS
 62
     7
 10
-29.208128
 20
23.591871
 11
-29.208128
 21
0
  0
LINE
  8
0
  6
CONTINUOUS
 62
     7
 10
-11.079476
 20
24.158392
 11
-11.079476
 21
0
  0
LINE
  8
0
  6
CONTINUOUS
 62
     7
 10
-9
 20
-27.000002
 11
-6.5884581
 21
-31.176914
  0
LINE
  8
0
  6
CONTINUOUS
 62
     7
 10
-6.5884571
 20
-31.176914
 11
0
 21
-31.176914
  0
LINE
  8
0
  6
CONTINUOUS
 62
     7
 10
-32
 20
-20.800001
 11
-29.20813
 21
-23.591873
  0
LINE
  8
0
  6
CONTINUOUS
 62
     7
 10
-29.208128
 20
-23.591871
 11
-29.208128
 21
0
  0
LINE
  8
0
  6
CONTINUOUS
 62
     7
 10
-9
 20
-25.1
 11
-11.079476
 21
-22.679392
  0
LINE
  8
0
  6
CONTINUOUS
 62
     7
 10
-9
 20
-27
 11
-9
 21
0
  0
LINE
  8
0
  6
CONTINUOUS
 62
     7
 10
-6.5884571
 20
-15.588457
 11
0
 21
-15.588457
  0
LINE
  8
0
  6
CONTINUOUS
 62
     7
 10
-32
 20
-20.799999
 11
-32
 21
0
  0
LINE
  8
0
  6
CONTINUOUS
 62
     7
 10
0
 20
-31.176914
 11
0
 21
0
  0
LINE
  8
0
  6
CONTINUOUS
 62
     7
 10
-29.208128
 20
-23.591871
 11
-9.7738581
 21
-24.199192
  0
LINE
  8
0
  6
CONTINUOUS
 62
     7
 10
-30.734838
 20
-22.065161
 11
-30.734838
 21
0
  0
LINE
  8
0
  6
CONTINUOUS
 62
     7
 10
-30.734838
 20
-22.065163
 11
-11.079476
 21
-22.679392
  0
LINE
  8
0
  6
CONTINUOUS
 62
     7
 10
-11.079476
 20
-24.158392
 11
-11.079476
 21
0
  0
ARC
  8
0
  6
CONTINUOUS
 62
     7
 10
4.8014426
 20
23.382687
 40
13.801443
 50
145.61575
 51
214.38424
  0
ARC
  8
0
  6
CONTINUOUS
 62
     7
 10
42.588459
 20
1.4210855E-014
 40
51.588459
 50
162.41205
 51
197.58795
  0
ARC
  8
0
  6
CONTINUOUS
 62
     7
 10
4.8014426
 20
-23.382687
 40
13.801443
 50
145.61575
 51
214.38424
  0
TEXT
  8
0
  6
CONTINUOUS
 62
     7
 10
-31.819296
 20
34.499586
 40
3.2
 41
0.84741102
  1
１１／２×１
  0
ENDBLK
  8
0
  0
BLOCK
  8
0
  2
KOZU19
 70
    64
 10
0
 20
0
  0
POINT
  8
0
  6
CONTINUOUS
 62
     7
 10
0
 20
0
  0
POINT
  8
0
  6
CONTINUOUS
 62
     7
 10
0
 20
0
  0
POINT
  8
0
  6
CONTINUOUS
 62
     7
 10
-9
 20
25.1
  0
LINE
  8
0
  6
CONTINUOUS
 62
     7
 10
-6.5884571
 20
31.176914
 11
0
 21
31.176914
  0
LINE
  8
0
  6
CONTINUOUS
 62
     7
 10
-6.5884571
 20
15.588457
 11
0
 21
15.588457
  0
LINE
  8
0
  6
CONTINUOUS
 62
     7
 10
0
 20
31.176914
 11
0
 21
0
  0
LINE
  8
0
  6
CONTINUOUS
 62
     7
 10
-32
 20
20.799999
 11
-32
 21
0
  0
LINE
  8
0
  6
CONTINUOUS
 62
     7
 10
-9
 20
27
 11
-9
 21
0
  0
LINE
  8
0
  6
CONTINUOUS
 62
     7
 10
-9
 20
27
 11
-9
 21
0
  0
LINE
  8
0
  6
CONTINUOUS
 62
     7
 10
-9
 20
27.000002
 11
-6.5884581
 21
31.176914
  0
LINE
  8
0
  6
CENTER
 62
     7
 10
-35.678394
 20
0
 11
4.5181813
 21
0
  0
LINE
  8
0
  6
CONTINUOUS
 62
     7
 10
-32
 20
20.800001
 11
-29.20813
 21
23.591873
  0
LINE
  8
0
  6
CONTINUOUS
 62
     7
 10
-29.208128
 20
23.591871
 11
-9.7738581
 21
24.199192
  0
LINE
  8
0
  6
CONTINUOUS
 62
     7
 10
-30.734838
 20
22.065163
 11
-11.079476
 21
22.679392
  0
LINE
  8
0
  6
CONTINUOUS
 62
     7
 10
-9
 20
25.1
 11
-11.079476
 21
22.679392
  0
LINE
  8
0
  6
CONTINUOUS
 62
     7
 10
-30.734838
 20
22.065161
 11
-30.734838
 21
0
  0
LINE
  8
0
  6
CONTINUOUS
 62
     7
 10
-29.208128
 20
23.591871
 11
-29.208128
 21
0
  0
LINE
  8
0
  6
CONTINUOUS
 62
     7
 10
-11.079476
 20
24.158392
 11
-11.079476
 21
0
  0
LINE
  8
0
  6
CONTINUOUS
 62
     7
 10
-9
 20
-27.000002
 11
-6.5884581
 21
-31.176914
  0
LINE
  8
0
  6
CONTINUOUS
 62
     7
 10
-6.5884571
 20
-31.176914
 11
0
 21
-31.176914
  0
LINE
  8
0
  6
CONTINUOUS
 62
     7
 10
-32
 20
-20.800001
 11
-29.20813
 21
-23.591873
  0
LINE
  8
0
  6
CONTINUOUS
 62
     7
 10
-29.208128
 20
-23.591871
 11
-29.208128
 21
0
  0
LINE
  8
0
  6
CONTINUOUS
 62
     7
 10
-9
 20
-25.1
 11
-11.079476
 21
-22.679392
  0
LINE
  8
0
  6
CONTINUOUS
 62
     7
 10
-9
 20
-27
 11
-9
 21
0
  0
LINE
  8
0
  6
CONTINUOUS
 62
     7
 10
-6.5884571
 20
-15.588457
 11
0
 21
-15.588457
  0
LINE
  8
0
  6
CONTINUOUS
 62
     7
 10
-32
 20
-20.799999
 11
-32
 21
0
  0
LINE
  8
0
  6
CONTINUOUS
 62
     7
 10
0
 20
-31.176914
 11
0
 21
0
  0
LINE
  8
0
  6
CONTINUOUS
 62
     7
 10
-29.208128
 20
-23.591871
 11
-9.7738581
 21
-24.199192
  0
LINE
  8
0
  6
CONTINUOUS
 62
     7
 10
-30.734838
 20
-22.065161
 11
-30.734838
 21
0
  0
LINE
  8
0
  6
CONTINUOUS
 62
     7
 10
-30.734838
 20
-22.065163
 11
-11.079476
 21
-22.679392
  0
LINE
  8
0
  6
CONTINUOUS
 62
     7
 10
-11.079476
 20
-24.158392
 11
-11.079476
 21
0
  0
ARC
  8
0
  6
CONTINUOUS
 62
     7
 10
4.8014426
 20
23.382687
 40
13.801443
 50
145.61575
 51
214.38424
  0
ARC
  8
0
  6
CONTINUOUS
 62
     7
 10
42.588459
 20
1.4210855E-014
 40
51.588459
 50
162.41205
 51
197.58795
  0
ARC
  8
0
  6
CONTINUOUS
 62
     7
 10
4.8014426
 20
-23.382687
 40
13.801443
 50
145.61575
 51
214.38424
  0
TEXT
  8
0
  6
CONTINUOUS
 62
     7
 10
-31.819296
 20
34.499586
 40
3.2
 41
0.84496202
  1
１１／２×１１／４
  0
ENDBLK
  8
0
  0
BLOCK
  8
0
  2
KOZU20
 70
    64
 10
0
 20
0
  0
POINT
  8
0
  6
CONTINUOUS
 62
     7
 10
0
 20
0
  0
POINT
  8
0
  6
CONTINUOUS
 62
     7
 10
-36
 20
30.4
  0
POINT
  8
0
  6
CONTINUOUS
 62
     7
 10
-11
 20
31.200001
  0
POINT
  8
0
  6
CONTINUOUS
 62
     7
 10
0
 20
0
  0
POINT
  8
0
  6
CONTINUOUS
 62
     7
 10
0
 20
0
  0
POINT
  8
0
  6
CONTINUOUS
 62
     7
 10
-36
 20
-30.4
  0
POINT
  8
0
  6
CONTINUOUS
 62
     7
 10
-11
 20
-31.200001
  0
POINT
  8
0
  6
CONTINUOUS
 62
     7
 10
0
 20
0
  0
LINE
  8
0
  6
CENTER
 62
     7
 10
-39.629547
 20
0
 11
4.3442984
 21
0
  0
LINE
  8
0
  6
CONTINUOUS
 62
     7
 10
-9.5015717
 20
34.095356
 11
0
 21
34.095356
  0
LINE
  8
0
  6
CONTINUOUS
 62
     7
 10
-9.5015717
 20
34.095356
 11
0
 21
34.095356
  0
LINE
  8
0
  6
CONTINUOUS
 62
     7
 10
-9.5015717
 20
24.109056
 11
0
 21
24.109056
  0
LINE
  8
0
  6
CONTINUOUS
 62
     7
 10
0
 20
34.095356
 11
0
 21
0
  0
LINE
  8
0
  6
CONTINUOUS
 62
     7
 10
-36
 20
26.4
 11
-36
 21
0
  0
LINE
  8
0
  6
CONTINUOUS
 62
     7
 10
-11
 20
31.5
 11
-11
 21
0
  0
LINE
  8
0
  6
CONTINUOUS
 62
     7
 10
-11
 20
31.5
 11
-9.5015717
 21
34.095356
  0
LINE
  8
0
  6
CONTINUOUS
 62
     7
 10
-36
 20
26.4
 11
-32.995354
 21
29.404646
  0
LINE
  8
0
  6
CONTINUOUS
 62
     7
 10
-32.995358
 20
29.404646
 11
-12.31551
 21
30.050892
  0
LINE
  8
0
  6
CONTINUOUS
 62
     7
 10
-34.522064
 20
27.877935
 11
-14.071503
 21
28.517015
  0
LINE
  8
0
  6
CONTINUOUS
 62
     7
 10
-34.522064
 20
27.877935
 11
-34.522064
 21
0
  0
LINE
  8
0
  6
CONTINUOUS
 62
     7
 10
-32.995354
 20
29.404646
 11
-32.995354
 21
0
  0
LINE
  8
0
  6
CONTINUOUS
 62
     7
 10
-11
 20
31.199999
 11
-14.071502
 21
28.517015
  0
LINE
  8
0
  6
CONTINUOUS
 62
     7
 10
-14.071502
 20
29.996016
 11
-14.071502
 21
0
  0
LINE
  8
0
  6
CONTINUOUS
 62
     7
 10
-9.5015717
 20
0
 11
0
 21
0
  0
LINE
  8
0
  6
CENTER
 62
     7
 10
-39.629547
 20
0
 11
4.3442984
 21
0
  0
LINE
  8
0
  6
CONTINUOUS
 62
     7
 10
-34.522064
 20
-27.877935
 11
-34.522064
 21
0
  0
LINE
  8
0
  6
CONTINUOUS
 62
     7
 10
-9.5015717
 20
-34.095356
 11
0
 21
-34.095356
  0
LINE
  8
0
  6
CONTINUOUS
 62
     7
 10
-32.995358
 20
-29.404646
 11
-12.31551
 21
-30.050892
  0
LINE
  8
0
  6
CONTINUOUS
 62
     7
 10
-9.5015717
 20
-34.095356
 11
0
 21
-34.095356
  0
LINE
  8
0
  6
CONTINUOUS
 62
     7
 10
-11
 20
-31.5
 11
-9.5015717
 21
-34.095356
  0
LINE
  8
0
  6
CONTINUOUS
 62
     7
 10
-9.5015717
 20
-24.109056
 11
0
 21
-24.109056
  0
LINE
  8
0
  6
CONTINUOUS
 62
     7
 10
-11
 20
-31.5
 11
-11
 21
0
  0
LINE
  8
0
  6
CONTINUOUS
 62
     7
 10
-14.071502
 20
-29.996016
 11
-14.071502
 21
0
  0
LINE
  8
0
  6
CONTINUOUS
 62
     7
 10
-36
 20
-26.4
 11
-36
 21
0
  0
LINE
  8
0
  6
CONTINUOUS
 62
     7
 10
0
 20
-34.095356
 11
0
 21
0
  0
LINE
  8
0
  6
CONTINUOUS
 62
     7
 10
-36
 20
-26.4
 11
-32.995354
 21
-29.404646
  0
LINE
  8
0
  6
CONTINUOUS
 62
     7
 10
-11
 20
-31.199999
 11
-14.071502
 21
-28.517015
  0
LINE
  8
0
  6
CONTINUOUS
 62
     7
 10
-32.995354
 20
-29.404646
 11
-32.995354
 21
0
  0
LINE
  8
0
  6
CONTINUOUS
 62
     7
 10
-34.522064
 20
-27.877935
 11
-14.071503
 21
-28.517015
  0
LINE
  8
0
  6
CONTINUOUS
 62
     7
 10
-9.5015717
 20
0
 11
0
 21
0
  0
ARC
  8
0
  6
CONTINUOUS
 62
     7
 10
-1.9315575
 20
29.102205
 40
9.0684423
 50
146.59132
 51
213.40867
  0
ARC
  8
0
  6
CONTINUOUS
 62
     7
 10
38.237228
 20
12.054528
 40
49.237228
 50
165.82848
 51
194.17151
  0
ARC
  8
0
  6
CONTINUOUS
 62
     7
 10
-1.9315575
 20
-29.102205
 40
9.0684423
 50
146.59132
 51
213.40867
  0
ARC
  8
0
  6
CONTINUOUS
 62
     7
 10
38.237228
 20
-12.054528
 40
49.237228
 50
165.82848
 51
194.17151
  0
TEXT
  8
0
  6
CONTINUOUS
 62
     7
 10
-34.147665
 20
40.510249
 40
3.2
 41
0.84892707
  1
２×１／２
  0
ENDBLK
  8
0
  0
BLOCK
  8
0
  2
KOZU21
 70
    64
 10
0
 20
0
  0
POINT
  8
0
  6
CONTINUOUS
 62
     7
 10
0
 20
0
  0
POINT
  8
0
  6
CONTINUOUS
 62
     7
 10
0
 20
0
  0
POINT
  8
0
  6
CONTINUOUS
 62
     7
 10
-36
 20
30.4
  0
POINT
  8
0
  6
CONTINUOUS
 62
     7
 10
-11
 20
31.200001
  0
POINT
  8
0
  6
CONTINUOUS
 62
     7
 10
0
 20
0
  0
POINT
  8
0
  6
CONTINUOUS
 62
     7
 10
0
 20
0
  0
POINT
  8
0
  6
CONTINUOUS
 62
     7
 10
-36
 20
-30.4
  0
POINT
  8
0
  6
CONTINUOUS
 62
     7
 10
-11
 20
-31.200001
  0
POINT
  8
0
  6
CONTINUOUS
 62
     7
 10
0
 20
0
  0
LINE
  8
0
  6
CENTER
 62
     7
 10
-39.629547
 20
0
 11
4.3442984
 21
0
  0
LINE
  8
0
  6
CONTINUOUS
 62
     7
 10
-9.5015717
 20
34.095356
 11
0
 21
34.095356
  0
LINE
  8
0
  6
CONTINUOUS
 62
     7
 10
-9.5015717
 20
34.095356
 11
0
 21
34.095356
  0
LINE
  8
0
  6
CONTINUOUS
 62
     7
 10
-9.5015717
 20
24.109056
 11
0
 21
24.109056
  0
LINE
  8
0
  6
CONTINUOUS
 62
     7
 10
0
 20
34.095356
 11
0
 21
0
  0
LINE
  8
0
  6
CONTINUOUS
 62
     7
 10
-36
 20
26.4
 11
-36
 21
0
  0
LINE
  8
0
  6
CONTINUOUS
 62
     7
 10
-11
 20
31.5
 11
-11
 21
0
  0
LINE
  8
0
  6
CONTINUOUS
 62
     7
 10
-11
 20
31.5
 11
-9.5015717
 21
34.095356
  0
LINE
  8
0
  6
CONTINUOUS
 62
     7
 10
-36
 20
26.4
 11
-32.995354
 21
29.404646
  0
LINE
  8
0
  6
CONTINUOUS
 62
     7
 10
-32.995358
 20
29.404646
 11
-12.31551
 21
30.050892
  0
LINE
  8
0
  6
CONTINUOUS
 62
     7
 10
-34.522064
 20
27.877935
 11
-14.071503
 21
28.517015
  0
LINE
  8
0
  6
CONTINUOUS
 62
     7
 10
-34.522064
 20
27.877935
 11
-34.522064
 21
0
  0
LINE
  8
0
  6
CONTINUOUS
 62
     7
 10
-32.995354
 20
29.404646
 11
-32.995354
 21
0
  0
LINE
  8
0
  6
CONTINUOUS
 62
     7
 10
-11
 20
31.199999
 11
-14.071502
 21
28.517015
  0
LINE
  8
0
  6
CONTINUOUS
 62
     7
 10
-14.071502
 20
29.996016
 11
-14.071502
 21
0
  0
LINE
  8
0
  6
CONTINUOUS
 62
     7
 10
-9.5015717
 20
0
 11
0
 21
0
  0
LINE
  8
0
  6
CENTER
 62
     7
 10
-39.629547
 20
0
 11
4.3442984
 21
0
  0
LINE
  8
0
  6
CONTINUOUS
 62
     7
 10
-34.522064
 20
-27.877935
 11
-34.522064
 21
0
  0
LINE
  8
0
  6
CONTINUOUS
 62
     7
 10
-9.5015717
 20
-34.095356
 11
0
 21
-34.095356
  0
LINE
  8
0
  6
CONTINUOUS
 62
     7
 10
-32.995358
 20
-29.404646
 11
-12.31551
 21
-30.050892
  0
LINE
  8
0
  6
CONTINUOUS
 62
     7
 10
-9.5015717
 20
-34.095356
 11
0
 21
-34.095356
  0
LINE
  8
0
  6
CONTINUOUS
 62
     7
 10
-11
 20
-31.5
 11
-9.5015717
 21
-34.095356
  0
LINE
  8
0
  6
CONTINUOUS
 62
     7
 10
-9.5015717
 20
-24.109056
 11
0
 21
-24.109056
  0
LINE
  8
0
  6
CONTINUOUS
 62
     7
 10
-11
 20
-31.5
 11
-11
 21
0
  0
LINE
  8
0
  6
CONTINUOUS
 62
     7
 10
-14.071502
 20
-29.996016
 11
-14.071502
 21
0
  0
LINE
  8
0
  6
CONTINUOUS
 62
     7
 10
-36
 20
-26.4
 11
-36
 21
0
  0
LINE
  8
0
  6
CONTINUOUS
 62
     7
 10
0
 20
-34.095356
 11
0
 21
0
  0
LINE
  8
0
  6
CONTINUOUS
 62
     7
 10
-36
 20
-26.4
 11
-32.995354
 21
-29.404646
  0
LINE
  8
0
  6
CONTINUOUS
 62
     7
 10
-11
 20
-31.199999
 11
-14.071502
 21
-28.517015
  0
LINE
  8
0
  6
CONTINUOUS
 62
     7
 10
-32.995354
 20
-29.404646
 11
-32.995354
 21
0
  0
LINE
  8
0
  6
CONTINUOUS
 62
     7
 10
-34.522064
 20
-27.877935
 11
-14.071503
 21
-28.517015
  0
LINE
  8
0
  6
CONTINUOUS
 62
     7
 10
-9.5015717
 20
0
 11
0
 21
0
  0
ARC
  8
0
  6
CONTINUOUS
 62
     7
 10
-1.9315575
 20
29.102205
 40
9.0684423
 50
146.59132
 51
213.40867
  0
ARC
  8
0
  6
CONTINUOUS
 62
     7
 10
38.237228
 20
12.054528
 40
49.237228
 50
165.82848
 51
194.17151
  0
ARC
  8
0
  6
CONTINUOUS
 62
     7
 10
-1.9315575
 20
-29.102205
 40
9.0684423
 50
146.59132
 51
213.40867
  0
ARC
  8
0
  6
CONTINUOUS
 62
     7
 10
38.237228
 20
-12.054528
 40
49.237228
 50
165.82848
 51
194.17151
  0
TEXT
  8
0
  6
CONTINUOUS
 62
     7
 10
-34.147665
 20
40.510249
 40
3.2
 41
0.84892707
  1
２×３／４
  0
ENDBLK
  8
0
  0
BLOCK
  8
0
  2
KOZU22
 70
    64
 10
0
 20
0
  0
POINT
  8
0
  6
CONTINUOUS
 62
     7
 10
0
 20
0
  0
POINT
  8
0
  6
CONTINUOUS
 62
     7
 10
0
 20
0
  0
POINT
  8
0
  6
CONTINUOUS
 62
     7
 10
-36
 20
30.4
  0
POINT
  8
0
  6
CONTINUOUS
 62
     7
 10
-11
 20
31.200001
  0
POINT
  8
0
  6
CONTINUOUS
 62
     7
 10
0
 20
0
  0
POINT
  8
0
  6
CONTINUOUS
 62
     7
 10
0
 20
0
  0
POINT
  8
0
  6
CONTINUOUS
 62
     7
 10
-36
 20
-30.4
  0
POINT
  8
0
  6
CONTINUOUS
 62
     7
 10
-11
 20
-31.200001
  0
POINT
  8
0
  6
CONTINUOUS
 62
     7
 10
0
 20
0
  0
LINE
  8
0
  6
CENTER
 62
     7
 10
-39.629547
 20
0
 11
4.3442984
 21
0
  0
LINE
  8
0
  6
CONTINUOUS
 62
     7
 10
-9.5015717
 20
34.095356
 11
0
 21
34.095356
  0
LINE
  8
0
  6
CONTINUOUS
 62
     7
 10
-9.5015717
 20
34.095356
 11
0
 21
34.095356
  0
LINE
  8
0
  6
CONTINUOUS
 62
     7
 10
-9.5015717
 20
24.109056
 11
0
 21
24.109056
  0
LINE
  8
0
  6
CONTINUOUS
 62
     7
 10
0
 20
34.095356
 11
0
 21
0
  0
LINE
  8
0
  6
CONTINUOUS
 62
     7
 10
-36
 20
26.4
 11
-36
 21
0
  0
LINE
  8
0
  6
CONTINUOUS
 62
     7
 10
-11
 20
31.5
 11
-11
 21
0
  0
LINE
  8
0
  6
CONTINUOUS
 62
     7
 10
-11
 20
31.5
 11
-9.5015717
 21
34.095356
  0
LINE
  8
0
  6
CONTINUOUS
 62
     7
 10
-36
 20
26.4
 11
-32.995354
 21
29.404646
  0
LINE
  8
0
  6
CONTINUOUS
 62
     7
 10
-32.995358
 20
29.404646
 11
-12.31551
 21
30.050892
  0
LINE
  8
0
  6
CONTINUOUS
 62
     7
 10
-34.522064
 20
27.877935
 11
-14.071503
 21
28.517015
  0
LINE
  8
0
  6
CONTINUOUS
 62
     7
 10
-34.522064
 20
27.877935
 11
-34.522064
 21
0
  0
LINE
  8
0
  6
CONTINUOUS
 62
     7
 10
-32.995354
 20
29.404646
 11
-32.995354
 21
0
  0
LINE
  8
0
  6
CONTINUOUS
 62
     7
 10
-11
 20
31.199999
 11
-14.071502
 21
28.517015
  0
LINE
  8
0
  6
CONTINUOUS
 62
     7
 10
-14.071502
 20
29.996016
 11
-14.071502
 21
0
  0
LINE
  8
0
  6
CONTINUOUS
 62
     7
 10
-9.5015717
 20
0
 11
0
 21
0
  0
LINE
  8
0
  6
CENTER
 62
     7
 10
-39.629547
 20
0
 11
4.3442984
 21
0
  0
LINE
  8
0
  6
CONTINUOUS
 62
     7
 10
-34.522064
 20
-27.877935
 11
-34.522064
 21
0
  0
LINE
  8
0
  6
CONTINUOUS
 62
     7
 10
-9.5015717
 20
-34.095356
 11
0
 21
-34.095356
  0
LINE
  8
0
  6
CONTINUOUS
 62
     7
 10
-32.995358
 20
-29.404646
 11
-12.31551
 21
-30.050892
  0
LINE
  8
0
  6
CONTINUOUS
 62
     7
 10
-9.5015717
 20
-34.095356
 11
0
 21
-34.095356
  0
LINE
  8
0
  6
CONTINUOUS
 62
     7
 10
-11
 20
-31.5
 11
-9.5015717
 21
-34.095356
  0
LINE
  8
0
  6
CONTINUOUS
 62
     7
 10
-9.5015717
 20
-24.109056
 11
0
 21
-24.109056
  0
LINE
  8
0
  6
CONTINUOUS
 62
     7
 10
-11
 20
-31.5
 11
-11
 21
0
  0
LINE
  8
0
  6
CONTINUOUS
 62
     7
 10
-14.071502
 20
-29.996016
 11
-14.071502
 21
0
  0
LINE
  8
0
  6
CONTINUOUS
 62
     7
 10
-36
 20
-26.4
 11
-36
 21
0
  0
LINE
  8
0
  6
CONTINUOUS
 62
     7
 10
0
 20
-34.095356
 11
0
 21
0
  0
LINE
  8
0
  6
CONTINUOUS
 62
     7
 10
-36
 20
-26.4
 11
-32.995354
 21
-29.404646
  0
LINE
  8
0
  6
CONTINUOUS
 62
     7
 10
-11
 20
-31.199999
 11
-14.071502
 21
-28.517015
  0
LINE
  8
0
  6
CONTINUOUS
 62
     7
 10
-32.995354
 20
-29.404646
 11
-32.995354
 21
0
  0
LINE
  8
0
  6
CONTINUOUS
 62
     7
 10
-34.522064
 20
-27.877935
 11
-14.071503
 21
-28.517015
  0
LINE
  8
0
  6
CONTINUOUS
 62
     7
 10
-9.5015717
 20
0
 11
0
 21
0
  0
ARC
  8
0
  6
CONTINUOUS
 62
     7
 10
-1.9315575
 20
29.102205
 40
9.0684423
 50
146.59132
 51
213.40867
  0
ARC
  8
0
  6
CONTINUOUS
 62
     7
 10
38.237228
 20
12.054528
 40
49.237228
 50
165.82848
 51
194.17151
  0
ARC
  8
0
  6
CONTINUOUS
 62
     7
 10
-1.9315575
 20
-29.102205
 40
9.0684423
 50
146.59132
 51
213.40867
  0
ARC
  8
0
  6
CONTINUOUS
 62
     7
 10
38.237228
 20
-12.054528
 40
49.237228
 50
165.82848
 51
194.17151
  0
TEXT
  8
0
  6
CONTINUOUS
 62
     7
 10
-34.147665
 20
40.510249
 40
3.2
 41
0.85537027
  1
２×１
  0
ENDBLK
  8
0
  0
BLOCK
  8
0
  2
KOZU23
 70
    64
 10
0
 20
0
  0
POINT
  8
0
  6
CONTINUOUS
 62
     7
 10
0
 20
0
  0
POINT
  8
0
  6
CONTINUOUS
 62
     7
 10
0
 20
0
  0
POINT
  8
0
  6
CONTINUOUS
 62
     7
 10
-36
 20
30.4
  0
POINT
  8
0
  6
CONTINUOUS
 62
     7
 10
-11
 20
31.200001
  0
POINT
  8
0
  6
CONTINUOUS
 62
     7
 10
0
 20
0
  0
POINT
  8
0
  6
CONTINUOUS
 62
     7
 10
0
 20
0
  0
POINT
  8
0
  6
CONTINUOUS
 62
     7
 10
-36
 20
-30.4
  0
POINT
  8
0
  6
CONTINUOUS
 62
     7
 10
-11
 20
-31.200001
  0
POINT
  8
0
  6
CONTINUOUS
 62
     7
 10
0
 20
0
  0
LINE
  8
0
  6
CENTER
 62
     7
 10
-39.629547
 20
0
 11
4.3442984
 21
0
  0
LINE
  8
0
  6
CONTINUOUS
 62
     7
 10
-9.5015717
 20
34.095356
 11
0
 21
34.095356
  0
LINE
  8
0
  6
CONTINUOUS
 62
     7
 10
-9.5015717
 20
34.095356
 11
0
 21
34.095356
  0
LINE
  8
0
  6
CONTINUOUS
 62
     7
 10
-9.5015717
 20
24.109056
 11
0
 21
24.109056
  0
LINE
  8
0
  6
CONTINUOUS
 62
     7
 10
0
 20
34.095356
 11
0
 21
0
  0
LINE
  8
0
  6
CONTINUOUS
 62
     7
 10
-36
 20
26.4
 11
-36
 21
0
  0
LINE
  8
0
  6
CONTINUOUS
 62
     7
 10
-11
 20
31.5
 11
-11
 21
0
  0
LINE
  8
0
  6
CONTINUOUS
 62
     7
 10
-11
 20
31.5
 11
-9.5015717
 21
34.095356
  0
LINE
  8
0
  6
CONTINUOUS
 62
     7
 10
-36
 20
26.4
 11
-32.995354
 21
29.404646
  0
LINE
  8
0
  6
CONTINUOUS
 62
     7
 10
-32.995358
 20
29.404646
 11
-12.31551
 21
30.050892
  0
LINE
  8
0
  6
CONTINUOUS
 62
     7
 10
-34.522064
 20
27.877935
 11
-14.071503
 21
28.517015
  0
LINE
  8
0
  6
CONTINUOUS
 62
     7
 10
-34.522064
 20
27.877935
 11
-34.522064
 21
0
  0
LINE
  8
0
  6
CONTINUOUS
 62
     7
 10
-32.995354
 20
29.404646
 11
-32.995354
 21
0
  0
LINE
  8
0
  6
CONTINUOUS
 62
     7
 10
-11
 20
31.199999
 11
-14.071502
 21
28.517015
  0
LINE
  8
0
  6
CONTINUOUS
 62
     7
 10
-14.071502
 20
29.996016
 11
-14.071502
 21
0
  0
LINE
  8
0
  6
CONTINUOUS
 62
     7
 10
-9.5015717
 20
0
 11
0
 21
0
  0
LINE
  8
0
  6
CENTER
 62
     7
 10
-39.629547
 20
0
 11
4.3442984
 21
0
  0
LINE
  8
0
  6
CONTINUOUS
 62
     7
 10
-34.522064
 20
-27.877935
 11
-34.522064
 21
0
  0
LINE
  8
0
  6
CONTINUOUS
 62
     7
 10
-9.5015717
 20
-34.095356
 11
0
 21
-34.095356
  0
LINE
  8
0
  6
CONTINUOUS
 62
     7
 10
-32.995358
 20
-29.404646
 11
-12.31551
 21
-30.050892
  0
LINE
  8
0
  6
CONTINUOUS
 62
     7
 10
-9.5015717
 20
-34.095356
 11
0
 21
-34.095356
  0
LINE
  8
0
  6
CONTINUOUS
 62
     7
 10
-11
 20
-31.5
 11
-9.5015717
 21
-34.095356
  0
LINE
  8
0
  6
CONTINUOUS
 62
     7
 10
-9.5015717
 20
-24.109056
 11
0
 21
-24.109056
  0
LINE
  8
0
  6
CONTINUOUS
 62
     7
 10
-11
 20
-31.5
 11
-11
 21
0
  0
LINE
  8
0
  6
CONTINUOUS
 62
     7
 10
-14.071502
 20
-29.996016
 11
-14.071502
 21
0
  0
LINE
  8
0
  6
CONTINUOUS
 62
     7
 10
-36
 20
-26.4
 11
-36
 21
0
  0
LINE
  8
0
  6
CONTINUOUS
 62
     7
 10
0
 20
-34.095356
 11
0
 21
0
  0
LINE
  8
0
  6
CONTINUOUS
 62
     7
 10
-36
 20
-26.4
 11
-32.995354
 21
-29.404646
  0
LINE
  8
0
  6
CONTINUOUS
 62
     7
 10
-11
 20
-31.199999
 11
-14.071502
 21
-28.517015
  0
LINE
  8
0
  6
CONTINUOUS
 62
     7
 10
-32.995354
 20
-29.404646
 11
-32.995354
 21
0
  0
LINE
  8
0
  6
CONTINUOUS
 62
     7
 10
-34.522064
 20
-27.877935
 11
-14.071503
 21
-28.517015
  0
LINE
  8
0
  6
CONTINUOUS
 62
     7
 10
-9.5015717
 20
0
 11
0
 21
0
  0
ARC
  8
0
  6
CONTINUOUS
 62
     7
 10
-1.9315575
 20
29.102205
 40
9.0684423
 50
146.59132
 51
213.40867
  0
ARC
  8
0
  6
CONTINUOUS
 62
     7
 10
38.237228
 20
12.054528
 40
49.237228
 50
165.82848
 51
194.17151
  0
ARC
  8
0
  6
CONTINUOUS
 62
     7
 10
-1.9315575
 20
-29.102205
 40
9.0684423
 50
146.59132
 51
213.40867
  0
ARC
  8
0
  6
CONTINUOUS
 62
     7
 10
38.237228
 20
-12.054528
 40
49.237228
 50
165.82848
 51
194.17151
  0
TEXT
  8
0
  6
CONTINUOUS
 62
     7
 10
-34.147665
 20
40.510249
 40
3.2
 41
0.84741102
  1
２×１１／４
  0
ENDBLK
  8
0
  0
BLOCK
  8
0
  2
KOZU24
 70
    64
 10
0
 20
0
  0
POINT
  8
0
  6
CONTINUOUS
 62
     7
 10
0
 20
0
  0
POINT
  8
0
  6
CONTINUOUS
 62
     7
 10
0
 20
0
  0
POINT
  8
0
  6
CONTINUOUS
 62
     7
 10
-36
 20
30.4
  0
POINT
  8
0
  6
CONTINUOUS
 62
     7
 10
-11
 20
31.200001
  0
POINT
  8
0
  6
CONTINUOUS
 62
     7
 10
0
 20
0
  0
POINT
  8
0
  6
CONTINUOUS
 62
     7
 10
0
 20
0
  0
POINT
  8
0
  6
CONTINUOUS
 62
     7
 10
-36
 20
-30.4
  0
POINT
  8
0
  6
CONTINUOUS
 62
     7
 10
-11
 20
-31.200001
  0
POINT
  8
0
  6
CONTINUOUS
 62
     7
 10
0
 20
0
  0
LINE
  8
0
  6
CENTER
 62
     7
 10
-39.629547
 20
0
 11
4.3442984
 21
0
  0
LINE
  8
0
  6
CONTINUOUS
 62
     7
 10
-9.5015717
 20
34.095356
 11
0
 21
34.095356
  0
LINE
  8
0
  6
CONTINUOUS
 62
     7
 10
-9.5015717
 20
34.095356
 11
0
 21
34.095356
  0
LINE
  8
0
  6
CONTINUOUS
 62
     7
 10
-9.5015717
 20
24.109056
 11
0
 21
24.109056
  0
LINE
  8
0
  6
CONTINUOUS
 62
     7
 10
0
 20
34.095356
 11
0
 21
0
  0
LINE
  8
0
  6
CONTINUOUS
 62
     7
 10
-36
 20
26.4
 11
-36
 21
0
  0
LINE
  8
0
  6
CONTINUOUS
 62
     7
 10
-11
 20
31.5
 11
-11
 21
0
  0
LINE
  8
0
  6
CONTINUOUS
 62
     7
 10
-11
 20
31.5
 11
-9.5015717
 21
34.095356
  0
LINE
  8
0
  6
CONTINUOUS
 62
     7
 10
-36
 20
26.4
 11
-32.995354
 21
29.404646
  0
LINE
  8
0
  6
CONTINUOUS
 62
     7
 10
-32.995358
 20
29.404646
 11
-12.31551
 21
30.050892
  0
LINE
  8
0
  6
CONTINUOUS
 62
     7
 10
-34.522064
 20
27.877935
 11
-14.071503
 21
28.517015
  0
LINE
  8
0
  6
CONTINUOUS
 62
     7
 10
-34.522064
 20
27.877935
 11
-34.522064
 21
0
  0
LINE
  8
0
  6
CONTINUOUS
 62
     7
 10
-32.995354
 20
29.404646
 11
-32.995354
 21
0
  0
LINE
  8
0
  6
CONTINUOUS
 62
     7
 10
-11
 20
31.199999
 11
-14.071502
 21
28.517015
  0
LINE
  8
0
  6
CONTINUOUS
 62
     7
 10
-14.071502
 20
29.996016
 11
-14.071502
 21
0
  0
LINE
  8
0
  6
CONTINUOUS
 62
     7
 10
-9.5015717
 20
0
 11
0
 21
0
  0
LINE
  8
0
  6
CENTER
 62
     7
 10
-39.629547
 20
0
 11
4.3442984
 21
0
  0
LINE
  8
0
  6
CONTINUOUS
 62
     7
 10
-34.522064
 20
-27.877935
 11
-34.522064
 21
0
  0
LINE
  8
0
  6
CONTINUOUS
 62
     7
 10
-9.5015717
 20
-34.095356
 11
0
 21
-34.095356
  0
LINE
  8
0
  6
CONTINUOUS
 62
     7
 10
-32.995358
 20
-29.404646
 11
-12.31551
 21
-30.050892
  0
LINE
  8
0
  6
CONTINUOUS
 62
     7
 10
-9.5015717
 20
-34.095356
 11
0
 21
-34.095356
  0
LINE
  8
0
  6
CONTINUOUS
 62
     7
 10
-11
 20
-31.5
 11
-9.5015717
 21
-34.095356
  0
LINE
  8
0
  6
CONTINUOUS
 62
     7
 10
-9.5015717
 20
-24.109056
 11
0
 21
-24.109056
  0
LINE
  8
0
  6
CONTINUOUS
 62
     7
 10
-11
 20
-31.5
 11
-11
 21
0
  0
LINE
  8
0
  6
CONTINUOUS
 62
     7
 10
-14.071502
 20
-29.996016
 11
-14.071502
 21
0
  0
LINE
  8
0
  6
CONTINUOUS
 62
     7
 10
-36
 20
-26.4
 11
-36
 21
0
  0
LINE
  8
0
  6
CONTINUOUS
 62
     7
 10
0
 20
-34.095356
 11
0
 21
0
  0
LINE
  8
0
  6
CONTINUOUS
 62
     7
 10
-36
 20
-26.4
 11
-32.995354
 21
-29.404646
  0
LINE
  8
0
  6
CONTINUOUS
 62
     7
 10
-11
 20
-31.199999
 11
-14.071502
 21
-28.517015
  0
LINE
  8
0
  6
CONTINUOUS
 62
     7
 10
-32.995354
 20
-29.404646
 11
-32.995354
 21
0
  0
LINE
  8
0
  6
CONTINUOUS
 62
     7
 10
-34.522064
 20
-27.877935
 11
-14.071503
 21
-28.517015
  0
LINE
  8
0
  6
CONTINUOUS
 62
     7
 10
-9.5015717
 20
0
 11
0
 21
0
  0
ARC
  8
0
  6
CONTINUOUS
 62
     7
 10
-1.9315575
 20
29.102205
 40
9.0684423
 50
146.59132
 51
213.40867
  0
ARC
  8
0
  6
CONTINUOUS
 62
     7
 10
38.237228
 20
12.054528
 40
49.237228
 50
165.82848
 51
194.17151
  0
ARC
  8
0
  6
CONTINUOUS
 62
     7
 10
-1.9315575
 20
-29.102205
 40
9.0684423
 50
146.59132
 51
213.40867
  0
ARC
  8
0
  6
CONTINUOUS
 62
     7
 10
38.237228
 20
-12.054528
 40
49.237228
 50
165.82848
 51
194.17151
  0
TEXT
  8
0
  6
CONTINUOUS
 62
     7
 10
-34.147665
 20
40.510249
 40
3.2
 41
0.84741102
  1
２×１１／２
  0
ENDBLK
  8
0
  0
BLOCK
  8
0
  2
KOZU25
 70
    64
 10
0
 20
0
  0
POINT
  8
0
  6
CONTINUOUS
 62
     7
 10
0
 20
0
  0
POINT
  8
0
  6
CONTINUOUS
 62
     7
 10
-11
 20
39.599998
  0
POINT
  8
0
  6
CONTINUOUS
 62
     7
 10
0
 20
0
  0
POINT
  8
0
  6
CONTINUOUS
 62
     7
 10
-11
 20
-39.599998
  0
POINT
  8
0
  6
CONTINUOUS
 62
     7
 10
0
 20
0
  0
LINE
  8
0
  6
CENTER
 62
     7
 10
-43.831219
 20
0
 11
5.8151913
 21
0
  0
LINE
  8
0
  6
CONTINUOUS
 62
     7
 10
-9.0972338
 20
43.295689
 11
0
 21
43.295689
  0
LINE
  8
0
  6
CONTINUOUS
 62
     7
 10
-9.0972338
 20
30.614676
 11
0
 21
30.614676
  0
LINE
  8
0
  6
CONTINUOUS
 62
     7
 10
0
 20
43.295689
 11
0
 21
0
  0
LINE
  8
0
  6
CONTINUOUS
 62
     7
 10
-11
 20
40
 11
-11
 21
0
  0
LINE
  8
0
  6
CONTINUOUS
 62
     7
 10
-39
 20
33.849998
 11
-39
 21
0
  0
LINE
  8
0
  6
CONTINUOUS
 62
     7
 10
-11
 20
40
 11
-9.0972338
 21
43.295689
  0
LINE
  8
0
  6
CONTINUOUS
 62
     7
 10
-39
 20
33.850002
 11
-35.700516
 21
37.149487
  0
LINE
  8
0
  6
CONTINUOUS
 62
     7
 10
-35.700516
 20
37.149487
 11
-12.827305
 21
37.864273
  0
LINE
  8
0
  6
CONTINUOUS
 62
     7
 10
-37.227226
 20
35.622776
 11
-14.437304
 21
36.334961
  0
LINE
  8
0
  6
CONTINUOUS
 62
     7
 10
-11.000001
 20
39.600002
 11
-14.437305
 21
36.334961
  0
LINE
  8
0
  6
CONTINUOUS
 62
     7
 10
-35.700516
 20
37.149483
 11
-35.700516
 21
0
  0
LINE
  8
0
  6
CONTINUOUS
 62
     7
 10
-37.227226
 20
35.622776
 11
-37.227226
 21
0
  0
LINE
  8
0
  6
CONTINUOUS
 62
     7
 10
-14.437304
 20
37.813961
 11
-14.437304
 21
0
  0
LINE
  8
0
  6
CONTINUOUS
 62
     7
 10
-9.0972338
 20
0
 11
0
 21
0
  0
LINE
  8
0
  6
CENTER
 62
     7
 10
-43.831219
 20
0
 11
5.8151913
 21
0
  0
LINE
  8
0
  6
CONTINUOUS
 62
     7
 10
-11.000001
 20
-39.600002
 11
-14.437305
 21
-36.334961
  0
LINE
  8
0
  6
CONTINUOUS
 62
     7
 10
-9.0972338
 20
-43.295689
 11
0
 21
-43.295689
  0
LINE
  8
0
  6
CONTINUOUS
 62
     7
 10
-39
 20
-33.849998
 11
-39
 21
0
  0
LINE
  8
0
  6
CONTINUOUS
 62
     7
 10
-37.227226
 20
-35.622776
 11
-37.227226
 21
0
  0
LINE
  8
0
  6
CONTINUOUS
 62
     7
 10
-11
 20
-40
 11
-11
 21
0
  0
LINE
  8
0
  6
CONTINUOUS
 62
     7
 10
-9.0972338
 20
-30.614676
 11
0
 21
-30.614676
  0
LINE
  8
0
  6
CONTINUOUS
 62
     7
 10
0
 20
-43.295689
 11
0
 21
0
  0
LINE
  8
0
  6
CONTINUOUS
 62
     7
 10
-11
 20
-40
 11
-9.0972338
 21
-43.295689
  0
LINE
  8
0
  6
CONTINUOUS
 62
     7
 10
-35.700516
 20
-37.149483
 11
-35.700516
 21
0
  0
LINE
  8
0
  6
CONTINUOUS
 62
     7
 10
-9.0972338
 20
0
 11
0
 21
0
  0
LINE
  8
0
  6
CONTINUOUS
 62
     7
 10
-35.700516
 20
-37.149487
 11
-12.827305
 21
-37.864273
  0
LINE
  8
0
  6
CONTINUOUS
 62
     7
 10
-37.227226
 20
-35.622776
 11
-14.437304
 21
-36.334961
  0
LINE
  8
0
  6
CONTINUOUS
 62
     7
 10
-14.437304
 20
-37.813961
 11
-14.437304
 21
0
  0
LINE
  8
0
  6
CONTINUOUS
 62
     7
 10
-39
 20
-33.850002
 11
-35.700516
 21
-37.149487
  0
ARC
  8
0
  6
CONTINUOUS
 62
     7
 10
0.51548243
 20
36.955181
 40
11.515483
 50
146.59132
 51
213.40867
  0
ARC
  8
0
  6
CONTINUOUS
 62
     7
 10
51.523464
 20
15.307338
 40
62.523464
 50
165.82848
 51
194.17151
  0
ARC
  8
0
  6
CONTINUOUS
 62
     7
 10
0.51548243
 20
-36.955181
 40
11.515483
 50
146.59132
 51
213.40867
  0
ARC
  8
0
  6
CONTINUOUS
 62
     7
 10
51.523464
 20
-15.307338
 40
62.523464
 50
165.82848
 51
194.17151
  0
TEXT
  8
0
  6
CONTINUOUS
 62
     7
 10
-36.47494
 20
48.366125
 40
3.2
 41
0.8455654
  1
２１／２×１／２
  0
ENDBLK
  8
0
  0
BLOCK
  8
0
  2
KOZU26
 70
    64
 10
0
 20
0
  0
POINT
  8
0
  6
CONTINUOUS
 62
     7
 10
0
 20
0
  0
POINT
  8
0
  6
CONTINUOUS
 62
     7
 10
0
 20
0
  0
POINT
  8
0
  6
CONTINUOUS
 62
     7
 10
-11
 20
39.599998
  0
POINT
  8
0
  6
CONTINUOUS
 62
     7
 10
0
 20
0
  0
POINT
  8
0
  6
CONTINUOUS
 62
     7
 10
-11
 20
-39.599998
  0
POINT
  8
0
  6
CONTINUOUS
 62
     7
 10
0
 20
0
  0
LINE
  8
0
  6
CENTER
 62
     7
 10
-43.831219
 20
0
 11
5.8151913
 21
0
  0
LINE
  8
0
  6
CONTINUOUS
 62
     7
 10
-9.0972338
 20
43.295689
 11
0
 21
43.295689
  0
LINE
  8
0
  6
CONTINUOUS
 62
     7
 10
-9.0972338
 20
30.614676
 11
0
 21
30.614676
  0
LINE
  8
0
  6
CONTINUOUS
 62
     7
 10
0
 20
43.295689
 11
0
 21
0
  0
LINE
  8
0
  6
CONTINUOUS
 62
     7
 10
-11
 20
40
 11
-11
 21
0
  0
LINE
  8
0
  6
CONTINUOUS
 62
     7
 10
-39
 20
33.849998
 11
-39
 21
0
  0
LINE
  8
0
  6
CONTINUOUS
 62
     7
 10
-11
 20
40
 11
-9.0972338
 21
43.295689
  0
LINE
  8
0
  6
CONTINUOUS
 62
     7
 10
-39
 20
33.850002
 11
-35.700516
 21
37.149487
  0
LINE
  8
0
  6
CONTINUOUS
 62
     7
 10
-35.700516
 20
37.149487
 11
-12.827305
 21
37.864273
  0
LINE
  8
0
  6
CONTINUOUS
 62
     7
 10
-37.227226
 20
35.622776
 11
-14.437304
 21
36.334961
  0
LINE
  8
0
  6
CONTINUOUS
 62
     7
 10
-11.000001
 20
39.600002
 11
-14.437305
 21
36.334961
  0
LINE
  8
0
  6
CONTINUOUS
 62
     7
 10
-35.700516
 20
37.149483
 11
-35.700516
 21
0
  0
LINE
  8
0
  6
CONTINUOUS
 62
     7
 10
-37.227226
 20
35.622776
 11
-37.227226
 21
0
  0
LINE
  8
0
  6
CONTINUOUS
 62
     7
 10
-14.437304
 20
37.813961
 11
-14.437304
 21
0
  0
LINE
  8
0
  6
CONTINUOUS
 62
     7
 10
-9.0972338
 20
0
 11
0
 21
0
  0
LINE
  8
0
  6
CENTER
 62
     7
 10
-43.831219
 20
0
 11
5.8151913
 21
0
  0
LINE
  8
0
  6
CONTINUOUS
 62
     7
 10
-11.000001
 20
-39.600002
 11
-14.437305
 21
-36.334961
  0
LINE
  8
0
  6
CONTINUOUS
 62
     7
 10
-9.0972338
 20
-43.295689
 11
0
 21
-43.295689
  0
LINE
  8
0
  6
CONTINUOUS
 62
     7
 10
-39
 20
-33.849998
 11
-39
 21
0
  0
LINE
  8
0
  6
CONTINUOUS
 62
     7
 10
-37.227226
 20
-35.622776
 11
-37.227226
 21
0
  0
LINE
  8
0
  6
CONTINUOUS
 62
     7
 10
-11
 20
-40
 11
-11
 21
0
  0
LINE
  8
0
  6
CONTINUOUS
 62
     7
 10
-9.0972338
 20
-30.614676
 11
0
 21
-30.614676
  0
LINE
  8
0
  6
CONTINUOUS
 62
     7
 10
0
 20
-43.295689
 11
0
 21
0
  0
LINE
  8
0
  6
CONTINUOUS
 62
     7
 10
-11
 20
-40
 11
-9.0972338
 21
-43.295689
  0
LINE
  8
0
  6
CONTINUOUS
 62
     7
 10
-35.700516
 20
-37.149483
 11
-35.700516
 21
0
  0
LINE
  8
0
  6
CONTINUOUS
 62
     7
 10
-9.0972338
 20
0
 11
0
 21
0
  0
LINE
  8
0
  6
CONTINUOUS
 62
     7
 10
-35.700516
 20
-37.149487
 11
-12.827305
 21
-37.864273
  0
LINE
  8
0
  6
CONTINUOUS
 62
     7
 10
-37.227226
 20
-35.622776
 11
-14.437304
 21
-36.334961
  0
LINE
  8
0
  6
CONTINUOUS
 62
     7
 10
-14.437304
 20
-37.813961
 11
-14.437304
 21
0
  0
LINE
  8
0
  6
CONTINUOUS
 62
     7
 10
-39
 20
-33.850002
 11
-35.700516
 21
-37.149487
  0
ARC
  8
0
  6
CONTINUOUS
 62
     7
 10
0.51548243
 20
36.955181
 40
11.515483
 50
146.59132
 51
213.40867
  0
ARC
  8
0
  6
CONTINUOUS
 62
     7
 10
51.523464
 20
15.307338
 40
62.523464
 50
165.82848
 51
194.17151
  0
ARC
  8
0
  6
CONTINUOUS
 62
     7
 10
0.51548243
 20
-36.955181
 40
11.515483
 50
146.59132
 51
213.40867
  0
ARC
  8
0
  6
CONTINUOUS
 62
     7
 10
51.523464
 20
-15.307338
 40
62.523464
 50
165.82848
 51
194.17151
  0
TEXT
  8
0
  6
CONTINUOUS
 62
     7
 10
-36.47494
 20
48.366125
 40
3.2
 41
0.8455654
  1
２１／２×３／４
  0
ENDBLK
  8
0
  0
BLOCK
  8
0
  2
KOZU27
 70
    64
 10
0
 20
0
  0
POINT
  8
0
  6
CONTINUOUS
 62
     7
 10
0
 20
0
  0
POINT
  8
0
  6
CONTINUOUS
 62
     7
 10
0
 20
0
  0
POINT
  8
0
  6
CONTINUOUS
 62
     7
 10
-11
 20
39.599998
  0
POINT
  8
0
  6
CONTINUOUS
 62
     7
 10
0
 20
0
  0
POINT
  8
0
  6
CONTINUOUS
 62
     7
 10
-11
 20
-39.599998
  0
POINT
  8
0
  6
CONTINUOUS
 62
     7
 10
0
 20
0
  0
LINE
  8
0
  6
CENTER
 62
     7
 10
-43.831219
 20
0
 11
5.8151913
 21
0
  0
LINE
  8
0
  6
CONTINUOUS
 62
     7
 10
-9.0972338
 20
43.295689
 11
0
 21
43.295689
  0
LINE
  8
0
  6
CONTINUOUS
 62
     7
 10
-9.0972338
 20
30.614676
 11
0
 21
30.614676
  0
LINE
  8
0
  6
CONTINUOUS
 62
     7
 10
0
 20
43.295689
 11
0
 21
0
  0
LINE
  8
0
  6
CONTINUOUS
 62
     7
 10
-11
 20
40
 11
-11
 21
0
  0
LINE
  8
0
  6
CONTINUOUS
 62
     7
 10
-39
 20
33.849998
 11
-39
 21
0
  0
LINE
  8
0
  6
CONTINUOUS
 62
     7
 10
-11
 20
40
 11
-9.0972338
 21
43.295689
  0
LINE
  8
0
  6
CONTINUOUS
 62
     7
 10
-39
 20
33.850002
 11
-35.700516
 21
37.149487
  0
LINE
  8
0
  6
CONTINUOUS
 62
     7
 10
-35.700516
 20
37.149487
 11
-12.827305
 21
37.864273
  0
LINE
  8
0
  6
CONTINUOUS
 62
     7
 10
-37.227226
 20
35.622776
 11
-14.437304
 21
36.334961
  0
LINE
  8
0
  6
CONTINUOUS
 62
     7
 10
-11.000001
 20
39.600002
 11
-14.437305
 21
36.334961
  0
LINE
  8
0
  6
CONTINUOUS
 62
     7
 10
-35.700516
 20
37.149483
 11
-35.700516
 21
0
  0
LINE
  8
0
  6
CONTINUOUS
 62
     7
 10
-37.227226
 20
35.622776
 11
-37.227226
 21
0
  0
LINE
  8
0
  6
CONTINUOUS
 62
     7
 10
-14.437304
 20
37.813961
 11
-14.437304
 21
0
  0
LINE
  8
0
  6
CONTINUOUS
 62
     7
 10
-9.0972338
 20
0
 11
0
 21
0
  0
LINE
  8
0
  6
CENTER
 62
     7
 10
-43.831219
 20
0
 11
5.8151913
 21
0
  0
LINE
  8
0
  6
CONTINUOUS
 62
     7
 10
-11.000001
 20
-39.600002
 11
-14.437305
 21
-36.334961
  0
LINE
  8
0
  6
CONTINUOUS
 62
     7
 10
-9.0972338
 20
-43.295689
 11
0
 21
-43.295689
  0
LINE
  8
0
  6
CONTINUOUS
 62
     7
 10
-39
 20
-33.849998
 11
-39
 21
0
  0
LINE
  8
0
  6
CONTINUOUS
 62
     7
 10
-37.227226
 20
-35.622776
 11
-37.227226
 21
0
  0
LINE
  8
0
  6
CONTINUOUS
 62
     7
 10
-11
 20
-40
 11
-11
 21
0
  0
LINE
  8
0
  6
CONTINUOUS
 62
     7
 10
-9.0972338
 20
-30.614676
 11
0
 21
-30.614676
  0
LINE
  8
0
  6
CONTINUOUS
 62
     7
 10
0
 20
-43.295689
 11
0
 21
0
  0
LINE
  8
0
  6
CONTINUOUS
 62
     7
 10
-11
 20
-40
 11
-9.0972338
 21
-43.295689
  0
LINE
  8
0
  6
CONTINUOUS
 62
     7
 10
-35.700516
 20
-37.149483
 11
-35.700516
 21
0
  0
LINE
  8
0
  6
CONTINUOUS
 62
     7
 10
-9.0972338
 20
0
 11
0
 21
0
  0
LINE
  8
0
  6
CONTINUOUS
 62
     7
 10
-35.700516
 20
-37.149487
 11
-12.827305
 21
-37.864273
  0
LINE
  8
0
  6
CONTINUOUS
 62
     7
 10
-37.227226
 20
-35.622776
 11
-14.437304
 21
-36.334961
  0
LINE
  8
0
  6
CONTINUOUS
 62
     7
 10
-14.437304
 20
-37.813961
 11
-14.437304
 21
0
  0
LINE
  8
0
  6
CONTINUOUS
 62
     7
 10
-39
 20
-33.850002
 11
-35.700516
 21
-37.149487
  0
ARC
  8
0
  6
CONTINUOUS
 62
     7
 10
0.51548243
 20
36.955181
 40
11.515483
 50
146.59132
 51
213.40867
  0
ARC
  8
0
  6
CONTINUOUS
 62
     7
 10
51.523464
 20
15.307338
 40
62.523464
 50
165.82848
 51
194.17151
  0
ARC
  8
0
  6
CONTINUOUS
 62
     7
 10
0.51548243
 20
-36.955181
 40
11.515483
 50
146.59132
 51
213.40867
  0
ARC
  8
0
  6
CONTINUOUS
 62
     7
 10
51.523464
 20
-15.307338
 40
62.523464
 50
165.82848
 51
194.17151
  0
TEXT
  8
0
  6
CONTINUOUS
 62
     7
 10
-36.47494
 20
48.366125
 40
3.2
 41
0.84741102
  1
２１／２×１
  0
ENDBLK
  8
0
  0
BLOCK
  8
0
  2
KOZU28
 70
    64
 10
0
 20
0
  0
POINT
  8
0
  6
CONTINUOUS
 62
     7
 10
0
 20
0
  0
POINT
  8
0
  6
CONTINUOUS
 62
     7
 10
0
 20
0
  0
POINT
  8
0
  6
CONTINUOUS
 62
     7
 10
-11
 20
39.599998
  0
POINT
  8
0
  6
CONTINUOUS
 62
     7
 10
0
 20
0
  0
POINT
  8
0
  6
CONTINUOUS
 62
     7
 10
-11
 20
-39.599998
  0
POINT
  8
0
  6
CONTINUOUS
 62
     7
 10
0
 20
0
  0
LINE
  8
0
  6
CENTER
 62
     7
 10
-43.831219
 20
0
 11
5.8151913
 21
0
  0
LINE
  8
0
  6
CONTINUOUS
 62
     7
 10
-9.0972338
 20
43.295689
 11
0
 21
43.295689
  0
LINE
  8
0
  6
CONTINUOUS
 62
     7
 10
-9.0972338
 20
30.614676
 11
0
 21
30.614676
  0
LINE
  8
0
  6
CONTINUOUS
 62
     7
 10
0
 20
43.295689
 11
0
 21
0
  0
LINE
  8
0
  6
CONTINUOUS
 62
     7
 10
-11
 20
40
 11
-11
 21
0
  0
LINE
  8
0
  6
CONTINUOUS
 62
     7
 10
-39
 20
33.849998
 11
-39
 21
0
  0
LINE
  8
0
  6
CONTINUOUS
 62
     7
 10
-11
 20
40
 11
-9.0972338
 21
43.295689
  0
LINE
  8
0
  6
CONTINUOUS
 62
     7
 10
-39
 20
33.850002
 11
-35.700516
 21
37.149487
  0
LINE
  8
0
  6
CONTINUOUS
 62
     7
 10
-35.700516
 20
37.149487
 11
-12.827305
 21
37.864273
  0
LINE
  8
0
  6
CONTINUOUS
 62
     7
 10
-37.227226
 20
35.622776
 11
-14.437304
 21
36.334961
  0
LINE
  8
0
  6
CONTINUOUS
 62
     7
 10
-11.000001
 20
39.600002
 11
-14.437305
 21
36.334961
  0
LINE
  8
0
  6
CONTINUOUS
 62
     7
 10
-35.700516
 20
37.149483
 11
-35.700516
 21
0
  0
LINE
  8
0
  6
CONTINUOUS
 62
     7
 10
-37.227226
 20
35.622776
 11
-37.227226
 21
0
  0
LINE
  8
0
  6
CONTINUOUS
 62
     7
 10
-14.437304
 20
37.813961
 11
-14.437304
 21
0
  0
LINE
  8
0
  6
CONTINUOUS
 62
     7
 10
-9.0972338
 20
0
 11
0
 21
0
  0
LINE
  8
0
  6
CENTER
 62
     7
 10
-43.831219
 20
0
 11
5.8151913
 21
0
  0
LINE
  8
0
  6
CONTINUOUS
 62
     7
 10
-11.000001
 20
-39.600002
 11
-14.437305
 21
-36.334961
  0
LINE
  8
0
  6
CONTINUOUS
 62
     7
 10
-9.0972338
 20
-43.295689
 11
0
 21
-43.295689
  0
LINE
  8
0
  6
CONTINUOUS
 62
     7
 10
-39
 20
-33.849998
 11
-39
 21
0
  0
LINE
  8
0
  6
CONTINUOUS
 62
     7
 10
-37.227226
 20
-35.622776
 11
-37.227226
 21
0
  0
LINE
  8
0
  6
CONTINUOUS
 62
     7
 10
-11
 20
-40
 11
-11
 21
0
  0
LINE
  8
0
  6
CONTINUOUS
 62
     7
 10
-9.0972338
 20
-30.614676
 11
0
 21
-30.614676
  0
LINE
  8
0
  6
CONTINUOUS
 62
     7
 10
0
 20
-43.295689
 11
0
 21
0
  0
LINE
  8
0
  6
CONTINUOUS
 62
     7
 10
-11
 20
-40
 11
-9.0972338
 21
-43.295689
  0
LINE
  8
0
  6
CONTINUOUS
 62
     7
 10
-35.700516
 20
-37.149483
 11
-35.700516
 21
0
  0
LINE
  8
0
  6
CONTINUOUS
 62
     7
 10
-9.0972338
 20
0
 11
0
 21
0
  0
LINE
  8
0
  6
CONTINUOUS
 62
     7
 10
-35.700516
 20
-37.149487
 11
-12.827305
 21
-37.864273
  0
LINE
  8
0
  6
CONTINUOUS
 62
     7
 10
-37.227226
 20
-35.622776
 11
-14.437304
 21
-36.334961
  0
LINE
  8
0
  6
CONTINUOUS
 62
     7
 10
-14.437304
 20
-37.813961
 11
-14.437304
 21
0
  0
LINE
  8
0
  6
CONTINUOUS
 62
     7
 10
-39
 20
-33.850002
 11
-35.700516
 21
-37.149487
  0
ARC
  8
0
  6
CONTINUOUS
 62
     7
 10
0.51548243
 20
36.955181
 40
11.515483
 50
146.59132
 51
213.40867
  0
ARC
  8
0
  6
CONTINUOUS
 62
     7
 10
51.523464
 20
15.307338
 40
62.523464
 50
165.82848
 51
194.17151
  0
ARC
  8
0
  6
CONTINUOUS
 62
     7
 10
0.51548243
 20
-36.955181
 40
11.515483
 50
146.59132
 51
213.40867
  0
ARC
  8
0
  6
CONTINUOUS
 62
     7
 10
51.523464
 20
-15.307338
 40
62.523464
 50
165.82848
 51
194.17151
  0
TEXT
  8
0
  6
CONTINUOUS
 62
     7
 10
-36.47494
 20
48.366125
 40
3.2
 41
0.84496202
  1
２１／２×１１／４
  0
ENDBLK
  8
0
  0
BLOCK
  8
0
  2
KOZU29
 70
    64
 10
0
 20
0
  0
POINT
  8
0
  6
CONTINUOUS
 62
     7
 10
0
 20
0
  0
POINT
  8
0
  6
CONTINUOUS
 62
     7
 10
0
 20
0
  0
POINT
  8
0
  6
CONTINUOUS
 62
     7
 10
-11
 20
39.599998
  0
POINT
  8
0
  6
CONTINUOUS
 62
     7
 10
0
 20
0
  0
POINT
  8
0
  6
CONTINUOUS
 62
     7
 10
-11
 20
-39.599998
  0
POINT
  8
0
  6
CONTINUOUS
 62
     7
 10
0
 20
0
  0
LINE
  8
0
  6
CENTER
 62
     7
 10
-43.831219
 20
0
 11
5.8151913
 21
0
  0
LINE
  8
0
  6
CONTINUOUS
 62
     7
 10
-9.0972338
 20
43.295689
 11
0
 21
43.295689
  0
LINE
  8
0
  6
CONTINUOUS
 62
     7
 10
-9.0972338
 20
30.614676
 11
0
 21
30.614676
  0
LINE
  8
0
  6
CONTINUOUS
 62
     7
 10
0
 20
43.295689
 11
0
 21
0
  0
LINE
  8
0
  6
CONTINUOUS
 62
     7
 10
-11
 20
40
 11
-11
 21
0
  0
LINE
  8
0
  6
CONTINUOUS
 62
     7
 10
-39
 20
33.849998
 11
-39
 21
0
  0
LINE
  8
0
  6
CONTINUOUS
 62
     7
 10
-11
 20
40
 11
-9.0972338
 21
43.295689
  0
LINE
  8
0
  6
CONTINUOUS
 62
     7
 10
-39
 20
33.850002
 11
-35.700516
 21
37.149487
  0
LINE
  8
0
  6
CONTINUOUS
 62
     7
 10
-35.700516
 20
37.149487
 11
-12.827305
 21
37.864273
  0
LINE
  8
0
  6
CONTINUOUS
 62
     7
 10
-37.227226
 20
35.622776
 11
-14.437304
 21
36.334961
  0
LINE
  8
0
  6
CONTINUOUS
 62
     7
 10
-11.000001
 20
39.600002
 11
-14.437305
 21
36.334961
  0
LINE
  8
0
  6
CONTINUOUS
 62
     7
 10
-35.700516
 20
37.149483
 11
-35.700516
 21
0
  0
LINE
  8
0
  6
CONTINUOUS
 62
     7
 10
-37.227226
 20
35.622776
 11
-37.227226
 21
0
  0
LINE
  8
0
  6
CONTINUOUS
 62
     7
 10
-14.437304
 20
37.813961
 11
-14.437304
 21
0
  0
LINE
  8
0
  6
CONTINUOUS
 62
     7
 10
-9.0972338
 20
0
 11
0
 21
0
  0
LINE
  8
0
  6
CENTER
 62
     7
 10
-43.831219
 20
0
 11
5.8151913
 21
0
  0
LINE
  8
0
  6
CONTINUOUS
 62
     7
 10
-11.000001
 20
-39.600002
 11
-14.437305
 21
-36.334961
  0
LINE
  8
0
  6
CONTINUOUS
 62
     7
 10
-9.0972338
 20
-43.295689
 11
0
 21
-43.295689
  0
LINE
  8
0
  6
CONTINUOUS
 62
     7
 10
-39
 20
-33.849998
 11
-39
 21
0
  0
LINE
  8
0
  6
CONTINUOUS
 62
     7
 10
-37.227226
 20
-35.622776
 11
-37.227226
 21
0
  0
LINE
  8
0
  6
CONTINUOUS
 62
     7
 10
-11
 20
-40
 11
-11
 21
0
  0
LINE
  8
0
  6
CONTINUOUS
 62
     7
 10
-9.0972338
 20
-30.614676
 11
0
 21
-30.614676
  0
LINE
  8
0
  6
CONTINUOUS
 62
     7
 10
0
 20
-43.295689
 11
0
 21
0
  0
LINE
  8
0
  6
CONTINUOUS
 62
     7
 10
-11
 20
-40
 11
-9.0972338
 21
-43.295689
  0
LINE
  8
0
  6
CONTINUOUS
 62
     7
 10
-35.700516
 20
-37.149483
 11
-35.700516
 21
0
  0
LINE
  8
0
  6
CONTINUOUS
 62
     7
 10
-9.0972338
 20
0
 11
0
 21
0
  0
LINE
  8
0
  6
CONTINUOUS
 62
     7
 10
-35.700516
 20
-37.149487
 11
-12.827305
 21
-37.864273
  0
LINE
  8
0
  6
CONTINUOUS
 62
     7
 10
-37.227226
 20
-35.622776
 11
-14.437304
 21
-36.334961
  0
LINE
  8
0
  6
CONTINUOUS
 62
     7
 10
-14.437304
 20
-37.813961
 11
-14.437304
 21
0
  0
LINE
  8
0
  6
CONTINUOUS
 62
     7
 10
-39
 20
-33.850002
 11
-35.700516
 21
-37.149487
  0
ARC
  8
0
  6
CONTINUOUS
 62
     7
 10
0.51548243
 20
36.955181
 40
11.515483
 50
146.59132
 51
213.40867
  0
ARC
  8
0
  6
CONTINUOUS
 62
     7
 10
51.523464
 20
15.307338
 40
62.523464
 50
165.82848
 51
194.17151
  0
ARC
  8
0
  6
CONTINUOUS
 62
     7
 10
0.51548243
 20
-36.955181
 40
11.515483
 50
146.59132
 51
213.40867
  0
ARC
  8
0
  6
CONTINUOUS
 62
     7
 10
51.523464
 20
-15.307338
 40
62.523464
 50
165.82848
 51
194.17151
  0
TEXT
  8
0
  6
CONTINUOUS
 62
     7
 10
-36.47494
 20
48.366125
 40
3.2
 41
0.84496202
  1
２１／２×１１／２
  0
ENDBLK
  8
0
  0
BLOCK
  8
0
  2
KOZU30
 70
    64
 10
0
 20
0
  0
POINT
  8
0
  6
CONTINUOUS
 62
     7
 10
0
 20
0
  0
POINT
  8
0
  6
CONTINUOUS
 62
     7
 10
0
 20
0
  0
POINT
  8
0
  6
CONTINUOUS
 62
     7
 10
-11
 20
39.599998
  0
POINT
  8
0
  6
CONTINUOUS
 62
     7
 10
0
 20
0
  0
POINT
  8
0
  6
CONTINUOUS
 62
     7
 10
-11
 20
-39.599998
  0
POINT
  8
0
  6
CONTINUOUS
 62
     7
 10
0
 20
0
  0
LINE
  8
0
  6
CENTER
 62
     7
 10
-43.831219
 20
0
 11
5.8151913
 21
0
  0
LINE
  8
0
  6
CONTINUOUS
 62
     7
 10
-9.0972338
 20
43.295689
 11
0
 21
43.295689
  0
LINE
  8
0
  6
CONTINUOUS
 62
     7
 10
-9.0972338
 20
30.614676
 11
0
 21
30.614676
  0
LINE
  8
0
  6
CONTINUOUS
 62
     7
 10
0
 20
43.295689
 11
0
 21
0
  0
LINE
  8
0
  6
CONTINUOUS
 62
     7
 10
-11
 20
40
 11
-11
 21
0
  0
LINE
  8
0
  6
CONTINUOUS
 62
     7
 10
-39
 20
33.849998
 11
-39
 21
0
  0
LINE
  8
0
  6
CONTINUOUS
 62
     7
 10
-11
 20
40
 11
-9.0972338
 21
43.295689
  0
LINE
  8
0
  6
CONTINUOUS
 62
     7
 10
-39
 20
33.850002
 11
-35.700516
 21
37.149487
  0
LINE
  8
0
  6
CONTINUOUS
 62
     7
 10
-35.700516
 20
37.149487
 11
-12.827305
 21
37.864273
  0
LINE
  8
0
  6
CONTINUOUS
 62
     7
 10
-37.227226
 20
35.622776
 11
-14.437304
 21
36.334961
  0
LINE
  8
0
  6
CONTINUOUS
 62
     7
 10
-11.000001
 20
39.600002
 11
-14.437305
 21
36.334961
  0
LINE
  8
0
  6
CONTINUOUS
 62
     7
 10
-35.700516
 20
37.149483
 11
-35.700516
 21
0
  0
LINE
  8
0
  6
CONTINUOUS
 62
     7
 10
-37.227226
 20
35.622776
 11
-37.227226
 21
0
  0
LINE
  8
0
  6
CONTINUOUS
 62
     7
 10
-14.437304
 20
37.813961
 11
-14.437304
 21
0
  0
LINE
  8
0
  6
CONTINUOUS
 62
     7
 10
-9.0972338
 20
0
 11
0
 21
0
  0
LINE
  8
0
  6
CENTER
 62
     7
 10
-43.831219
 20
0
 11
5.8151913
 21
0
  0
LINE
  8
0
  6
CONTINUOUS
 62
     7
 10
-11.000001
 20
-39.600002
 11
-14.437305
 21
-36.334961
  0
LINE
  8
0
  6
CONTINUOUS
 62
     7
 10
-9.0972338
 20
-43.295689
 11
0
 21
-43.295689
  0
LINE
  8
0
  6
CONTINUOUS
 62
     7
 10
-39
 20
-33.849998
 11
-39
 21
0
  0
LINE
  8
0
  6
CONTINUOUS
 62
     7
 10
-37.227226
 20
-35.622776
 11
-37.227226
 21
0
  0
LINE
  8
0
  6
CONTINUOUS
 62
     7
 10
-11
 20
-40
 11
-11
 21
0
  0
LINE
  8
0
  6
CONTINUOUS
 62
     7
 10
-9.0972338
 20
-30.614676
 11
0
 21
-30.614676
  0
LINE
  8
0
  6
CONTINUOUS
 62
     7
 10
0
 20
-43.295689
 11
0
 21
0
  0
LINE
  8
0
  6
CONTINUOUS
 62
     7
 10
-11
 20
-40
 11
-9.0972338
 21
-43.295689
  0
LINE
  8
0
  6
CONTINUOUS
 62
     7
 10
-35.700516
 20
-37.149483
 11
-35.700516
 21
0
  0
LINE
  8
0
  6
CONTINUOUS
 62
     7
 10
-9.0972338
 20
0
 11
0
 21
0
  0
LINE
  8
0
  6
CONTINUOUS
 62
     7
 10
-35.700516
 20
-37.149487
 11
-12.827305
 21
-37.864273
  0
LINE
  8
0
  6
CONTINUOUS
 62
     7
 10
-37.227226
 20
-35.622776
 11
-14.437304
 21
-36.334961
  0
LINE
  8
0
  6
CONTINUOUS
 62
     7
 10
-14.437304
 20
-37.813961
 11
-14.437304
 21
0
  0
LINE
  8
0
  6
CONTINUOUS
 62
     7
 10
-39
 20
-33.850002
 11
-35.700516
 21
-37.149487
  0
ARC
  8
0
  6
CONTINUOUS
 62
     7
 10
0.51548243
 20
36.955181
 40
11.515483
 50
146.59132
 51
213.40867
  0
ARC
  8
0
  6
CONTINUOUS
 62
     7
 10
51.523464
 20
15.307338
 40
62.523464
 50
165.82848
 51
194.17151
  0
ARC
  8
0
  6
CONTINUOUS
 62
     7
 10
0.51548243
 20
-36.955181
 40
11.515483
 50
146.59132
 51
213.40867
  0
ARC
  8
0
  6
CONTINUOUS
 62
     7
 10
51.523464
 20
-15.307338
 40
62.523464
 50
165.82848
 51
194.17151
  0
TEXT
  8
0
  6
CONTINUOUS
 62
     7
 10
-36.47494
 20
48.366125
 40
3.2
 41
0.84741102
  1
２１／２×２
  0
ENDBLK
  8
0
  0
BLOCK
  8
0
  2
KOZU31
 70
    64
 10
0
 20
0
  0
POINT
  8
0
  6
CONTINUOUS
 62
     7
 10
0
 20
0
  0
POINT
  8
0
  6
CONTINUOUS
 62
     7
 10
-12
 20
46
  0
POINT
  8
0
  6
CONTINUOUS
 62
     7
 10
-12
 20
-46
  0
POINT
  8
0
  6
CONTINUOUS
 62
     7
 10
0
 20
0
  0
LINE
  8
0
  6
CONTINUOUS
 62
     7
 10
-9.7404652
 20
51.413628
 11
0
 21
51.413628
  0
LINE
  8
0
  6
CONTINUOUS
 62
     7
 10
-9.7404652
 20
36.354927
 11
0
 21
36.354927
  0
LINE
  8
0
  6
CENTER
 62
     7
 10
-49.355862
 20
0
 11
6.2829747
 21
0
  0
LINE
  8
0
  6
CONTINUOUS
 62
     7
 10
0
 20
51.413628
 11
0
 21
0
  0
LINE
  8
0
  6
CONTINUOUS
 62
     7
 10
-44
 20
40.5
 11
-44
 21
0
  0
LINE
  8
0
  6
CONTINUOUS
 62
     7
 10
-12
 20
47.5
 11
-12
 21
0
  0
LINE
  8
0
  6
CONTINUOUS
 62
     7
 10
-11.999998
 20
47.5
 11
-9.7404633
 21
51.413628
  0
LINE
  8
0
  6
CONTINUOUS
 62
     7
 10
-9.7404652
 20
51.413628
 11
-9.7404652
 21
0
  0
LINE
  8
0
  6
CONTINUOUS
 62
     7
 10
-44
 20
40.5
 11
-41.112774
 21
43.387226
  0
LINE
  8
0
  6
CONTINUOUS
 62
     7
 10
-41.112774
 20
43.387226
 11
-13.828384
 21
44.239864
  0
LINE
  8
0
  6
CONTINUOUS
 62
     7
 10
-42.639484
 20
41.860516
 11
-15.416277
 21
42.711243
  0
LINE
  8
0
  6
CONTINUOUS
 62
     7
 10
-41.112774
 20
43.387226
 11
-41.112774
 21
0
  0
LINE
  8
0
  6
CONTINUOUS
 62
     7
 10
-12
 20
46
 11
-15.416277
 21
42.711239
  0
LINE
  8
0
  6
CONTINUOUS
 62
     7
 10
-42.639484
 20
41.860516
 11
-42.639484
 21
0
  0
LINE
  8
0
  6
CONTINUOUS
 62
     7
 10
-15.416277
 20
44.190243
 11
-15.416277
 21
0
  0
LINE
  8
0
  6
CONTINUOUS
 62
     7
 10
-9.7404652
 20
-51.413628
 11
-9.7404652
 21
0
  0
LINE
  8
0
  6
CONTINUOUS
 62
     7
 10
-9.7404652
 20
-51.413628
 11
0
 21
-51.413628
  0
LINE
  8
0
  6
CONTINUOUS
 62
     7
 10
-15.416277
 20
-44.190243
 11
-15.416277
 21
0
  0
LINE
  8
0
  6
CONTINUOUS
 62
     7
 10
-41.112774
 20
-43.387226
 11
-13.828384
 21
-44.239864
  0
LINE
  8
0
  6
CONTINUOUS
 62
     7
 10
-11.999998
 20
-47.5
 11
-9.7404633
 21
-51.413628
  0
LINE
  8
0
  6
CONTINUOUS
 62
     7
 10
-12
 20
-47.5
 11
-12
 21
0
  0
LINE
  8
0
  6
CONTINUOUS
 62
     7
 10
-9.7404652
 20
-36.354927
 11
0
 21
-36.354927
  0
LINE
  8
0
  6
CONTINUOUS
 62
     7
 10
-44
 20
-40.5
 11
-44
 21
0
  0
LINE
  8
0
  6
CONTINUOUS
 62
     7
 10
0
 20
-51.413628
 11
0
 21
0
  0
LINE
  8
0
  6
CONTINUOUS
 62
     7
 10
-41.112774
 20
-43.387226
 11
-41.112774
 21
0
  0
LINE
  8
0
  6
CONTINUOUS
 62
     7
 10
-42.639484
 20
-41.860516
 11
-42.639484
 21
0
  0
LINE
  8
0
  6
CONTINUOUS
 62
     7
 10
-12
 20
-46
 11
-15.416277
 21
-42.711239
  0
LINE
  8
0
  6
CONTINUOUS
 62
     7
 10
-44
 20
-40.5
 11
-41.112774
 21
-43.387226
  0
LINE
  8
0
  6
CONTINUOUS
 62
     7
 10
-42.639484
 20
-41.860516
 11
-15.416277
 21
-42.711243
  0
LINE
  8
0
  6
CONTINUOUS
 62
     7
 10
-9.7404652
 20
0
 11
0
 21
0
  0
ARC
  8
0
  6
CONTINUOUS
 62
     7
 10
1.6746354
 20
43.884277
 40
13.674635
 50
146.59132
 51
213.40867
  0
ARC
  8
0
  6
CONTINUOUS
 62
     7
 10
62.246616
 20
18.177464
 40
74.246613
 50
165.82848
 51
194.17151
  0
ARC
  8
0
  6
CONTINUOUS
 62
     7
 10
1.6746354
 20
-43.884277
 40
13.674635
 50
146.59132
 51
213.40867
  0
ARC
  8
0
  6
CONTINUOUS
 62
     7
 10
62.246616
 20
-18.177464
 40
74.246613
 50
165.82848
 51
194.17151
  0
TEXT
  8
0
  6
CONTINUOUS
 62
     7
 10
-44.228888
 20
56.75078
 40
3.2
 41
0.84892707
  1
３×１／２
  0
ENDBLK
  8
0
  0
BLOCK
  8
0
  2
KOZU32
 70
    64
 10
0
 20
0
  0
POINT
  8
0
  6
CONTINUOUS
 62
     7
 10
0
 20
0
  0
POINT
  8
0
  6
CONTINUOUS
 62
     7
 10
0.72500002
 20
0
  0
POINT
  8
0
  6
CONTINUOUS
 62
     7
 10
0
 20
0
  0
POINT
  8
0
  6
CONTINUOUS
 62
     7
 10
-12
 20
46
  0
POINT
  8
0
  6
CONTINUOUS
 62
     7
 10
-12
 20
-46
  0
POINT
  8
0
  6
CONTINUOUS
 62
     7
 10
0
 20
0
  0
LINE
  8
0
  6
CONTINUOUS
 62
     7
 10
-9.7404652
 20
51.413628
 11
0
 21
51.413628
  0
LINE
  8
0
  6
CONTINUOUS
 62
     7
 10
-9.7404652
 20
36.354927
 11
0
 21
36.354927
  0
LINE
  8
0
  6
CENTER
 62
     7
 10
-49.355862
 20
0
 11
6.2829747
 21
0
  0
LINE
  8
0
  6
CONTINUOUS
 62
     7
 10
0
 20
51.413628
 11
0
 21
0
  0
LINE
  8
0
  6
CONTINUOUS
 62
     7
 10
-44
 20
40.5
 11
-44
 21
0
  0
LINE
  8
0
  6
CONTINUOUS
 62
     7
 10
-12
 20
47.5
 11
-12
 21
0
  0
LINE
  8
0
  6
CONTINUOUS
 62
     7
 10
-11.999998
 20
47.5
 11
-9.7404633
 21
51.413628
  0
LINE
  8
0
  6
CONTINUOUS
 62
     7
 10
-9.7404652
 20
51.413628
 11
-9.7404652
 21
0
  0
LINE
  8
0
  6
CONTINUOUS
 62
     7
 10
-44
 20
40.5
 11
-41.112774
 21
43.387226
  0
LINE
  8
0
  6
CONTINUOUS
 62
     7
 10
-41.112774
 20
43.387226
 11
-13.828384
 21
44.239864
  0
LINE
  8
0
  6
CONTINUOUS
 62
     7
 10
-42.639484
 20
41.860516
 11
-15.416277
 21
42.711243
  0
LINE
  8
0
  6
CONTINUOUS
 62
     7
 10
-41.112774
 20
43.387226
 11
-41.112774
 21
0
  0
LINE
  8
0
  6
CONTINUOUS
 62
     7
 10
-12
 20
46
 11
-15.416277
 21
42.711239
  0
LINE
  8
0
  6
CONTINUOUS
 62
     7
 10
-42.639484
 20
41.860516
 11
-42.639484
 21
0
  0
LINE
  8
0
  6
CONTINUOUS
 62
     7
 10
-15.416277
 20
44.190243
 11
-15.416277
 21
0
  0
LINE
  8
0
  6
CONTINUOUS
 62
     7
 10
-9.7404652
 20
-51.413628
 11
-9.7404652
 21
0
  0
LINE
  8
0
  6
CONTINUOUS
 62
     7
 10
-9.7404652
 20
-51.413628
 11
0
 21
-51.413628
  0
LINE
  8
0
  6
CONTINUOUS
 62
     7
 10
-15.416277
 20
-44.190243
 11
-15.416277
 21
0
  0
LINE
  8
0
  6
CONTINUOUS
 62
     7
 10
-41.112774
 20
-43.387226
 11
-13.828384
 21
-44.239864
  0
LINE
  8
0
  6
CONTINUOUS
 62
     7
 10
-11.999998
 20
-47.5
 11
-9.7404633
 21
-51.413628
  0
LINE
  8
0
  6
CONTINUOUS
 62
     7
 10
-12
 20
-47.5
 11
-12
 21
0
  0
LINE
  8
0
  6
CONTINUOUS
 62
     7
 10
-9.7404652
 20
-36.354927
 11
0
 21
-36.354927
  0
LINE
  8
0
  6
CONTINUOUS
 62
     7
 10
-44
 20
-40.5
 11
-44
 21
0
  0
LINE
  8
0
  6
CONTINUOUS
 62
     7
 10
0
 20
-51.413628
 11
0
 21
0
  0
LINE
  8
0
  6
CONTINUOUS
 62
     7
 10
-41.112774
 20
-43.387226
 11
-41.112774
 21
0
  0
LINE
  8
0
  6
CONTINUOUS
 62
     7
 10
-42.639484
 20
-41.860516
 11
-42.639484
 21
0
  0
LINE
  8
0
  6
CONTINUOUS
 62
     7
 10
-12
 20
-46
 11
-15.416277
 21
-42.711239
  0
LINE
  8
0
  6
CONTINUOUS
 62
     7
 10
-44
 20
-40.5
 11
-41.112774
 21
-43.387226
  0
LINE
  8
0
  6
CONTINUOUS
 62
     7
 10
-42.639484
 20
-41.860516
 11
-15.416277
 21
-42.711243
  0
LINE
  8
0
  6
CONTINUOUS
 62
     7
 10
-9.7404652
 20
0
 11
0
 21
0
  0
ARC
  8
0
  6
CONTINUOUS
 62
     7
 10
1.6746354
 20
43.884277
 40
13.674635
 50
146.59132
 51
213.40867
  0
ARC
  8
0
  6
CONTINUOUS
 62
     7
 10
62.246616
 20
18.177464
 40
74.246613
 50
165.82848
 51
194.17151
  0
ARC
  8
0
  6
CONTINUOUS
 62
     7
 10
1.6746354
 20
-43.884277
 40
13.674635
 50
146.59132
 51
213.40867
  0
ARC
  8
0
  6
CONTINUOUS
 62
     7
 10
62.246616
 20
-18.177464
 40
74.246613
 50
165.82848
 51
194.17151
  0
TEXT
  8
0
  6
CONTINUOUS
 62
     7
 10
-44.228888
 20
56.75078
 40
3.2
 41
0.84892707
  1
３×３／４
  0
ENDBLK
  8
0
  0
BLOCK
  8
0
  2
KOZU33
 70
    64
 10
0
 20
0
  0
POINT
  8
0
  6
CONTINUOUS
 62
     7
 10
0
 20
0
  0
POINT
  8
0
  6
CONTINUOUS
 62
     7
 10
0
 20
0
  0
POINT
  8
0
  6
CONTINUOUS
 62
     7
 10
-12
 20
46
  0
POINT
  8
0
  6
CONTINUOUS
 62
     7
 10
-12
 20
-46
  0
POINT
  8
0
  6
CONTINUOUS
 62
     7
 10
0
 20
0
  0
LINE
  8
0
  6
CONTINUOUS
 62
     7
 10
-9.7404652
 20
51.413628
 11
0
 21
51.413628
  0
LINE
  8
0
  6
CONTINUOUS
 62
     7
 10
-9.7404652
 20
36.354927
 11
0
 21
36.354927
  0
LINE
  8
0
  6
CENTER
 62
     7
 10
-49.355862
 20
0
 11
6.2829747
 21
0
  0
LINE
  8
0
  6
CONTINUOUS
 62
     7
 10
0
 20
51.413628
 11
0
 21
0
  0
LINE
  8
0
  6
CONTINUOUS
 62
     7
 10
-44
 20
40.5
 11
-44
 21
0
  0
LINE
  8
0
  6
CONTINUOUS
 62
     7
 10
-12
 20
47.5
 11
-12
 21
0
  0
LINE
  8
0
  6
CONTINUOUS
 62
     7
 10
-11.999998
 20
47.5
 11
-9.7404633
 21
51.413628
  0
LINE
  8
0
  6
CONTINUOUS
 62
     7
 10
-9.7404652
 20
51.413628
 11
-9.7404652
 21
0
  0
LINE
  8
0
  6
CONTINUOUS
 62
     7
 10
-44
 20
40.5
 11
-41.112774
 21
43.387226
  0
LINE
  8
0
  6
CONTINUOUS
 62
     7
 10
-41.112774
 20
43.387226
 11
-13.828384
 21
44.239864
  0
LINE
  8
0
  6
CONTINUOUS
 62
     7
 10
-42.639484
 20
41.860516
 11
-15.416277
 21
42.711243
  0
LINE
  8
0
  6
CONTINUOUS
 62
     7
 10
-41.112774
 20
43.387226
 11
-41.112774
 21
0
  0
LINE
  8
0
  6
CONTINUOUS
 62
     7
 10
-12
 20
46
 11
-15.416277
 21
42.711239
  0
LINE
  8
0
  6
CONTINUOUS
 62
     7
 10
-42.639484
 20
41.860516
 11
-42.639484
 21
0
  0
LINE
  8
0
  6
CONTINUOUS
 62
     7
 10
-15.416277
 20
44.190243
 11
-15.416277
 21
0
  0
LINE
  8
0
  6
CONTINUOUS
 62
     7
 10
-9.7404652
 20
-51.413628
 11
-9.7404652
 21
0
  0
LINE
  8
0
  6
CONTINUOUS
 62
     7
 10
-9.7404652
 20
-51.413628
 11
0
 21
-51.413628
  0
LINE
  8
0
  6
CONTINUOUS
 62
     7
 10
-15.416277
 20
-44.190243
 11
-15.416277
 21
0
  0
LINE
  8
0
  6
CONTINUOUS
 62
     7
 10
-41.112774
 20
-43.387226
 11
-13.828384
 21
-44.239864
  0
LINE
  8
0
  6
CONTINUOUS
 62
     7
 10
-11.999998
 20
-47.5
 11
-9.7404633
 21
-51.413628
  0
LINE
  8
0
  6
CONTINUOUS
 62
     7
 10
-12
 20
-47.5
 11
-12
 21
0
  0
LINE
  8
0
  6
CONTINUOUS
 62
     7
 10
-9.7404652
 20
-36.354927
 11
0
 21
-36.354927
  0
LINE
  8
0
  6
CONTINUOUS
 62
     7
 10
-44
 20
-40.5
 11
-44
 21
0
  0
LINE
  8
0
  6
CONTINUOUS
 62
     7
 10
0
 20
-51.413628
 11
0
 21
0
  0
LINE
  8
0
  6
CONTINUOUS
 62
     7
 10
-41.112774
 20
-43.387226
 11
-41.112774
 21
0
  0
LINE
  8
0
  6
CONTINUOUS
 62
     7
 10
-42.639484
 20
-41.860516
 11
-42.639484
 21
0
  0
LINE
  8
0
  6
CONTINUOUS
 62
     7
 10
-12
 20
-46
 11
-15.416277
 21
-42.711239
  0
LINE
  8
0
  6
CONTINUOUS
 62
     7
 10
-44
 20
-40.5
 11
-41.112774
 21
-43.387226
  0
LINE
  8
0
  6
CONTINUOUS
 62
     7
 10
-42.639484
 20
-41.860516
 11
-15.416277
 21
-42.711243
  0
LINE
  8
0
  6
CONTINUOUS
 62
     7
 10
-9.7404652
 20
0
 11
0
 21
0
  0
ARC
  8
0
  6
CONTINUOUS
 62
     7
 10
1.6746354
 20
43.884277
 40
13.674635
 50
146.59132
 51
213.40867
  0
ARC
  8
0
  6
CONTINUOUS
 62
     7
 10
62.246616
 20
18.177464
 40
74.246613
 50
165.82848
 51
194.17151
  0
ARC
  8
0
  6
CONTINUOUS
 62
     7
 10
1.6746354
 20
-43.884277
 40
13.674635
 50
146.59132
 51
213.40867
  0
ARC
  8
0
  6
CONTINUOUS
 62
     7
 10
62.246616
 20
-18.177464
 40
74.246613
 50
165.82848
 51
194.17151
  0
TEXT
  8
0
  6
CONTINUOUS
 62
     7
 10
-44.228888
 20
56.75078
 40
3.2
 41
0.85537027
  1
３×１
  0
ENDBLK
  8
0
  0
BLOCK
  8
0
  2
KOZU34
 70
    64
 10
0
 20
0
  0
POINT
  8
0
  6
CONTINUOUS
 62
     7
 10
0
 20
0
  0
POINT
  8
0
  6
CONTINUOUS
 62
     7
 10
-3.325
 20
-1.025
  0
POINT
  8
0
  6
CONTINUOUS
 62
     7
 10
0
 20
0
  0
POINT
  8
0
  6
CONTINUOUS
 62
     7
 10
-12
 20
46
  0
POINT
  8
0
  6
CONTINUOUS
 62
     7
 10
-12
 20
-46
  0
POINT
  8
0
  6
CONTINUOUS
 62
     7
 10
0
 20
0
  0
LINE
  8
0
  6
CONTINUOUS
 62
     7
 10
-9.7404652
 20
51.413628
 11
0
 21
51.413628
  0
LINE
  8
0
  6
CONTINUOUS
 62
     7
 10
-9.7404652
 20
36.354927
 11
0
 21
36.354927
  0
LINE
  8
0
  6
CENTER
 62
     7
 10
-49.355862
 20
0
 11
6.2829747
 21
0
  0
LINE
  8
0
  6
CONTINUOUS
 62
     7
 10
0
 20
51.413628
 11
0
 21
0
  0
LINE
  8
0
  6
CONTINUOUS
 62
     7
 10
-44
 20
40.5
 11
-44
 21
0
  0
LINE
  8
0
  6
CONTINUOUS
 62
     7
 10
-12
 20
47.5
 11
-12
 21
0
  0
LINE
  8
0
  6
CONTINUOUS
 62
     7
 10
-11.999998
 20
47.5
 11
-9.7404633
 21
51.413628
  0
LINE
  8
0
  6
CONTINUOUS
 62
     7
 10
-9.7404652
 20
51.413628
 11
-9.7404652
 21
0
  0
LINE
  8
0
  6
CONTINUOUS
 62
     7
 10
-44
 20
40.5
 11
-41.112774
 21
43.387226
  0
LINE
  8
0
  6
CONTINUOUS
 62
     7
 10
-41.112774
 20
43.387226
 11
-13.828384
 21
44.239864
  0
LINE
  8
0
  6
CONTINUOUS
 62
     7
 10
-42.639484
 20
41.860516
 11
-15.416277
 21
42.711243
  0
LINE
  8
0
  6
CONTINUOUS
 62
     7
 10
-41.112774
 20
43.387226
 11
-41.112774
 21
0
  0
LINE
  8
0
  6
CONTINUOUS
 62
     7
 10
-12
 20
46
 11
-15.416277
 21
42.711239
  0
LINE
  8
0
  6
CONTINUOUS
 62
     7
 10
-42.639484
 20
41.860516
 11
-42.639484
 21
0
  0
LINE
  8
0
  6
CONTINUOUS
 62
     7
 10
-15.416277
 20
44.190243
 11
-15.416277
 21
0
  0
LINE
  8
0
  6
CONTINUOUS
 62
     7
 10
-9.7404652
 20
-51.413628
 11
-9.7404652
 21
0
  0
LINE
  8
0
  6
CONTINUOUS
 62
     7
 10
-9.7404652
 20
-51.413628
 11
0
 21
-51.413628
  0
LINE
  8
0
  6
CONTINUOUS
 62
     7
 10
-15.416277
 20
-44.190243
 11
-15.416277
 21
0
  0
LINE
  8
0
  6
CONTINUOUS
 62
     7
 10
-41.112774
 20
-43.387226
 11
-13.828384
 21
-44.239864
  0
LINE
  8
0
  6
CONTINUOUS
 62
     7
 10
-11.999998
 20
-47.5
 11
-9.7404633
 21
-51.413628
  0
LINE
  8
0
  6
CONTINUOUS
 62
     7
 10
-12
 20
-47.5
 11
-12
 21
0
  0
LINE
  8
0
  6
CONTINUOUS
 62
     7
 10
-9.7404652
 20
-36.354927
 11
0
 21
-36.354927
  0
LINE
  8
0
  6
CONTINUOUS
 62
     7
 10
-44
 20
-40.5
 11
-44
 21
0
  0
LINE
  8
0
  6
CONTINUOUS
 62
     7
 10
0
 20
-51.413628
 11
0
 21
0
  0
LINE
  8
0
  6
CONTINUOUS
 62
     7
 10
-41.112774
 20
-43.387226
 11
-41.112774
 21
0
  0
LINE
  8
0
  6
CONTINUOUS
 62
     7
 10
-42.639484
 20
-41.860516
 11
-42.639484
 21
0
  0
LINE
  8
0
  6
CONTINUOUS
 62
     7
 10
-12
 20
-46
 11
-15.416277
 21
-42.711239
  0
LINE
  8
0
  6
CONTINUOUS
 62
     7
 10
-44
 20
-40.5
 11
-41.112774
 21
-43.387226
  0
LINE
  8
0
  6
CONTINUOUS
 62
     7
 10
-42.639484
 20
-41.860516
 11
-15.416277
 21
-42.711243
  0
LINE
  8
0
  6
CONTINUOUS
 62
     7
 10
-9.7404652
 20
0
 11
0
 21
0
  0
ARC
  8
0
  6
CONTINUOUS
 62
     7
 10
1.6746354
 20
43.884277
 40
13.674635
 50
146.59132
 51
213.40867
  0
ARC
  8
0
  6
CONTINUOUS
 62
     7
 10
62.246616
 20
18.177464
 40
74.246613
 50
165.82848
 51
194.17151
  0
ARC
  8
0
  6
CONTINUOUS
 62
     7
 10
1.6746354
 20
-43.884277
 40
13.674635
 50
146.59132
 51
213.40867
  0
ARC
  8
0
  6
CONTINUOUS
 62
     7
 10
62.246616
 20
-18.177464
 40
74.246613
 50
165.82848
 51
194.17151
  0
TEXT
  8
0
  6
CONTINUOUS
 62
     7
 10
-44.228888
 20
56.75078
 40
3.2
 41
0.84741102
  1
３×１１／４
  0
ENDBLK
  8
0
  0
BLOCK
  8
0
  2
KOZU35
 70
    64
 10
0
 20
0
  0
POINT
  8
0
  6
CONTINUOUS
 62
     7
 10
10.15
 20
9.4499998
  0
POINT
  8
0
  6
CONTINUOUS
 62
     7
 10
-1.85
 20
55.450001
  0
POINT
  8
0
  6
CONTINUOUS
 62
     7
 10
-1.85
 20
-36.549999
  0
POINT
  8
0
  6
CONTINUOUS
 62
     7
 10
10.15
 20
9.4499998
  0
LINE
  8
0
  6
CONTINUOUS
 62
     7
 10
0.40953505
 20
60.863628
 11
10.15
 21
60.863628
  0
LINE
  8
0
  6
CONTINUOUS
 62
     7
 10
0.40953505
 20
45.804928
 11
10.15
 21
45.804928
  0
LINE
  8
0
  6
CENTER
 62
     7
 10
-39.20586
 20
9.4499998
 11
16.432974
 21
9.4499998
  0
LINE
  8
0
  6
CONTINUOUS
 62
     7
 10
10.15
 20
60.863628
 11
10.15
 21
9.4499998
  0
LINE
  8
0
  6
CONTINUOUS
 62
     7
 10
-33.849998
 20
49.950001
 11
-33.849998
 21
9.4499998
  0
LINE
  8
0
  6
CONTINUOUS
 62
     7
 10
-1.85
 20
56.950001
 11
-1.85
 21
9.4499998
  0
LINE
  8
0
  6
CONTINUOUS
 62
     7
 10
-1.8499998
 20
56.949997
 11
0.40953505
 21
60.863628
  0
LINE
  8
0
  6
CONTINUOUS
 62
     7
 10
0.40953505
 20
60.863628
 11
0.40953505
 21
9.4499998
  0
LINE
  8
0
  6
CONTINUOUS
 62
     7
 10
-33.850002
 20
49.950001
 11
-30.962774
 21
52.837227
  0
LINE
  8
0
  6
CONTINUOUS
 62
     7
 10
-30.962774
 20
52.837227
 11
-3.6783848
 21
53.689865
  0
LINE
  8
0
  6
CONTINUOUS
 62
     7
 10
-32.489483
 20
51.310516
 11
-5.2662773
 21
52.16124
  0
LINE
  8
0
  6
CONTINUOUS
 62
     7
 10
-30.962774
 20
52.837227
 11
-30.962774
 21
9.4499998
  0
LINE
  8
0
  6
CONTINUOUS
 62
     7
 10
-1.8500018
 20
55.450001
 11
-5.2662797
 21
52.161243
  0
LINE
  8
0
  6
CONTINUOUS
 62
     7
 10
-32.489483
 20
51.310516
 11
-32.489483
 21
9.4499998
  0
LINE
  8
0
  6
CONTINUOUS
 62
     7
 10
-5.2662773
 20
53.64024
 11
-5.2662773
 21
9.4499998
  0
LINE
  8
0
  6
CONTINUOUS
 62
     7
 10
0.40953505
 20
-41.963631
 11
0.40953505
 21
9.4499998
  0
LINE
  8
0
  6
CONTINUOUS
 62
     7
 10
0.40953505
 20
-41.963631
 11
10.15
 21
-41.963631
  0
LINE
  8
0
  6
CONTINUOUS
 62
     7
 10
-5.2662773
 20
-34.740242
 11
-5.2662773
 21
9.4499998
  0
LINE
  8
0
  6
CONTINUOUS
 62
     7
 10
-30.962774
 20
-33.937229
 11
-3.6783848
 21
-34.789864
  0
LINE
  8
0
  6
CONTINUOUS
 62
     7
 10
-1.8499999
 20
-38.049999
 11
0.40953499
 21
-41.963631
  0
LINE
  8
0
  6
CONTINUOUS
 62
     7
 10
-1.85
 20
-38.049999
 11
-1.85
 21
9.4499998
  0
LINE
  8
0
  6
CONTINUOUS
 62
     7
 10
0.40953505
 20
-26.904926
 11
10.15
 21
-26.904926
  0
LINE
  8
0
  6
CONTINUOUS
 62
     7
 10
-33.849998
 20
-31.049999
 11
-33.849998
 21
9.4499998
  0
LINE
  8
0
  6
CONTINUOUS
 62
     7
 10
10.15
 20
-41.963631
 11
10.15
 21
9.4499998
  0
LINE
  8
0
  6
CONTINUOUS
 62
     7
 10
-30.962774
 20
-33.937225
 11
-30.962774
 21
9.4499998
  0
LINE
  8
0
  6
CONTINUOUS
 62
     7
 10
-32.489483
 20
-32.410515
 11
-32.489483
 21
9.4499998
  0
LINE
  8
0
  6
CONTINUOUS
 62
     7
 10
-1.8500013
 20
-36.549999
 11
-5.2662778
 21
-33.261242
  0
LINE
  8
0
  6
CONTINUOUS
 62
     7
 10
-33.850002
 20
-31.050001
 11
-30.962774
 21
-33.937225
  0
LINE
  8
0
  6
CONTINUOUS
 62
     7
 10
-32.489483
 20
-32.410519
 11
-5.2662773
 21
-33.261242
  0
LINE
  8
0
  6
CONTINUOUS
 62
     7
 10
0.40953505
 20
9.4499998
 11
10.15
 21
9.4499998
  0
ARC
  8
0
  6
CONTINUOUS
 62
     7
 10
11.824636
 20
53.334278
 40
13.674635
 50
146.59132
 51
213.40867
  0
ARC
  8
0
  6
CONTINUOUS
 62
     7
 10
72.396614
 20
27.627462
 40
74.246613
 50
165.82848
 51
194.17151
  0
ARC
  8
0
  6
CONTINUOUS
 62
     7
 10
11.824636
 20
-34.434277
 40
13.674635
 50
146.59132
 51
213.40867
  0
ARC
  8
0
  6
CONTINUOUS
 62
     7
 10
72.396614
 20
-8.7274628
 40
74.246613
 50
165.82848
 51
194.17151
  0
TEXT
  8
0
  6
CONTINUOUS
 62
     7
 10
-34.078886
 20
66.200781
 40
3.2
 41
0.84741102
  1
３×１１／２
  0
ENDBLK
  8
0
  0
BLOCK
  8
0
  2
KOZU36
 70
    64
 10
0
 20
0
  0
POINT
  8
0
  6
CONTINUOUS
 62
     7
 10
11.025
 20
10.675
  0
POINT
  8
0
  6
CONTINUOUS
 62
     7
 10
-0.97500002
 20
56.674999
  0
POINT
  8
0
  6
CONTINUOUS
 62
     7
 10
-0.97500002
 20
-35.325001
  0
POINT
  8
0
  6
CONTINUOUS
 62
     7
 10
11.025
 20
10.675
  0
LINE
  8
0
  6
CONTINUOUS
 62
     7
 10
1.2845351
 20
62.088631
 11
11.025
 21
62.088631
  0
LINE
  8
0
  6
CONTINUOUS
 62
     7
 10
1.2845351
 20
47.029926
 11
11.025
 21
47.029926
  0
LINE
  8
0
  6
CENTER
 62
     7
 10
-38.33086
 20
10.675
 11
17.307974
 21
10.675
  0
LINE
  8
0
  6
CONTINUOUS
 62
     7
 10
11.025
 20
62.088631
 11
11.025
 21
10.675
  0
LINE
  8
0
  6
CONTINUOUS
 62
     7
 10
-32.974998
 20
51.174999
 11
-32.974998
 21
10.675
  0
LINE
  8
0
  6
CONTINUOUS
 62
     7
 10
-0.97500002
 20
58.174999
 11
-0.97500002
 21
10.675
  0
LINE
  8
0
  6
CONTINUOUS
 62
     7
 10
-0.9749999
 20
58.174999
 11
1.2845349
 21
62.088631
  0
LINE
  8
0
  6
CONTINUOUS
 62
     7
 10
1.2845351
 20
62.088631
 11
1.2845351
 21
10.675
  0
LINE
  8
0
  6
CONTINUOUS
 62
     7
 10
-32.974998
 20
51.174999
 11
-30.087774
 21
54.062225
  0
LINE
  8
0
  6
CONTINUOUS
 62
     7
 10
-30.087774
 20
54.062225
 11
-2.8033845
 21
54.914864
  0
LINE
  8
0
  6
CONTINUOUS
 62
     7
 10
-31.614483
 20
52.535515
 11
-4.3912773
 21
53.386242
  0
LINE
  8
0
  6
CONTINUOUS
 62
     7
 10
-30.087774
 20
54.062225
 11
-30.087774
 21
10.675
  0
LINE
  8
0
  6
CONTINUOUS
 62
     7
 10
-0.97500074
 20
56.674999
 11
-4.3912787
 21
53.386242
  0
LINE
  8
0
  6
CONTINUOUS
 62
     7
 10
-31.614483
 20
52.535515
 11
-31.614483
 21
10.675
  0
LINE
  8
0
  6
CONTINUOUS
 62
     7
 10
-4.3912773
 20
54.865242
 11
-4.3912773
 21
10.675
  0
LINE
  8
0
  6
CONTINUOUS
 62
     7
 10
1.2845351
 20
-40.738628
 11
1.2845351
 21
10.675
  0
LINE
  8
0
  6
CONTINUOUS
 62
     7
 10
1.2845351
 20
-40.738628
 11
11.025
 21
-40.738628
  0
LINE
  8
0
  6
CONTINUOUS
 62
     7
 10
-4.3912773
 20
-33.51524
 11
-4.3912773
 21
10.675
  0
LINE
  8
0
  6
CONTINUOUS
 62
     7
 10
-30.087772
 20
-32.712223
 11
-2.8033845
 21
-33.564861
  0
LINE
  8
0
  6
CONTINUOUS
 62
     7
 10
-0.97499943
 20
-36.825001
 11
1.2845354
 21
-40.738628
  0
LINE
  8
0
  6
CONTINUOUS
 62
     7
 10
-0.97500002
 20
-36.825001
 11
-0.97500002
 21
10.675
  0
LINE
  8
0
  6
CONTINUOUS
 62
     7
 10
1.2845351
 20
-25.679926
 11
11.025
 21
-25.679926
  0
LINE
  8
0
  6
CONTINUOUS
 62
     7
 10
-32.974998
 20
-29.825001
 11
-32.974998
 21
10.675
  0
LINE
  8
0
  6
CONTINUOUS
 62
     7
 10
11.025
 20
-40.738628
 11
11.025
 21
10.675
  0
LINE
  8
0
  6
CONTINUOUS
 62
     7
 10
-30.087774
 20
-32.712227
 11
-30.087774
 21
10.675
  0
LINE
  8
0
  6
CONTINUOUS
 62
     7
 10
-31.614483
 20
-31.185516
 11
-31.614483
 21
10.675
  0
LINE
  8
0
  6
CONTINUOUS
 62
     7
 10
-0.97499979
 20
-35.325001
 11
-4.3912778
 21
-32.03624
  0
LINE
  8
0
  6
CONTINUOUS
 62
     7
 10
-32.975002
 20
-29.825001
 11
-30.087774
 21
-32.712227
  0
LINE
  8
0
  6
CONTINUOUS
 62
     7
 10
-31.614483
 20
-31.185518
 11
-4.3912773
 21
-32.036243
  0
LINE
  8
0
  6
CONTINUOUS
 62
     7
 10
1.2845351
 20
10.675
 11
11.025
 21
10.675
  0
ARC
  8
0
  6
CONTINUOUS
 62
     7
 10
12.699636
 20
54.559277
 40
13.674635
 50
146.59132
 51
213.40867
  0
ARC
  8
0
  6
CONTINUOUS
 62
     7
 10
73.271614
 20
28.852463
 40
74.246613
 50
165.82848
 51
194.17151
  0
ARC
  8
0
  6
CONTINUOUS
 62
     7
 10
12.699636
 20
-33.209278
 40
13.674635
 50
146.59132
 51
213.40867
  0
ARC
  8
0
  6
CONTINUOUS
 62
     7
 10
73.271614
 20
-7.5024629
 40
74.246613
 50
165.82848
 51
194.17151
  0
TEXT
  8
0
  6
CONTINUOUS
 62
     7
 10
-33.203886
 20
67.42578
 40
3.2
 41
0.85537027
  1
３×２
  0
ENDBLK
  8
0
  0
BLOCK
  8
0
  2
KOZU37
 70
    64
 10
0
 20
0
  0
POINT
  8
0
  6
CONTINUOUS
 62
     7
 10
11.55
 20
10.15
  0
POINT
  8
0
  6
CONTINUOUS
 62
     7
 10
-0.44999999
 20
56.150002
  0
POINT
  8
0
  6
CONTINUOUS
 62
     7
 10
-0.44999999
 20
-35.849998
  0
POINT
  8
0
  6
CONTINUOUS
 62
     7
 10
11.55
 20
10.15
  0
LINE
  8
0
  6
CONTINUOUS
 62
     7
 10
1.809535
 20
61.563629
 11
11.55
 21
61.563629
  0
LINE
  8
0
  6
CONTINUOUS
 62
     7
 10
1.809535
 20
46.504925
 11
11.55
 21
46.504925
  0
LINE
  8
0
  6
CENTER
 62
     7
 10
-37.805862
 20
10.15
 11
17.832975
 21
10.15
  0
LINE
  8
0
  6
CONTINUOUS
 62
     7
 10
11.55
 20
61.563629
 11
11.55
 21
10.15
  0
LINE
  8
0
  6
CONTINUOUS
 62
     7
 10
-32.450001
 20
50.650002
 11
-32.450001
 21
10.15
  0
LINE
  8
0
  6
CONTINUOUS
 62
     7
 10
-0.44999999
 20
57.650002
 11
-0.44999999
 21
10.15
  0
LINE
  8
0
  6
CONTINUOUS
 62
     7
 10
-0.44999921
 20
57.650002
 11
1.8095356
 21
61.563633
  0
LINE
  8
0
  6
CONTINUOUS
 62
     7
 10
1.809535
 20
61.563629
 11
1.809535
 21
10.15
  0
LINE
  8
0
  6
CONTINUOUS
 62
     7
 10
-32.450001
 20
50.650002
 11
-29.562775
 21
53.537228
  0
LINE
  8
0
  6
CONTINUOUS
 62
     7
 10
-29.562773
 20
53.537228
 11
-2.2783847
 21
54.389862
  0
LINE
  8
0
  6
CONTINUOUS
 62
     7
 10
-31.089483
 20
52.010517
 11
-3.8662772
 21
52.86124
  0
LINE
  8
0
  6
CONTINUOUS
 62
     7
 10
-29.562775
 20
53.537228
 11
-29.562775
 21
10.15
  0
LINE
  8
0
  6
CONTINUOUS
 62
     7
 10
-0.44999993
 20
56.150002
 11
-3.8662779
 21
52.86124
  0
LINE
  8
0
  6
CONTINUOUS
 62
     7
 10
-31.089483
 20
52.010517
 11
-31.089483
 21
10.15
  0
LINE
  8
0
  6
CONTINUOUS
 62
     7
 10
-3.8662772
 20
54.34024
 11
-3.8662772
 21
10.15
  0
LINE
  8
0
  6
CONTINUOUS
 62
     7
 10
1.809535
 20
-41.26363
 11
1.809535
 21
10.15
  0
LINE
  8
0
  6
CONTINUOUS
 62
     7
 10
1.809535
 20
-41.26363
 11
11.55
 21
-41.26363
  0
LINE
  8
0
  6
CONTINUOUS
 62
     7
 10
-3.8662772
 20
-34.040241
 11
-3.8662772
 21
10.15
  0
LINE
  8
0
  6
CONTINUOUS
 62
     7
 10
-29.562773
 20
-33.237225
 11
-2.2783847
 21
-34.089863
  0
LINE
  8
0
  6
CONTINUOUS
 62
     7
 10
-0.44999942
 20
-37.349998
 11
1.8095354
 21
-41.263626
  0
LINE
  8
0
  6
CONTINUOUS
 62
     7
 10
-0.44999999
 20
-37.349998
 11
-0.44999999
 21
10.15
  0
LINE
  8
0
  6
CONTINUOUS
 62
     7
 10
1.809535
 20
-26.204926
 11
11.55
 21
-26.204926
  0
LINE
  8
0
  6
CONTINUOUS
 62
     7
 10
-32.450001
 20
-30.35
 11
-32.450001
 21
10.15
  0
LINE
  8
0
  6
CONTINUOUS
 62
     7
 10
11.55
 20
-41.26363
 11
11.55
 21
10.15
  0
LINE
  8
0
  6
CONTINUOUS
 62
     7
 10
-29.562775
 20
-33.237225
 11
-29.562775
 21
10.15
  0
LINE
  8
0
  6
CONTINUOUS
 62
     7
 10
-31.089483
 20
-31.710516
 11
-31.089483
 21
10.15
  0
LINE
  8
0
  6
CONTINUOUS
 62
     7
 10
-0.45000091
 20
-35.849998
 11
-3.8662775
 21
-32.561241
  0
LINE
  8
0
  6
CONTINUOUS
 62
     7
 10
-32.450001
 20
-30.35
 11
-29.562775
 21
-33.237228
  0
LINE
  8
0
  6
CONTINUOUS
 62
     7
 10
-31.089483
 20
-31.710516
 11
-3.866277
 21
-32.561241
  0
LINE
  8
0
  6
CONTINUOUS
 62
     7
 10
1.809535
 20
10.15
 11
11.55
 21
10.15
  0
ARC
  8
0
  6
CONTINUOUS
 62
     7
 10
13.224635
 20
54.034279
 40
13.674635
 50
146.59132
 51
213.40867
  0
ARC
  8
0
  6
CONTINUOUS
 62
     7
 10
73.796616
 20
28.327463
 40
74.246613
 50
165.82848
 51
194.17151
  0
ARC
  8
0
  6
CONTINUOUS
 62
     7
 10
13.224635
 20
-33.73428
 40
13.674635
 50
146.59132
 51
213.40867
  0
ARC
  8
0
  6
CONTINUOUS
 62
     7
 10
73.796616
 20
-8.027463
 40
74.246613
 50
165.82848
 51
194.17151
  0
TEXT
  8
0
  6
CONTINUOUS
 62
     7
 10
-32.678889
 20
66.900778
 40
3.2
 41
0.84741102
  1
３×２１／２
  0
ENDBLK
  8
0
  0
BLOCK
  8
0
  2
KOZU38
 70
    64
 10
0
 20
0
  0
POINT
  8
0
  6
CONTINUOUS
 62
     7
 10
0
 20
0
  0
POINT
  8
0
  6
CONTINUOUS
 62
     7
 10
-14
 20
58.400002
  0
POINT
  8
0
  6
CONTINUOUS
 62
     7
 10
-14
 20
-58.400002
  0
POINT
  8
0
  6
CONTINUOUS
 62
     7
 10
0
 20
-3.5527137E-015
  0
LINE
  8
0
  6
CENTER
 62
     7
 10
-57.676315
 20
0
 11
6.4105263
 21
0
  0
LINE
  8
0
  6
CONTINUOUS
 62
     7
 10
-11.14585
 20
64.943535
 11
0
 21
64.943535
  0
LINE
  8
0
  6
CONTINUOUS
 62
     7
 10
0
 20
64.943535
 11
0
 21
0
  0
LINE
  8
0
  6
CONTINUOUS
 62
     7
 10
-51
 20
52.75
 11
-51
 21
0
  0
LINE
  8
0
  6
CONTINUOUS
 62
     7
 10
-14
 20
60
 11
-14
 21
0
  0
LINE
  8
0
  6
CONTINUOUS
 62
     7
 10
-13.999999
 20
60
 11
-11.14585
 21
64.943535
  0
LINE
  8
0
  6
CONTINUOUS
 62
     7
 10
-11.14585
 20
45.922012
 11
0
 21
45.922012
  0
LINE
  8
0
  6
CONTINUOUS
 62
     7
 10
-51
 20
52.75
 11
-47.932903
 21
55.817097
  0
LINE
  8
0
  6
CONTINUOUS
 62
     7
 10
-47.932903
 20
55.817097
 11
-15.860881
 21
56.819347
  0
LINE
  8
0
  6
CONTINUOUS
 62
     7
 10
-14
 20
58.399998
 11
-17.668594
 21
55.283855
  0
LINE
  8
0
  6
CONTINUOUS
 62
     7
 10
-49.459614
 20
54.290386
 11
-49.459614
 21
0
  0
LINE
  8
0
  6
CONTINUOUS
 62
     7
 10
-47.932903
 20
55.817097
 11
-47.932903
 21
0
  0
LINE
  8
0
  6
CONTINUOUS
 62
     7
 10
-17.668594
 20
56.762856
 11
-17.668594
 21
0
  0
LINE
  8
0
  6
CONTINUOUS
 62
     7
 10
-49.459614
 20
54.29039
 11
-17.668594
 21
55.283859
  0
LINE
  8
0
  6
CENTER
 62
     7
 10
-57.676315
 20
0
 11
6.4105263
 21
0
  0
LINE
  8
0
  6
CONTINUOUS
 62
     7
 10
-11.14585
 20
-45.922012
 11
0
 21
-45.922012
  0
LINE
  8
0
  6
CONTINUOUS
 62
     7
 10
-17.668594
 20
-56.762856
 11
-17.668594
 21
0
  0
LINE
  8
0
  6
CONTINUOUS
 62
     7
 10
-49.459614
 20
-54.290386
 11
-49.459614
 21
0
  0
LINE
  8
0
  6
CONTINUOUS
 62
     7
 10
-49.459614
 20
-54.29039
 11
-17.668594
 21
-55.283859
  0
LINE
  8
0
  6
CONTINUOUS
 62
     7
 10
-13.999999
 20
-60
 11
-11.14585
 21
-64.943535
  0
LINE
  8
0
  6
CONTINUOUS
 62
     7
 10
-47.932903
 20
-55.817097
 11
-47.932903
 21
0
  0
LINE
  8
0
  6
CONTINUOUS
 62
     7
 10
-11.14585
 20
-64.943535
 11
0
 21
-64.943535
  0
LINE
  8
0
  6
CONTINUOUS
 62
     7
 10
-51
 20
-52.75
 11
-47.932903
 21
-55.817097
  0
LINE
  8
0
  6
CONTINUOUS
 62
     7
 10
-14
 20
-60
 11
-14
 21
0
  0
LINE
  8
0
  6
CONTINUOUS
 62
     7
 10
-47.932903
 20
-55.817097
 11
-15.860881
 21
-56.819347
  0
LINE
  8
0
  6
CONTINUOUS
 62
     7
 10
-51
 20
-52.75
 11
-51
 21
0
  0
LINE
  8
0
  6
CONTINUOUS
 62
     7
 10
-14
 20
-58.399998
 11
-17.668594
 21
-55.283855
  0
LINE
  8
0
  6
CONTINUOUS
 62
     7
 10
0
 20
-64.943535
 11
0
 21
0
  0
LINE
  8
0
  6
CONTINUOUS
 62
     7
 10
-11.14585
 20
-3.5527137E-015
 11
0
 21
-3.5527137E-015
  0
ARC
  8
0
  6
CONTINUOUS
 62
     7
 10
3.2732236
 20
55.432774
 40
17.273224
 50
146.59132
 51
213.40867
  0
ARC
  8
0
  6
CONTINUOUS
 62
     7
 10
79.785202
 20
22.961006
 40
93.785202
 50
165.82848
 51
194.17151
  0
ARC
  8
0
  6
CONTINUOUS
 62
     7
 10
79.785202
 20
-22.961006
 40
93.785202
 50
165.82848
 51
194.17151
  0
ARC
  8
0
  6
CONTINUOUS
 62
     7
 10
3.2732236
 20
-55.432774
 40
17.273224
 50
146.59132
 51
213.40867
  0
TEXT
  8
0
  6
CONTINUOUS
 62
     7
 10
-47.035792
 20
69.868956
 40
3.2
 41
0.84892707
  1
４×１／２
  0
ENDBLK
  8
0
  0
BLOCK
  8
0
  2
KOZU39
 70
    64
 10
0
 20
0
  0
POINT
  8
0
  6
CONTINUOUS
 62
     7
 10
0
 20
0
  0
POINT
  8
0
  6
CONTINUOUS
 62
     7
 10
0
 20
3.5527137E-015
  0
POINT
  8
0
  6
CONTINUOUS
 62
     7
 10
-14
 20
58.400002
  0
POINT
  8
0
  6
CONTINUOUS
 62
     7
 10
-14
 20
-58.400002
  0
POINT
  8
0
  6
CONTINUOUS
 62
     7
 10
0
 20
0
  0
LINE
  8
0
  6
CENTER
 62
     7
 10
-57.676315
 20
3.5527137E-015
 11
6.4105263
 21
3.5527137E-015
  0
LINE
  8
0
  6
CONTINUOUS
 62
     7
 10
-11.14585
 20
64.943535
 11
0
 21
64.943535
  0
LINE
  8
0
  6
CONTINUOUS
 62
     7
 10
0
 20
64.943535
 11
0
 21
3.5527137E-015
  0
LINE
  8
0
  6
CONTINUOUS
 62
     7
 10
-51
 20
52.75
 11
-51
 21
3.5527137E-015
  0
LINE
  8
0
  6
CONTINUOUS
 62
     7
 10
-14
 20
60
 11
-14
 21
3.5527137E-015
  0
LINE
  8
0
  6
CONTINUOUS
 62
     7
 10
-13.999999
 20
60
 11
-11.14585
 21
64.943535
  0
LINE
  8
0
  6
CONTINUOUS
 62
     7
 10
-11.14585
 20
45.922012
 11
0
 21
45.922012
  0
LINE
  8
0
  6
CONTINUOUS
 62
     7
 10
-51
 20
52.75
 11
-47.932903
 21
55.817097
  0
LINE
  8
0
  6
CONTINUOUS
 62
     7
 10
-47.932903
 20
55.817097
 11
-15.860881
 21
56.819347
  0
LINE
  8
0
  6
CONTINUOUS
 62
     7
 10
-14
 20
58.399998
 11
-17.668594
 21
55.283855
  0
LINE
  8
0
  6
CONTINUOUS
 62
     7
 10
-49.459614
 20
54.290386
 11
-49.459614
 21
3.5527137E-015
  0
LINE
  8
0
  6
CONTINUOUS
 62
     7
 10
-47.932903
 20
55.817097
 11
-47.932903
 21
3.5527137E-015
  0
LINE
  8
0
  6
CONTINUOUS
 62
     7
 10
-17.668594
 20
56.762856
 11
-17.668594
 21
3.5527137E-015
  0
LINE
  8
0
  6
CONTINUOUS
 62
     7
 10
-49.459614
 20
54.29039
 11
-17.668594
 21
55.283859
  0
LINE
  8
0
  6
CENTER
 62
     7
 10
-57.676315
 20
3.5527137E-015
 11
6.4105263
 21
3.5527137E-015
  0
LINE
  8
0
  6
CONTINUOUS
 62
     7
 10
-11.14585
 20
-45.922012
 11
0
 21
-45.922012
  0
LINE
  8
0
  6
CONTINUOUS
 62
     7
 10
-17.668594
 20
-56.762856
 11
-17.668594
 21
3.5527137E-015
  0
LINE
  8
0
  6
CONTINUOUS
 62
     7
 10
-49.459614
 20
-54.290386
 11
-49.459614
 21
3.5527137E-015
  0
LINE
  8
0
  6
CONTINUOUS
 62
     7
 10
-49.459614
 20
-54.29039
 11
-17.668594
 21
-55.283859
  0
LINE
  8
0
  6
CONTINUOUS
 62
     7
 10
-13.999999
 20
-60
 11
-11.14585
 21
-64.943535
  0
LINE
  8
0
  6
CONTINUOUS
 62
     7
 10
-47.932903
 20
-55.817097
 11
-47.932903
 21
3.5527137E-015
  0
LINE
  8
0
  6
CONTINUOUS
 62
     7
 10
-11.14585
 20
-64.943535
 11
0
 21
-64.943535
  0
LINE
  8
0
  6
CONTINUOUS
 62
     7
 10
-51
 20
-52.75
 11
-47.932903
 21
-55.817097
  0
LINE
  8
0
  6
CONTINUOUS
 62
     7
 10
-14
 20
-60
 11
-14
 21
3.5527137E-015
  0
LINE
  8
0
  6
CONTINUOUS
 62
     7
 10
-47.932903
 20
-55.817097
 11
-15.860881
 21
-56.819347
  0
LINE
  8
0
  6
CONTINUOUS
 62
     7
 10
-51
 20
-52.75
 11
-51
 21
3.5527137E-015
  0
LINE
  8
0
  6
CONTINUOUS
 62
     7
 10
-14
 20
-58.399998
 11
-17.668594
 21
-55.283855
  0
LINE
  8
0
  6
CONTINUOUS
 62
     7
 10
0
 20
-64.943535
 11
0
 21
3.5527137E-015
  0
LINE
  8
0
  6
CONTINUOUS
 62
     7
 10
-11.14585
 20
0
 11
0
 21
0
  0
ARC
  8
0
  6
CONTINUOUS
 62
     7
 10
3.2732236
 20
55.432774
 40
17.273224
 50
146.59132
 51
213.40867
  0
ARC
  8
0
  6
CONTINUOUS
 62
     7
 10
79.785202
 20
22.961006
 40
93.785202
 50
165.82848
 51
194.17151
  0
ARC
  8
0
  6
CONTINUOUS
 62
     7
 10
79.785202
 20
-22.961006
 40
93.785202
 50
165.82848
 51
194.17151
  0
ARC
  8
0
  6
CONTINUOUS
 62
     7
 10
3.2732236
 20
-55.432774
 40
17.273224
 50
146.59132
 51
213.40867
  0
TEXT
  8
0
  6
CONTINUOUS
 62
     7
 10
-47.035792
 20
69.868956
 40
3.2
 41
0.84892707
  1
４×３／４
  0
ENDBLK
  8
0
  0
BLOCK
  8
0
  2
KOZU40
 70
    64
 10
0
 20
0
  0
POINT
  8
0
  6
CONTINUOUS
 62
     7
 10
0
 20
0
  0
POINT
  8
0
  6
CONTINUOUS
 62
     7
 10
0
 20
3.5527137E-015
  0
POINT
  8
0
  6
CONTINUOUS
 62
     7
 10
-14
 20
58.400002
  0
POINT
  8
0
  6
CONTINUOUS
 62
     7
 10
-14
 20
-58.400002
  0
POINT
  8
0
  6
CONTINUOUS
 62
     7
 10
0
 20
0
  0
LINE
  8
0
  6
CENTER
 62
     7
 10
-57.676315
 20
3.5527137E-015
 11
6.4105263
 21
3.5527137E-015
  0
LINE
  8
0
  6
CONTINUOUS
 62
     7
 10
-11.14585
 20
64.943535
 11
0
 21
64.943535
  0
LINE
  8
0
  6
CONTINUOUS
 62
     7
 10
0
 20
64.943535
 11
0
 21
3.5527137E-015
  0
LINE
  8
0
  6
CONTINUOUS
 62
     7
 10
-51
 20
52.75
 11
-51
 21
3.5527137E-015
  0
LINE
  8
0
  6
CONTINUOUS
 62
     7
 10
-14
 20
60
 11
-14
 21
3.5527137E-015
  0
LINE
  8
0
  6
CONTINUOUS
 62
     7
 10
-13.999999
 20
60
 11
-11.14585
 21
64.943535
  0
LINE
  8
0
  6
CONTINUOUS
 62
     7
 10
-11.14585
 20
45.922012
 11
0
 21
45.922012
  0
LINE
  8
0
  6
CONTINUOUS
 62
     7
 10
-51
 20
52.75
 11
-47.932903
 21
55.817097
  0
LINE
  8
0
  6
CONTINUOUS
 62
     7
 10
-47.932903
 20
55.817097
 11
-15.860881
 21
56.819347
  0
LINE
  8
0
  6
CONTINUOUS
 62
     7
 10
-14
 20
58.399998
 11
-17.668594
 21
55.283855
  0
LINE
  8
0
  6
CONTINUOUS
 62
     7
 10
-49.459614
 20
54.290386
 11
-49.459614
 21
3.5527137E-015
  0
LINE
  8
0
  6
CONTINUOUS
 62
     7
 10
-47.932903
 20
55.817097
 11
-47.932903
 21
3.5527137E-015
  0
LINE
  8
0
  6
CONTINUOUS
 62
     7
 10
-17.668594
 20
56.762856
 11
-17.668594
 21
3.5527137E-015
  0
LINE
  8
0
  6
CONTINUOUS
 62
     7
 10
-49.459614
 20
54.29039
 11
-17.668594
 21
55.283859
  0
LINE
  8
0
  6
CENTER
 62
     7
 10
-57.676315
 20
3.5527137E-015
 11
6.4105263
 21
3.5527137E-015
  0
LINE
  8
0
  6
CONTINUOUS
 62
     7
 10
-11.14585
 20
-45.922012
 11
0
 21
-45.922012
  0
LINE
  8
0
  6
CONTINUOUS
 62
     7
 10
-17.668594
 20
-56.762856
 11
-17.668594
 21
3.5527137E-015
  0
LINE
  8
0
  6
CONTINUOUS
 62
     7
 10
-49.459614
 20
-54.290386
 11
-49.459614
 21
3.5527137E-015
  0
LINE
  8
0
  6
CONTINUOUS
 62
     7
 10
-49.459614
 20
-54.29039
 11
-17.668594
 21
-55.283859
  0
LINE
  8
0
  6
CONTINUOUS
 62
     7
 10
-13.999999
 20
-60
 11
-11.14585
 21
-64.943535
  0
LINE
  8
0
  6
CONTINUOUS
 62
     7
 10
-47.932903
 20
-55.817097
 11
-47.932903
 21
3.5527137E-015
  0
LINE
  8
0
  6
CONTINUOUS
 62
     7
 10
-11.14585
 20
-64.943535
 11
0
 21
-64.943535
  0
LINE
  8
0
  6
CONTINUOUS
 62
     7
 10
-51
 20
-52.75
 11
-47.932903
 21
-55.817097
  0
LINE
  8
0
  6
CONTINUOUS
 62
     7
 10
-14
 20
-60
 11
-14
 21
3.5527137E-015
  0
LINE
  8
0
  6
CONTINUOUS
 62
     7
 10
-47.932903
 20
-55.817097
 11
-15.860881
 21
-56.819347
  0
LINE
  8
0
  6
CONTINUOUS
 62
     7
 10
-51
 20
-52.75
 11
-51
 21
3.5527137E-015
  0
LINE
  8
0
  6
CONTINUOUS
 62
     7
 10
-14
 20
-58.399998
 11
-17.668594
 21
-55.283855
  0
LINE
  8
0
  6
CONTINUOUS
 62
     7
 10
0
 20
-64.943535
 11
0
 21
3.5527137E-015
  0
LINE
  8
0
  6
CONTINUOUS
 62
     7
 10
-11.14585
 20
0
 11
0
 21
0
  0
ARC
  8
0
  6
CONTINUOUS
 62
     7
 10
3.2732236
 20
55.432774
 40
17.273224
 50
146.59132
 51
213.40867
  0
ARC
  8
0
  6
CONTINUOUS
 62
     7
 10
79.785202
 20
22.961006
 40
93.785202
 50
165.82848
 51
194.17151
  0
ARC
  8
0
  6
CONTINUOUS
 62
     7
 10
79.785202
 20
-22.961006
 40
93.785202
 50
165.82848
 51
194.17151
  0
ARC
  8
0
  6
CONTINUOUS
 62
     7
 10
3.2732236
 20
-55.432774
 40
17.273224
 50
146.59132
 51
213.40867
  0
TEXT
  8
0
  6
CONTINUOUS
 62
     7
 10
-47.035792
 20
69.868956
 40
3.2
 41
0.85537027
  1
４×１
  0
ENDBLK
  8
0
  0
BLOCK
  8
0
  2
KOZU41
 70
    64
 10
0
 20
0
  0
POINT
  8
0
  6
CONTINUOUS
 62
     7
 10
0
 20
0
  0
POINT
  8
0
  6
CONTINUOUS
 62
     7
 10
0
 20
3.5527137E-015
  0
POINT
  8
0
  6
CONTINUOUS
 62
     7
 10
-14
 20
58.400002
  0
POINT
  8
0
  6
CONTINUOUS
 62
     7
 10
-14
 20
-58.400002
  0
POINT
  8
0
  6
CONTINUOUS
 62
     7
 10
0
 20
0
  0
LINE
  8
0
  6
CENTER
 62
     7
 10
-57.676315
 20
3.5527137E-015
 11
6.4105263
 21
3.5527137E-015
  0
LINE
  8
0
  6
CONTINUOUS
 62
     7
 10
-11.14585
 20
64.943535
 11
0
 21
64.943535
  0
LINE
  8
0
  6
CONTINUOUS
 62
     7
 10
0
 20
64.943535
 11
0
 21
3.5527137E-015
  0
LINE
  8
0
  6
CONTINUOUS
 62
     7
 10
-51
 20
52.75
 11
-51
 21
3.5527137E-015
  0
LINE
  8
0
  6
CONTINUOUS
 62
     7
 10
-14
 20
60
 11
-14
 21
3.5527137E-015
  0
LINE
  8
0
  6
CONTINUOUS
 62
     7
 10
-13.999999
 20
60
 11
-11.14585
 21
64.943535
  0
LINE
  8
0
  6
CONTINUOUS
 62
     7
 10
-11.14585
 20
45.922012
 11
0
 21
45.922012
  0
LINE
  8
0
  6
CONTINUOUS
 62
     7
 10
-51
 20
52.75
 11
-47.932903
 21
55.817097
  0
LINE
  8
0
  6
CONTINUOUS
 62
     7
 10
-47.932903
 20
55.817097
 11
-15.860881
 21
56.819347
  0
LINE
  8
0
  6
CONTINUOUS
 62
     7
 10
-14
 20
58.399998
 11
-17.668594
 21
55.283855
  0
LINE
  8
0
  6
CONTINUOUS
 62
     7
 10
-49.459614
 20
54.290386
 11
-49.459614
 21
3.5527137E-015
  0
LINE
  8
0
  6
CONTINUOUS
 62
     7
 10
-47.932903
 20
55.817097
 11
-47.932903
 21
3.5527137E-015
  0
LINE
  8
0
  6
CONTINUOUS
 62
     7
 10
-17.668594
 20
56.762856
 11
-17.668594
 21
3.5527137E-015
  0
LINE
  8
0
  6
CONTINUOUS
 62
     7
 10
-49.459614
 20
54.29039
 11
-17.668594
 21
55.283859
  0
LINE
  8
0
  6
CENTER
 62
     7
 10
-57.676315
 20
3.5527137E-015
 11
6.4105263
 21
3.5527137E-015
  0
LINE
  8
0
  6
CONTINUOUS
 62
     7
 10
-11.14585
 20
-45.922012
 11
0
 21
-45.922012
  0
LINE
  8
0
  6
CONTINUOUS
 62
     7
 10
-17.668594
 20
-56.762856
 11
-17.668594
 21
3.5527137E-015
  0
LINE
  8
0
  6
CONTINUOUS
 62
     7
 10
-49.459614
 20
-54.290386
 11
-49.459614
 21
3.5527137E-015
  0
LINE
  8
0
  6
CONTINUOUS
 62
     7
 10
-49.459614
 20
-54.29039
 11
-17.668594
 21
-55.283859
  0
LINE
  8
0
  6
CONTINUOUS
 62
     7
 10
-13.999999
 20
-60
 11
-11.14585
 21
-64.943535
  0
LINE
  8
0
  6
CONTINUOUS
 62
     7
 10
-47.932903
 20
-55.817097
 11
-47.932903
 21
3.5527137E-015
  0
LINE
  8
0
  6
CONTINUOUS
 62
     7
 10
-11.14585
 20
-64.943535
 11
0
 21
-64.943535
  0
LINE
  8
0
  6
CONTINUOUS
 62
     7
 10
-51
 20
-52.75
 11
-47.932903
 21
-55.817097
  0
LINE
  8
0
  6
CONTINUOUS
 62
     7
 10
-14
 20
-60
 11
-14
 21
3.5527137E-015
  0
LINE
  8
0
  6
CONTINUOUS
 62
     7
 10
-47.932903
 20
-55.817097
 11
-15.860881
 21
-56.819347
  0
LINE
  8
0
  6
CONTINUOUS
 62
     7
 10
-51
 20
-52.75
 11
-51
 21
3.5527137E-015
  0
LINE
  8
0
  6
CONTINUOUS
 62
     7
 10
-14
 20
-58.399998
 11
-17.668594
 21
-55.283855
  0
LINE
  8
0
  6
CONTINUOUS
 62
     7
 10
0
 20
-64.943535
 11
0
 21
3.5527137E-015
  0
LINE
  8
0
  6
CONTINUOUS
 62
     7
 10
-11.14585
 20
0
 11
0
 21
0
  0
ARC
  8
0
  6
CONTINUOUS
 62
     7
 10
3.2732236
 20
55.432774
 40
17.273224
 50
146.59132
 51
213.40867
  0
ARC
  8
0
  6
CONTINUOUS
 62
     7
 10
79.785202
 20
22.961006
 40
93.785202
 50
165.82848
 51
194.17151
  0
ARC
  8
0
  6
CONTINUOUS
 62
     7
 10
79.785202
 20
-22.961006
 40
93.785202
 50
165.82848
 51
194.17151
  0
ARC
  8
0
  6
CONTINUOUS
 62
     7
 10
3.2732236
 20
-55.432774
 40
17.273224
 50
146.59132
 51
213.40867
  0
TEXT
  8
0
  6
CONTINUOUS
 62
     7
 10
-47.035792
 20
69.868956
 40
3.2
 41
0.84741102
  1
４×１１／４
  0
ENDBLK
  8
0
  0
BLOCK
  8
0
  2
KOZU42
 70
    64
 10
0
 20
0
  0
POINT
  8
0
  6
CONTINUOUS
 62
     7
 10
16.1
 20
9.8000002
  0
POINT
  8
0
  6
CONTINUOUS
 62
     7
 10
2.0999999
 20
68.199997
  0
POINT
  8
0
  6
CONTINUOUS
 62
     7
 10
2.0999999
 20
-48.599998
  0
POINT
  8
0
  6
CONTINUOUS
 62
     7
 10
16.1
 20
9.8000002
  0
LINE
  8
0
  6
CENTER
 62
     7
 10
-41.576317
 20
9.8000002
 11
22.510527
 21
9.8000002
  0
LINE
  8
0
  6
CONTINUOUS
 62
     7
 10
4.9541497
 20
74.74353
 11
16.1
 21
74.74353
  0
LINE
  8
0
  6
CONTINUOUS
 62
     7
 10
16.1
 20
74.74353
 11
16.1
 21
9.8000002
  0
LINE
  8
0
  6
CONTINUOUS
 62
     7
 10
-34.900002
 20
62.549999
 11
-34.900002
 21
9.8000002
  0
LINE
  8
0
  6
CONTINUOUS
 62
     7
 10
2.0999999
 20
69.800003
 11
2.0999999
 21
9.8000002
  0
LINE
  8
0
  6
CONTINUOUS
 62
     7
 10
2.0999992
 20
69.800003
 11
4.9541478
 21
74.74353
  0
LINE
  8
0
  6
CONTINUOUS
 62
     7
 10
4.9541497
 20
55.722012
 11
16.1
 21
55.722012
  0
LINE
  8
0
  6
CONTINUOUS
 62
     7
 10
-34.899998
 20
62.549999
 11
-31.832901
 21
65.617096
  0
LINE
  8
0
  6
CONTINUOUS
 62
     7
 10
-31.832903
 20
65.617104
 11
0.23911893
 21
66.619347
  0
LINE
  8
0
  6
CONTINUOUS
 62
     7
 10
2.0999994
 20
68.199997
 11
-1.5685943
 21
65.083855
  0
LINE
  8
0
  6
CONTINUOUS
 62
     7
 10
-33.359612
 20
64.090385
 11
-33.359612
 21
9.8000002
  0
LINE
  8
0
  6
CONTINUOUS
 62
     7
 10
-31.832903
 20
65.617096
 11
-31.832903
 21
9.8000002
  0
LINE
  8
0
  6
CONTINUOUS
 62
     7
 10
-1.5685939
 20
66.562859
 11
-1.5685939
 21
9.8000002
  0
LINE
  8
0
  6
CONTINUOUS
 62
     7
 10
-33.359615
 20
64.090393
 11
-1.568594
 21
65.083855
  0
LINE
  8
0
  6
CENTER
 62
     7
 10
-41.576317
 20
9.8000002
 11
22.510527
 21
9.8000002
  0
LINE
  8
0
  6
CONTINUOUS
 62
     7
 10
4.9541497
 20
-36.122013
 11
16.1
 21
-36.122013
  0
LINE
  8
0
  6
CONTINUOUS
 62
     7
 10
-1.5685939
 20
-46.962856
 11
-1.5685939
 21
9.8000002
  0
LINE
  8
0
  6
CONTINUOUS
 62
     7
 10
-33.359612
 20
-44.490387
 11
-33.359612
 21
9.8000002
  0
LINE
  8
0
  6
CONTINUOUS
 62
     7
 10
-33.359612
 20
-44.490387
 11
-1.5685939
 21
-45.483856
  0
LINE
  8
0
  6
CONTINUOUS
 62
     7
 10
2.0999997
 20
-50.200001
 11
4.9541488
 21
-55.143532
  0
LINE
  8
0
  6
CONTINUOUS
 62
     7
 10
-31.832903
 20
-46.017097
 11
-31.832903
 21
9.8000002
  0
LINE
  8
0
  6
CONTINUOUS
 62
     7
 10
4.9541497
 20
-55.143532
 11
16.1
 21
-55.143532
  0
LINE
  8
0
  6
CONTINUOUS
 62
     7
 10
-34.900002
 20
-42.950001
 11
-31.832903
 21
-46.017097
  0
LINE
  8
0
  6
CONTINUOUS
 62
     7
 10
2.0999999
 20
-50.200001
 11
2.0999999
 21
9.8000002
  0
LINE
  8
0
  6
CONTINUOUS
 62
     7
 10
-31.832903
 20
-46.017097
 11
0.23911896
 21
-47.019348
  0
LINE
  8
0
  6
CONTINUOUS
 62
     7
 10
-34.900002
 20
-42.950001
 11
-34.900002
 21
9.8000002
  0
LINE
  8
0
  6
CONTINUOUS
 62
     7
 10
2.0999975
 20
-48.599998
 11
-1.5685948
 21
-45.483856
  0
LINE
  8
0
  6
CONTINUOUS
 62
     7
 10
16.1
 20
-55.143532
 11
16.1
 21
9.8000002
  0
LINE
  8
0
  6
CONTINUOUS
 62
     7
 10
4.9541497
 20
9.8000002
 11
16.1
 21
9.8000002
  0
ARC
  8
0
  6
CONTINUOUS
 62
     7
 10
19.373224
 20
65.232773
 40
17.273224
 50
146.59132
 51
213.40867
  0
ARC
  8
0
  6
CONTINUOUS
 62
     7
 10
95.885201
 20
32.761005
 40
93.785202
 50
165.82848
 51
194.17151
  0
ARC
  8
0
  6
CONTINUOUS
 62
     7
 10
95.885201
 20
-13.161006
 40
93.785202
 50
165.82848
 51
194.17151
  0
ARC
  8
0
  6
CONTINUOUS
 62
     7
 10
19.373224
 20
-45.632771
 40
17.273224
 50
146.59132
 51
213.40867
  0
TEXT
  8
0
  6
CONTINUOUS
 62
     7
 10
-30.935791
 20
79.668959
 40
3.2
 41
0.84741102
  1
４×１１／２
  0
ENDBLK
  8
0
  0
BLOCK
  8
0
  2
KOZU43
 70
    64
 10
0
 20
0
  0
POINT
  8
0
  6
CONTINUOUS
 62
     7
 10
0
 20
0
  0
POINT
  8
0
  6
CONTINUOUS
 62
     7
 10
-6.2750001
 20
1.075
  0
POINT
  8
0
  6
CONTINUOUS
 62
     7
 10
0
 20
3.5527137E-015
  0
POINT
  8
0
  6
CONTINUOUS
 62
     7
 10
-14
 20
58.400002
  0
POINT
  8
0
  6
CONTINUOUS
 62
     7
 10
-14
 20
-58.400002
  0
POINT
  8
0
  6
CONTINUOUS
 62
     7
 10
0
 20
0
  0
LINE
  8
0
  6
CENTER
 62
     7
 10
-57.676315
 20
3.5527137E-015
 11
6.4105263
 21
3.5527137E-015
  0
LINE
  8
0
  6
CONTINUOUS
 62
     7
 10
-11.14585
 20
64.943535
 11
0
 21
64.943535
  0
LINE
  8
0
  6
CONTINUOUS
 62
     7
 10
0
 20
64.943535
 11
0
 21
3.5527137E-015
  0
LINE
  8
0
  6
CONTINUOUS
 62
     7
 10
-51
 20
52.75
 11
-51
 21
3.5527137E-015
  0
LINE
  8
0
  6
CONTINUOUS
 62
     7
 10
-14
 20
60
 11
-14
 21
3.5527137E-015
  0
LINE
  8
0
  6
CONTINUOUS
 62
     7
 10
-13.999999
 20
60
 11
-11.14585
 21
64.943535
  0
LINE
  8
0
  6
CONTINUOUS
 62
     7
 10
-11.14585
 20
45.922012
 11
0
 21
45.922012
  0
LINE
  8
0
  6
CONTINUOUS
 62
     7
 10
-51
 20
52.75
 11
-47.932903
 21
55.817097
  0
LINE
  8
0
  6
CONTINUOUS
 62
     7
 10
-47.932903
 20
55.817097
 11
-15.860881
 21
56.819347
  0
LINE
  8
0
  6
CONTINUOUS
 62
     7
 10
-14
 20
58.399998
 11
-17.668594
 21
55.283855
  0
LINE
  8
0
  6
CONTINUOUS
 62
     7
 10
-49.459614
 20
54.290386
 11
-49.459614
 21
3.5527137E-015
  0
LINE
  8
0
  6
CONTINUOUS
 62
     7
 10
-47.932903
 20
55.817097
 11
-47.932903
 21
3.5527137E-015
  0
LINE
  8
0
  6
CONTINUOUS
 62
     7
 10
-17.668594
 20
56.762856
 11
-17.668594
 21
3.5527137E-015
  0
LINE
  8
0
  6
CONTINUOUS
 62
     7
 10
-49.459614
 20
54.29039
 11
-17.668594
 21
55.283859
  0
LINE
  8
0
  6
CENTER
 62
     7
 10
-57.676315
 20
3.5527137E-015
 11
6.4105263
 21
3.5527137E-015
  0
LINE
  8
0
  6
CONTINUOUS
 62
     7
 10
-11.14585
 20
-45.922012
 11
0
 21
-45.922012
  0
LINE
  8
0
  6
CONTINUOUS
 62
     7
 10
-17.668594
 20
-56.762856
 11
-17.668594
 21
3.5527137E-015
  0
LINE
  8
0
  6
CONTINUOUS
 62
     7
 10
-49.459614
 20
-54.290386
 11
-49.459614
 21
3.5527137E-015
  0
LINE
  8
0
  6
CONTINUOUS
 62
     7
 10
-49.459614
 20
-54.29039
 11
-17.668594
 21
-55.283859
  0
LINE
  8
0
  6
CONTINUOUS
 62
     7
 10
-13.999999
 20
-60
 11
-11.14585
 21
-64.943535
  0
LINE
  8
0
  6
CONTINUOUS
 62
     7
 10
-47.932903
 20
-55.817097
 11
-47.932903
 21
3.5527137E-015
  0
LINE
  8
0
  6
CONTINUOUS
 62
     7
 10
-11.14585
 20
-64.943535
 11
0
 21
-64.943535
  0
LINE
  8
0
  6
CONTINUOUS
 62
     7
 10
-51
 20
-52.75
 11
-47.932903
 21
-55.817097
  0
LINE
  8
0
  6
CONTINUOUS
 62
     7
 10
-14
 20
-60
 11
-14
 21
3.5527137E-015
  0
LINE
  8
0
  6
CONTINUOUS
 62
     7
 10
-47.932903
 20
-55.817097
 11
-15.860881
 21
-56.819347
  0
LINE
  8
0
  6
CONTINUOUS
 62
     7
 10
-51
 20
-52.75
 11
-51
 21
3.5527137E-015
  0
LINE
  8
0
  6
CONTINUOUS
 62
     7
 10
-14
 20
-58.399998
 11
-17.668594
 21
-55.283855
  0
LINE
  8
0
  6
CONTINUOUS
 62
     7
 10
0
 20
-64.943535
 11
0
 21
3.5527137E-015
  0
LINE
  8
0
  6
CONTINUOUS
 62
     7
 10
-11.14585
 20
0
 11
0
 21
0
  0
ARC
  8
0
  6
CONTINUOUS
 62
     7
 10
3.2732236
 20
55.432774
 40
17.273224
 50
146.59132
 51
213.40867
  0
ARC
  8
0
  6
CONTINUOUS
 62
     7
 10
79.785202
 20
22.961006
 40
93.785202
 50
165.82848
 51
194.17151
  0
ARC
  8
0
  6
CONTINUOUS
 62
     7
 10
79.785202
 20
-22.961006
 40
93.785202
 50
165.82848
 51
194.17151
  0
ARC
  8
0
  6
CONTINUOUS
 62
     7
 10
3.2732236
 20
-55.432774
 40
17.273224
 50
146.59132
 51
213.40867
  0
TEXT
  8
0
  6
CONTINUOUS
 62
     7
 10
-47.035792
 20
69.868956
 40
3.2
 41
0.85537027
  1
４×２
  0
ENDBLK
  8
0
  0
BLOCK
  8
0
  2
KOZU44
 70
    64
 10
0
 20
0
  0
POINT
  8
0
  6
CONTINUOUS
 62
     7
 10
0
 20
0
  0
POINT
  8
0
  6
CONTINUOUS
 62
     7
 10
-3.6500001
 20
0.55000001
  0
POINT
  8
0
  6
CONTINUOUS
 62
     7
 10
0
 20
3.5527137E-015
  0
POINT
  8
0
  6
CONTINUOUS
 62
     7
 10
-14
 20
58.400002
  0
POINT
  8
0
  6
CONTINUOUS
 62
     7
 10
-14
 20
-58.400002
  0
POINT
  8
0
  6
CONTINUOUS
 62
     7
 10
0
 20
0
  0
LINE
  8
0
  6
CENTER
 62
     7
 10
-57.676315
 20
3.5527137E-015
 11
6.4105263
 21
3.5527137E-015
  0
LINE
  8
0
  6
CONTINUOUS
 62
     7
 10
-11.14585
 20
64.943535
 11
0
 21
64.943535
  0
LINE
  8
0
  6
CONTINUOUS
 62
     7
 10
0
 20
64.943535
 11
0
 21
3.5527137E-015
  0
LINE
  8
0
  6
CONTINUOUS
 62
     7
 10
-51
 20
52.75
 11
-51
 21
3.5527137E-015
  0
LINE
  8
0
  6
CONTINUOUS
 62
     7
 10
-14
 20
60
 11
-14
 21
3.5527137E-015
  0
LINE
  8
0
  6
CONTINUOUS
 62
     7
 10
-13.999999
 20
60
 11
-11.14585
 21
64.943535
  0
LINE
  8
0
  6
CONTINUOUS
 62
     7
 10
-11.14585
 20
45.922012
 11
0
 21
45.922012
  0
LINE
  8
0
  6
CONTINUOUS
 62
     7
 10
-51
 20
52.75
 11
-47.932903
 21
55.817097
  0
LINE
  8
0
  6
CONTINUOUS
 62
     7
 10
-47.932903
 20
55.817097
 11
-15.860881
 21
56.819347
  0
LINE
  8
0
  6
CONTINUOUS
 62
     7
 10
-14
 20
58.399998
 11
-17.668594
 21
55.283855
  0
LINE
  8
0
  6
CONTINUOUS
 62
     7
 10
-49.459614
 20
54.290386
 11
-49.459614
 21
3.5527137E-015
  0
LINE
  8
0
  6
CONTINUOUS
 62
     7
 10
-47.932903
 20
55.817097
 11
-47.932903
 21
3.5527137E-015
  0
LINE
  8
0
  6
CONTINUOUS
 62
     7
 10
-17.668594
 20
56.762856
 11
-17.668594
 21
3.5527137E-015
  0
LINE
  8
0
  6
CONTINUOUS
 62
     7
 10
-49.459614
 20
54.29039
 11
-17.668594
 21
55.283859
  0
LINE
  8
0
  6
CENTER
 62
     7
 10
-57.676315
 20
3.5527137E-015
 11
6.4105263
 21
3.5527137E-015
  0
LINE
  8
0
  6
CONTINUOUS
 62
     7
 10
-11.14585
 20
-45.922012
 11
0
 21
-45.922012
  0
LINE
  8
0
  6
CONTINUOUS
 62
     7
 10
-17.668594
 20
-56.762856
 11
-17.668594
 21
3.5527137E-015
  0
LINE
  8
0
  6
CONTINUOUS
 62
     7
 10
-49.459614
 20
-54.290386
 11
-49.459614
 21
3.5527137E-015
  0
LINE
  8
0
  6
CONTINUOUS
 62
     7
 10
-49.459614
 20
-54.29039
 11
-17.668594
 21
-55.283859
  0
LINE
  8
0
  6
CONTINUOUS
 62
     7
 10
-13.999999
 20
-60
 11
-11.14585
 21
-64.943535
  0
LINE
  8
0
  6
CONTINUOUS
 62
     7
 10
-47.932903
 20
-55.817097
 11
-47.932903
 21
3.5527137E-015
  0
LINE
  8
0
  6
CONTINUOUS
 62
     7
 10
-11.14585
 20
-64.943535
 11
0
 21
-64.943535
  0
LINE
  8
0
  6
CONTINUOUS
 62
     7
 10
-51
 20
-52.75
 11
-47.932903
 21
-55.817097
  0
LINE
  8
0
  6
CONTINUOUS
 62
     7
 10
-14
 20
-60
 11
-14
 21
3.5527137E-015
  0
LINE
  8
0
  6
CONTINUOUS
 62
     7
 10
-47.932903
 20
-55.817097
 11
-15.860881
 21
-56.819347
  0
LINE
  8
0
  6
CONTINUOUS
 62
     7
 10
-51
 20
-52.75
 11
-51
 21
3.5527137E-015
  0
LINE
  8
0
  6
CONTINUOUS
 62
     7
 10
-14
 20
-58.399998
 11
-17.668594
 21
-55.283855
  0
LINE
  8
0
  6
CONTINUOUS
 62
     7
 10
0
 20
-64.943535
 11
0
 21
3.5527137E-015
  0
LINE
  8
0
  6
CONTINUOUS
 62
     7
 10
-11.14585
 20
0
 11
0
 21
0
  0
ARC
  8
0
  6
CONTINUOUS
 62
     7
 10
3.2732236
 20
55.432774
 40
17.273224
 50
146.59132
 51
213.40867
  0
ARC
  8
0
  6
CONTINUOUS
 62
     7
 10
79.785202
 20
22.961006
 40
93.785202
 50
165.82848
 51
194.17151
  0
ARC
  8
0
  6
CONTINUOUS
 62
     7
 10
79.785202
 20
-22.961006
 40
93.785202
 50
165.82848
 51
194.17151
  0
ARC
  8
0
  6
CONTINUOUS
 62
     7
 10
3.2732236
 20
-55.432774
 40
17.273224
 50
146.59132
 51
213.40867
  0
TEXT
  8
0
  6
CONTINUOUS
 62
     7
 10
-47.035792
 20
69.868956
 40
3.2
 41
0.84741102
  1
４×２１／２
  0
ENDBLK
  8
0
  0
BLOCK
  8
0
  2
KOZU45
 70
    64
 10
0
 20
0
  0
POINT
  8
0
  6
CONTINUOUS
 62
     7
 10
0
 20
0
  0
POINT
  8
0
  6
CONTINUOUS
 62
     7
 10
0
 20
3.5527137E-015
  0
POINT
  8
0
  6
CONTINUOUS
 62
     7
 10
-14
 20
58.400002
  0
POINT
  8
0
  6
CONTINUOUS
 62
     7
 10
-14
 20
-58.400002
  0
POINT
  8
0
  6
CONTINUOUS
 62
     7
 10
0
 20
0
  0
LINE
  8
0
  6
CENTER
 62
     7
 10
-57.676315
 20
3.5527137E-015
 11
6.4105263
 21
3.5527137E-015
  0
LINE
  8
0
  6
CONTINUOUS
 62
     7
 10
-11.14585
 20
64.943535
 11
0
 21
64.943535
  0
LINE
  8
0
  6
CONTINUOUS
 62
     7
 10
0
 20
64.943535
 11
0
 21
3.5527137E-015
  0
LINE
  8
0
  6
CONTINUOUS
 62
     7
 10
-51
 20
52.75
 11
-51
 21
3.5527137E-015
  0
LINE
  8
0
  6
CONTINUOUS
 62
     7
 10
-14
 20
60
 11
-14
 21
3.5527137E-015
  0
LINE
  8
0
  6
CONTINUOUS
 62
     7
 10
-13.999999
 20
60
 11
-11.14585
 21
64.943535
  0
LINE
  8
0
  6
CONTINUOUS
 62
     7
 10
-11.14585
 20
45.922012
 11
0
 21
45.922012
  0
LINE
  8
0
  6
CONTINUOUS
 62
     7
 10
-51
 20
52.75
 11
-47.932903
 21
55.817097
  0
LINE
  8
0
  6
CONTINUOUS
 62
     7
 10
-47.932903
 20
55.817097
 11
-15.860881
 21
56.819347
  0
LINE
  8
0
  6
CONTINUOUS
 62
     7
 10
-14
 20
58.399998
 11
-17.668594
 21
55.283855
  0
LINE
  8
0
  6
CONTINUOUS
 62
     7
 10
-49.459614
 20
54.290386
 11
-49.459614
 21
3.5527137E-015
  0
LINE
  8
0
  6
CONTINUOUS
 62
     7
 10
-47.932903
 20
55.817097
 11
-47.932903
 21
3.5527137E-015
  0
LINE
  8
0
  6
CONTINUOUS
 62
     7
 10
-17.668594
 20
56.762856
 11
-17.668594
 21
3.5527137E-015
  0
LINE
  8
0
  6
CONTINUOUS
 62
     7
 10
-49.459614
 20
54.29039
 11
-17.668594
 21
55.283859
  0
LINE
  8
0
  6
CENTER
 62
     7
 10
-57.676315
 20
3.5527137E-015
 11
6.4105263
 21
3.5527137E-015
  0
LINE
  8
0
  6
CONTINUOUS
 62
     7
 10
-11.14585
 20
-45.922012
 11
0
 21
-45.922012
  0
LINE
  8
0
  6
CONTINUOUS
 62
     7
 10
-17.668594
 20
-56.762856
 11
-17.668594
 21
3.5527137E-015
  0
LINE
  8
0
  6
CONTINUOUS
 62
     7
 10
-49.459614
 20
-54.290386
 11
-49.459614
 21
3.5527137E-015
  0
LINE
  8
0
  6
CONTINUOUS
 62
     7
 10
-49.459614
 20
-54.29039
 11
-17.668594
 21
-55.283859
  0
LINE
  8
0
  6
CONTINUOUS
 62
     7
 10
-13.999999
 20
-60
 11
-11.14585
 21
-64.943535
  0
LINE
  8
0
  6
CONTINUOUS
 62
     7
 10
-47.932903
 20
-55.817097
 11
-47.932903
 21
3.5527137E-015
  0
LINE
  8
0
  6
CONTINUOUS
 62
     7
 10
-11.14585
 20
-64.943535
 11
0
 21
-64.943535
  0
LINE
  8
0
  6
CONTINUOUS
 62
     7
 10
-51
 20
-52.75
 11
-47.932903
 21
-55.817097
  0
LINE
  8
0
  6
CONTINUOUS
 62
     7
 10
-14
 20
-60
 11
-14
 21
3.5527137E-015
  0
LINE
  8
0
  6
CONTINUOUS
 62
     7
 10
-47.932903
 20
-55.817097
 11
-15.860881
 21
-56.819347
  0
LINE
  8
0
  6
CONTINUOUS
 62
     7
 10
-51
 20
-52.75
 11
-51
 21
3.5527137E-015
  0
LINE
  8
0
  6
CONTINUOUS
 62
     7
 10
-14
 20
-58.399998
 11
-17.668594
 21
-55.283855
  0
LINE
  8
0
  6
CONTINUOUS
 62
     7
 10
0
 20
-64.943535
 11
0
 21
3.5527137E-015
  0
LINE
  8
0
  6
CONTINUOUS
 62
     7
 10
-11.14585
 20
0
 11
0
 21
0
  0
ARC
  8
0
  6
CONTINUOUS
 62
     7
 10
3.2732236
 20
55.432774
 40
17.273224
 50
146.59132
 51
213.40867
  0
ARC
  8
0
  6
CONTINUOUS
 62
     7
 10
79.785202
 20
22.961006
 40
93.785202
 50
165.82848
 51
194.17151
  0
ARC
  8
0
  6
CONTINUOUS
 62
     7
 10
79.785202
 20
-22.961006
 40
93.785202
 50
165.82848
 51
194.17151
  0
ARC
  8
0
  6
CONTINUOUS
 62
     7
 10
3.2732236
 20
-55.432774
 40
17.273224
 50
146.59132
 51
213.40867
  0
TEXT
  8
0
  6
CONTINUOUS
 62
     7
 10
-47.035792
 20
69.868956
 40
3.2
 41
0.85537027
  1
４×３
  0
ENDBLK
  8
0
  0
BLOCK
  8
0
  2
KOZU46
 70
    64
 10
0
 20
0
  0
POINT
  8
0
  6
CONTINUOUS
 62
     7
 10
0
 20
0
  0
POINT
  8
0
  6
CONTINUOUS
 62
     7
 10
-15
 20
71
  0
POINT
  8
0
  6
CONTINUOUS
 62
     7
 10
-15
 20
-71
  0
POINT
  8
0
  6
CONTINUOUS
 62
     7
 10
0
 20
-1.0658141E-014
  0
LINE
  8
0
  6
CENTER
 62
     7
 10
-61.44017
 20
0
 11
5.1160436
 21
0
  0
LINE
  8
0
  6
CONTINUOUS
 62
     7
 10
-11.551236
 20
78.473434
 11
0
 21
78.473434
  0
LINE
  8
0
  6
CONTINUOUS
 62
     7
 10
-11.551236
 20
55.489098
 11
0
 21
55.489098
  0
LINE
  8
0
  6
CONTINUOUS
 62
     7
 10
0
 20
78.473434
 11
0
 21
0
  0
LINE
  8
0
  6
CONTINUOUS
 62
     7
 10
-57
 20
65.5
 11
-57
 21
0
  0
LINE
  8
0
  6
CONTINUOUS
 62
     7
 10
-15
 20
72.5
 11
-15
 21
0
  0
LINE
  8
0
  6
CONTINUOUS
 62
     7
 10
-14.999998
 20
72.5
 11
-11.551234
 21
78.473434
  0
LINE
  8
0
  6
CONTINUOUS
 62
     7
 10
-57
 20
65.5
 11
-54.087097
 21
68.412903
  0
LINE
  8
0
  6
CONTINUOUS
 62
     7
 10
-55.613808
 20
66.8862
 11
-17.982935
 21
68.062164
  0
LINE
  8
0
  6
CONTINUOUS
 62
     7
 10
-54.087097
 20
68.412903
 11
-16.432024
 21
69.589622
  0
LINE
  8
0
  6
CONTINUOUS
 62
     7
 10
-15.000001
 20
71
 11
-17.982937
 21
68.062157
  0
LINE
  8
0
  6
CONTINUOUS
 62
     7
 10
-55.613808
 20
66.886192
 11
-55.613808
 21
0
  0
LINE
  8
0
  6
CONTINUOUS
 62
     7
 10
-54.087097
 20
68.412903
 11
-54.087097
 21
0
  0
LINE
  8
0
  6
CONTINUOUS
 62
     7
 10
-17.982935
 20
69.541161
 11
-17.982935
 21
0
  0
LINE
  8
0
  6
CENTER
 62
     7
 10
-61.44017
 20
0
 11
5.1160436
 21
0
  0
LINE
  8
0
  6
CONTINUOUS
 62
     7
 10
-54.087097
 20
-68.412903
 11
-54.087097
 21
0
  0
LINE
  8
0
  6
CONTINUOUS
 62
     7
 10
-17.982935
 20
-69.541161
 11
-17.982935
 21
0
  0
LINE
  8
0
  6
CONTINUOUS
 62
     7
 10
-57
 20
-65.5
 11
-54.087097
 21
-68.412903
  0
LINE
  8
0
  6
CONTINUOUS
 62
     7
 10
-14.999998
 20
-72.5
 11
-11.551234
 21
-78.473434
  0
LINE
  8
0
  6
CONTINUOUS
 62
     7
 10
-11.551236
 20
-78.473434
 11
0
 21
-78.473434
  0
LINE
  8
0
  6
CONTINUOUS
 62
     7
 10
-54.087097
 20
-68.412903
 11
-16.432024
 21
-69.589622
  0
LINE
  8
0
  6
CONTINUOUS
 62
     7
 10
-55.613808
 20
-66.886192
 11
-55.613808
 21
0
  0
LINE
  8
0
  6
CONTINUOUS
 62
     7
 10
-15
 20
-72.5
 11
-15
 21
0
  0
LINE
  8
0
  6
CONTINUOUS
 62
     7
 10
-55.613808
 20
-66.8862
 11
-17.982935
 21
-68.062164
  0
LINE
  8
0
  6
CONTINUOUS
 62
     7
 10
-11.551236
 20
-55.489098
 11
0
 21
-55.489098
  0
LINE
  8
0
  6
CONTINUOUS
 62
     7
 10
-57
 20
-65.5
 11
-57
 21
0
  0
LINE
  8
0
  6
CONTINUOUS
 62
     7
 10
-15.000001
 20
-71
 11
-17.982937
 21
-68.062157
  0
LINE
  8
0
  6
CONTINUOUS
 62
     7
 10
0
 20
-78.473434
 11
0
 21
0
  0
LINE
  8
0
  6
CONTINUOUS
 62
     7
 10
-11.551236
 20
-1.0658141E-014
 11
0
 21
-1.0658141E-014
  0
ARC
  8
0
  6
CONTINUOUS
 62
     7
 10
5.8718119
 20
66.98127
 40
20.871813
 50
146.59132
 51
213.40867
  0
ARC
  8
0
  6
CONTINUOUS
 62
     7
 10
98.323784
 20
27.744549
 40
113.32378
 50
165.82848
 51
194.17151
  0
ARC
  8
0
  6
CONTINUOUS
 62
     7
 10
5.8718119
 20
-66.98127
 40
20.871813
 50
146.59132
 51
213.40867
  0
ARC
  8
0
  6
CONTINUOUS
 62
     7
 10
98.323784
 20
-27.744549
 40
113.32378
 50
165.82848
 51
194.17151
  0
TEXT
  8
0
  6
CONTINUOUS
 62
     7
 10
-51.983511
 20
86.560583
 40
3.2
 41
0.85537027
  1
５×２
  0
ENDBLK
  8
0
  0
BLOCK
  8
0
  2
KOZU47
 70
    64
 10
0
 20
0
  0
POINT
  8
0
  6
CONTINUOUS
 62
     7
 10
0
 20
0
  0
POINT
  8
0
  6
CONTINUOUS
 62
     7
 10
0
 20
1.0658141E-014
  0
POINT
  8
0
  6
CONTINUOUS
 62
     7
 10
-15
 20
71
  0
POINT
  8
0
  6
CONTINUOUS
 62
     7
 10
-15
 20
-71
  0
POINT
  8
0
  6
CONTINUOUS
 62
     7
 10
0
 20
0
  0
LINE
  8
0
  6
CENTER
 62
     7
 10
-61.44017
 20
1.0658141E-014
 11
5.1160436
 21
1.0658141E-014
  0
LINE
  8
0
  6
CONTINUOUS
 62
     7
 10
-11.551236
 20
78.473434
 11
0
 21
78.473434
  0
LINE
  8
0
  6
CONTINUOUS
 62
     7
 10
-11.551236
 20
55.489098
 11
0
 21
55.489098
  0
LINE
  8
0
  6
CONTINUOUS
 62
     7
 10
0
 20
78.473434
 11
0
 21
1.0658141E-014
  0
LINE
  8
0
  6
CONTINUOUS
 62
     7
 10
-57
 20
65.5
 11
-57
 21
1.0658141E-014
  0
LINE
  8
0
  6
CONTINUOUS
 62
     7
 10
-15
 20
72.5
 11
-15
 21
1.0658141E-014
  0
LINE
  8
0
  6
CONTINUOUS
 62
     7
 10
-14.999998
 20
72.5
 11
-11.551234
 21
78.473434
  0
LINE
  8
0
  6
CONTINUOUS
 62
     7
 10
-57
 20
65.5
 11
-54.087097
 21
68.412903
  0
LINE
  8
0
  6
CONTINUOUS
 62
     7
 10
-55.613808
 20
66.8862
 11
-17.982935
 21
68.062164
  0
LINE
  8
0
  6
CONTINUOUS
 62
     7
 10
-54.087097
 20
68.412903
 11
-16.432024
 21
69.589622
  0
LINE
  8
0
  6
CONTINUOUS
 62
     7
 10
-15.000001
 20
71
 11
-17.982937
 21
68.062157
  0
LINE
  8
0
  6
CONTINUOUS
 62
     7
 10
-55.613808
 20
66.886192
 11
-55.613808
 21
1.0658141E-014
  0
LINE
  8
0
  6
CONTINUOUS
 62
     7
 10
-54.087097
 20
68.412903
 11
-54.087097
 21
1.0658141E-014
  0
LINE
  8
0
  6
CONTINUOUS
 62
     7
 10
-17.982935
 20
69.541161
 11
-17.982935
 21
1.0658141E-014
  0
LINE
  8
0
  6
CENTER
 62
     7
 10
-61.44017
 20
1.0658141E-014
 11
5.1160436
 21
1.0658141E-014
  0
LINE
  8
0
  6
CONTINUOUS
 62
     7
 10
-54.087097
 20
-68.412903
 11
-54.087097
 21
1.0658141E-014
  0
LINE
  8
0
  6
CONTINUOUS
 62
     7
 10
-17.982935
 20
-69.541161
 11
-17.982935
 21
1.0658141E-014
  0
LINE
  8
0
  6
CONTINUOUS
 62
     7
 10
-57
 20
-65.5
 11
-54.087097
 21
-68.412903
  0
LINE
  8
0
  6
CONTINUOUS
 62
     7
 10
-14.999998
 20
-72.5
 11
-11.551234
 21
-78.473434
  0
LINE
  8
0
  6
CONTINUOUS
 62
     7
 10
-11.551236
 20
-78.473434
 11
0
 21
-78.473434
  0
LINE
  8
0
  6
CONTINUOUS
 62
     7
 10
-54.087097
 20
-68.412903
 11
-16.432024
 21
-69.589622
  0
LINE
  8
0
  6
CONTINUOUS
 62
     7
 10
-55.613808
 20
-66.886192
 11
-55.613808
 21
1.0658141E-014
  0
LINE
  8
0
  6
CONTINUOUS
 62
     7
 10
-15
 20
-72.5
 11
-15
 21
1.0658141E-014
  0
LINE
  8
0
  6
CONTINUOUS
 62
     7
 10
-55.613808
 20
-66.8862
 11
-17.982935
 21
-68.062164
  0
LINE
  8
0
  6
CONTINUOUS
 62
     7
 10
-11.551236
 20
-55.489098
 11
0
 21
-55.489098
  0
LINE
  8
0
  6
CONTINUOUS
 62
     7
 10
-57
 20
-65.5
 11
-57
 21
1.0658141E-014
  0
LINE
  8
0
  6
CONTINUOUS
 62
     7
 10
-15.000001
 20
-71
 11
-17.982937
 21
-68.062157
  0
LINE
  8
0
  6
CONTINUOUS
 62
     7
 10
0
 20
-78.473434
 11
0
 21
1.0658141E-014
  0
LINE
  8
0
  6
CONTINUOUS
 62
     7
 10
-11.551236
 20
0
 11
0
 21
0
  0
ARC
  8
0
  6
CONTINUOUS
 62
     7
 10
5.8718119
 20
66.98127
 40
20.871813
 50
146.59132
 51
213.40867
  0
ARC
  8
0
  6
CONTINUOUS
 62
     7
 10
98.323784
 20
27.744549
 40
113.32378
 50
165.82848
 51
194.17151
  0
ARC
  8
0
  6
CONTINUOUS
 62
     7
 10
5.8718119
 20
-66.98127
 40
20.871813
 50
146.59132
 51
213.40867
  0
ARC
  8
0
  6
CONTINUOUS
 62
     7
 10
98.323784
 20
-27.744549
 40
113.32378
 50
165.82848
 51
194.17151
  0
TEXT
  8
0
  6
CONTINUOUS
 62
     7
 10
-51.983511
 20
86.560583
 40
3.2
 41
0.84741102
  1
５×２１／２
  0
ENDBLK
  8
0
  0
BLOCK
  8
0
  2
KOZU48
 70
    64
 10
0
 20
0
  0
POINT
  8
0
  6
CONTINUOUS
 62
     7
 10
0
 20
0
  0
POINT
  8
0
  6
CONTINUOUS
 62
     7
 10
-5.7756181
 20
0
  0
POINT
  8
0
  6
CONTINUOUS
 62
     7
 10
0
 20
1.0658141E-014
  0
POINT
  8
0
  6
CONTINUOUS
 62
     7
 10
-15
 20
71
  0
POINT
  8
0
  6
CONTINUOUS
 62
     7
 10
-15
 20
-71
  0
POINT
  8
0
  6
CONTINUOUS
 62
     7
 10
0
 20
0
  0
LINE
  8
0
  6
CENTER
 62
     7
 10
-61.44017
 20
1.0658141E-014
 11
5.1160436
 21
1.0658141E-014
  0
LINE
  8
0
  6
CONTINUOUS
 62
     7
 10
-11.551236
 20
78.473434
 11
0
 21
78.473434
  0
LINE
  8
0
  6
CONTINUOUS
 62
     7
 10
-11.551236
 20
55.489098
 11
0
 21
55.489098
  0
LINE
  8
0
  6
CONTINUOUS
 62
     7
 10
0
 20
78.473434
 11
0
 21
1.0658141E-014
  0
LINE
  8
0
  6
CONTINUOUS
 62
     7
 10
-57
 20
65.5
 11
-57
 21
1.0658141E-014
  0
LINE
  8
0
  6
CONTINUOUS
 62
     7
 10
-15
 20
72.5
 11
-15
 21
1.0658141E-014
  0
LINE
  8
0
  6
CONTINUOUS
 62
     7
 10
-14.999998
 20
72.5
 11
-11.551234
 21
78.473434
  0
LINE
  8
0
  6
CONTINUOUS
 62
     7
 10
-57
 20
65.5
 11
-54.087097
 21
68.412903
  0
LINE
  8
0
  6
CONTINUOUS
 62
     7
 10
-55.613808
 20
66.8862
 11
-17.982935
 21
68.062164
  0
LINE
  8
0
  6
CONTINUOUS
 62
     7
 10
-54.087097
 20
68.412903
 11
-16.432024
 21
69.589622
  0
LINE
  8
0
  6
CONTINUOUS
 62
     7
 10
-15.000001
 20
71
 11
-17.982937
 21
68.062157
  0
LINE
  8
0
  6
CONTINUOUS
 62
     7
 10
-55.613808
 20
66.886192
 11
-55.613808
 21
1.0658141E-014
  0
LINE
  8
0
  6
CONTINUOUS
 62
     7
 10
-54.087097
 20
68.412903
 11
-54.087097
 21
1.0658141E-014
  0
LINE
  8
0
  6
CONTINUOUS
 62
     7
 10
-17.982935
 20
69.541161
 11
-17.982935
 21
1.0658141E-014
  0
LINE
  8
0
  6
CENTER
 62
     7
 10
-61.44017
 20
1.0658141E-014
 11
5.1160436
 21
1.0658141E-014
  0
LINE
  8
0
  6
CONTINUOUS
 62
     7
 10
-54.087097
 20
-68.412903
 11
-54.087097
 21
1.0658141E-014
  0
LINE
  8
0
  6
CONTINUOUS
 62
     7
 10
-17.982935
 20
-69.541161
 11
-17.982935
 21
1.0658141E-014
  0
LINE
  8
0
  6
CONTINUOUS
 62
     7
 10
-57
 20
-65.5
 11
-54.087097
 21
-68.412903
  0
LINE
  8
0
  6
CONTINUOUS
 62
     7
 10
-14.999998
 20
-72.5
 11
-11.551234
 21
-78.473434
  0
LINE
  8
0
  6
CONTINUOUS
 62
     7
 10
-11.551236
 20
-78.473434
 11
0
 21
-78.473434
  0
LINE
  8
0
  6
CONTINUOUS
 62
     7
 10
-54.087097
 20
-68.412903
 11
-16.432024
 21
-69.589622
  0
LINE
  8
0
  6
CONTINUOUS
 62
     7
 10
-55.613808
 20
-66.886192
 11
-55.613808
 21
1.0658141E-014
  0
LINE
  8
0
  6
CONTINUOUS
 62
     7
 10
-15
 20
-72.5
 11
-15
 21
1.0658141E-014
  0
LINE
  8
0
  6
CONTINUOUS
 62
     7
 10
-55.613808
 20
-66.8862
 11
-17.982935
 21
-68.062164
  0
LINE
  8
0
  6
CONTINUOUS
 62
     7
 10
-11.551236
 20
-55.489098
 11
0
 21
-55.489098
  0
LINE
  8
0
  6
CONTINUOUS
 62
     7
 10
-57
 20
-65.5
 11
-57
 21
1.0658141E-014
  0
LINE
  8
0
  6
CONTINUOUS
 62
     7
 10
-15.000001
 20
-71
 11
-17.982937
 21
-68.062157
  0
LINE
  8
0
  6
CONTINUOUS
 62
     7
 10
0
 20
-78.473434
 11
0
 21
1.0658141E-014
  0
LINE
  8
0
  6
CONTINUOUS
 62
     7
 10
-11.551236
 20
0
 11
0
 21
0
  0
ARC
  8
0
  6
CONTINUOUS
 62
     7
 10
5.8718119
 20
66.98127
 40
20.871813
 50
146.59132
 51
213.40867
  0
ARC
  8
0
  6
CONTINUOUS
 62
     7
 10
98.323784
 20
27.744549
 40
113.32378
 50
165.82848
 51
194.17151
  0
ARC
  8
0
  6
CONTINUOUS
 62
     7
 10
5.8718119
 20
-66.98127
 40
20.871813
 50
146.59132
 51
213.40867
  0
ARC
  8
0
  6
CONTINUOUS
 62
     7
 10
98.323784
 20
-27.744549
 40
113.32378
 50
165.82848
 51
194.17151
  0
TEXT
  8
0
  6
CONTINUOUS
 62
     7
 10
-51.983511
 20
86.560583
 40
3.2
 41
0.85537027
  1
５×３
  0
ENDBLK
  8
0
  0
BLOCK
  8
0
  2
KOZU49
 70
    64
 10
0
 20
0
  0
POINT
  8
0
  6
CONTINUOUS
 62
     7
 10
15.575
 20
0.175
  0
POINT
  8
0
  6
CONTINUOUS
 62
     7
 10
0.57499999
 20
71.175003
  0
POINT
  8
0
  6
CONTINUOUS
 62
     7
 10
0.57499999
 20
-70.824997
  0
POINT
  8
0
  6
CONTINUOUS
 62
     7
 10
15.575
 20
0.175
  0
LINE
  8
0
  6
CENTER
 62
     7
 10
-45.86517
 20
0.175
 11
20.691044
 21
0.175
  0
LINE
  8
0
  6
CONTINUOUS
 62
     7
 10
4.0237641
 20
78.648438
 11
15.575
 21
78.648438
  0
LINE
  8
0
  6
CONTINUOUS
 62
     7
 10
4.0237641
 20
55.664097
 11
15.575
 21
55.664097
  0
LINE
  8
0
  6
CONTINUOUS
 62
     7
 10
15.575
 20
78.648438
 11
15.575
 21
0.175
  0
LINE
  8
0
  6
CONTINUOUS
 62
     7
 10
-41.424999
 20
65.675003
 11
-41.424999
 21
0.175
  0
LINE
  8
0
  6
CONTINUOUS
 62
     7
 10
0.57499999
 20
72.675003
 11
0.57499999
 21
0.175
  0
LINE
  8
0
  6
CONTINUOUS
 62
     7
 10
0.57500046
 20
72.674995
 11
4.0237632
 21
78.64843
  0
LINE
  8
0
  6
CONTINUOUS
 62
     7
 10
-41.425003
 20
65.675003
 11
-38.5121
 21
68.587906
  0
LINE
  8
0
  6
CONTINUOUS
 62
     7
 10
-40.038803
 20
67.061195
 11
-2.4079354
 21
68.23716
  0
LINE
  8
0
  6
CONTINUOUS
 62
     7
 10
-38.512096
 20
68.587906
 11
-0.85702407
 21
69.764626
  0
LINE
  8
0
  6
CONTINUOUS
 62
     7
 10
0.57499999
 20
71.175003
 11
-2.4079366
 21
68.23716
  0
LINE
  8
0
  6
CONTINUOUS
 62
     7
 10
-40.038807
 20
67.061195
 11
-40.038807
 21
0.175
  0
LINE
  8
0
  6
CONTINUOUS
 62
     7
 10
-38.512096
 20
68.587906
 11
-38.512096
 21
0.175
  0
LINE
  8
0
  6
CONTINUOUS
 62
     7
 10
-2.4079354
 20
69.716156
 11
-2.4079354
 21
0.175
  0
LINE
  8
0
  6
CENTER
 62
     7
 10
-45.86517
 20
0.175
 11
20.691044
 21
0.175
  0
LINE
  8
0
  6
CONTINUOUS
 62
     7
 10
-38.512096
 20
-68.2379
 11
-38.512096
 21
0.175
  0
LINE
  8
0
  6
CONTINUOUS
 62
     7
 10
-2.4079354
 20
-69.366158
 11
-2.4079354
 21
0.175
  0
LINE
  8
0
  6
CONTINUOUS
 62
     7
 10
-41.424999
 20
-65.324997
 11
-38.512096
 21
-68.237907
  0
LINE
  8
0
  6
CONTINUOUS
 62
     7
 10
0.57500017
 20
-72.324997
 11
4.0237632
 21
-78.298431
  0
LINE
  8
0
  6
CONTINUOUS
 62
     7
 10
4.0237641
 20
-78.298431
 11
15.575
 21
-78.298431
  0
LINE
  8
0
  6
CONTINUOUS
 62
     7
 10
-38.512096
 20
-68.237907
 11
-0.85702395
 21
-69.414627
  0
LINE
  8
0
  6
CONTINUOUS
 62
     7
 10
-40.038807
 20
-66.711197
 11
-40.038807
 21
0.175
  0
LINE
  8
0
  6
CONTINUOUS
 62
     7
 10
0.57499999
 20
-72.324997
 11
0.57499999
 21
0.175
  0
LINE
  8
0
  6
CONTINUOUS
 62
     7
 10
-40.038803
 20
-66.711197
 11
-2.4079354
 21
-67.887161
  0
LINE
  8
0
  6
CONTINUOUS
 62
     7
 10
4.0237641
 20
-55.314098
 11
15.575
 21
-55.314098
  0
LINE
  8
0
  6
CONTINUOUS
 62
     7
 10
-41.424999
 20
-65.324997
 11
-41.424999
 21
0.175
  0
LINE
  8
0
  6
CONTINUOUS
 62
     7
 10
0.57499939
 20
-70.824997
 11
-2.4079344
 21
-67.887161
  0
LINE
  8
0
  6
CONTINUOUS
 62
     7
 10
15.575
 20
-78.298431
 11
15.575
 21
0.175
  0
LINE
  8
0
  6
CONTINUOUS
 62
     7
 10
4.0237641
 20
0.175
 11
15.575
 21
0.175
  0
ARC
  8
0
  6
CONTINUOUS
 62
     7
 10
21.446812
 20
67.156265
 40
20.871813
 50
146.59132
 51
213.40867
  0
ARC
  8
0
  6
CONTINUOUS
 62
     7
 10
113.89878
 20
27.919548
 40
113.32378
 50
165.82848
 51
194.17151
  0
ARC
  8
0
  6
CONTINUOUS
 62
     7
 10
21.446812
 20
-66.806267
 40
20.871813
 50
146.59132
 51
213.40867
  0
ARC
  8
0
  6
CONTINUOUS
 62
     7
 10
113.89878
 20
-27.56955
 40
113.32378
 50
165.82848
 51
194.17151
  0
TEXT
  8
0
  6
CONTINUOUS
 62
     7
 10
-36.408511
 20
86.735587
 40
3.2
 41
0.85537027
  1
５×４
  0
ENDBLK
  8
0
  0
BLOCK
  8
0
  2
KOZU50
 70
    64
 10
0
 20
0
  0
POINT
  8
0
  6
CONTINUOUS
 62
     7
 10
0
 20
0
  0
POINT
  8
0
  6
CONTINUOUS
 62
     7
 10
0
 20
0
  0
POINT
  8
0
  6
CONTINUOUS
 62
     7
 10
0
 20
0
  0
LINE
  8
0
  6
CENTER
 62
     7
 10
-73.761902
 20
0
 11
8.6769295
 21
0
  0
LINE
  8
0
  6
CONTINUOUS
 62
     7
 10
-13.956621
 20
92.003334
 11
0
 21
92.003334
  0
LINE
  8
0
  6
CONTINUOUS
 62
     7
 10
-13.956621
 20
65.056183
 11
0
 21
65.056183
  0
LINE
  8
0
  6
CONTINUOUS
 62
     7
 10
0
 20
92.003334
 11
0
 21
0
  0
LINE
  8
0
  6
CONTINUOUS
 62
     7
 10
-64
 20
77.5
 11
-64
 21
0
  0
LINE
  8
0
  6
CONTINUOUS
 62
     7
 10
-18
 20
85
 11
-18
 21
0
  0
LINE
  8
0
  6
CONTINUOUS
 62
     7
 10
-18
 20
85
 11
-13.956624
 21
92.003334
  0
LINE
  8
0
  6
CONTINUOUS
 62
     7
 10
-64
 20
77.5
 11
-60.364517
 21
81.135483
  0
LINE
  8
0
  6
CONTINUOUS
 62
     7
 10
-60.364513
 20
81.13549
 11
-19.807753
 21
82.402885
  0
LINE
  8
0
  6
CONTINUOUS
 62
     7
 10
-61.891224
 20
79.60878
 11
-21.543194
 21
80.869652
  0
LINE
  8
0
  6
CONTINUOUS
 62
     7
 10
-18.000004
 20
84
 11
-21.543198
 21
80.869652
  0
LINE
  8
0
  6
CONTINUOUS
 62
     7
 10
-21.543194
 20
82.348648
 11
-21.543194
 21
0
  0
LINE
  8
0
  6
CONTINUOUS
 62
     7
 10
-60.364517
 20
81.135483
 11
-60.364517
 21
0
  0
LINE
  8
0
  6
CONTINUOUS
 62
     7
 10
-61.891224
 20
79.608772
 11
-61.891224
 21
0
  0
LINE
  8
0
  6
CENTER
 62
     7
 10
-73.761902
 20
0
 11
8.6769295
 21
0
  0
LINE
  8
0
  6
CONTINUOUS
 62
     7
 10
-18.000004
 20
-84
 11
-21.543198
 21
-80.869652
  0
LINE
  8
0
  6
CONTINUOUS
 62
     7
 10
-21.543194
 20
-82.348648
 11
-21.543194
 21
0
  0
LINE
  8
0
  6
CONTINUOUS
 62
     7
 10
-60.364517
 20
-81.135483
 11
-60.364517
 21
0
  0
LINE
  8
0
  6
CONTINUOUS
 62
     7
 10
-13.956621
 20
-92.003334
 11
0
 21
-92.003334
  0
LINE
  8
0
  6
CONTINUOUS
 62
     7
 10
-18
 20
-85
 11
-18
 21
0
  0
LINE
  8
0
  6
CONTINUOUS
 62
     7
 10
-64
 20
-77.5
 11
-64
 21
0
  0
LINE
  8
0
  6
CONTINUOUS
 62
     7
 10
-13.956621
 20
-65.056183
 11
0
 21
-65.056183
  0
LINE
  8
0
  6
CONTINUOUS
 62
     7
 10
0
 20
-92.003334
 11
0
 21
0
  0
LINE
  8
0
  6
CONTINUOUS
 62
     7
 10
-60.364513
 20
-81.13549
 11
-19.807753
 21
-82.402885
  0
LINE
  8
0
  6
CONTINUOUS
 62
     7
 10
-18
 20
-85
 11
-13.956624
 21
-92.003334
  0
LINE
  8
0
  6
CONTINUOUS
 62
     7
 10
-61.891224
 20
-79.60878
 11
-21.543194
 21
-80.869652
  0
LINE
  8
0
  6
CONTINUOUS
 62
     7
 10
-64
 20
-77.5
 11
-60.364517
 21
-81.135483
  0
LINE
  8
0
  6
CONTINUOUS
 62
     7
 10
-61.891224
 20
-79.608772
 11
-61.891224
 21
0
  0
LINE
  8
0
  6
CONTINUOUS
 62
     7
 10
-13.956621
 20
0
 11
0
 21
0
  0
ARC
  8
0
  6
CONTINUOUS
 62
     7
 10
6.4704003
 20
78.529762
 40
24.4704
 50
146.59132
 51
213.40867
  0
ARC
  8
0
  6
CONTINUOUS
 62
     7
 10
114.86237
 20
32.528091
 40
132.86237
 50
165.82848
 51
194.17151
  0
ARC
  8
0
  6
CONTINUOUS
 62
     7
 10
114.86237
 20
-32.528091
 40
132.86237
 50
165.82848
 51
194.17151
  0
ARC
  8
0
  6
CONTINUOUS
 62
     7
 10
6.4704003
 20
-78.529762
 40
24.4704
 50
146.59132
 51
213.40867
  0
TEXT
  8
0
  6
CONTINUOUS
 62
     7
 10
-58.865347
 20
103.87368
 40
3.2
 41
0.84741102
  1
６×１１／４
  0
ENDBLK
  8
0
  0
BLOCK
  8
0
  2
KOZU51
 70
    64
 10
0
 20
0
  0
POINT
  8
0
  6
CONTINUOUS
 62
     7
 10
0
 20
0
  0
POINT
  8
0
  6
CONTINUOUS
 62
     7
 10
0
 20
0
  0
POINT
  8
0
  6
CONTINUOUS
 62
     7
 10
0
 20
0
  0
POINT
  8
0
  6
CONTINUOUS
 62
     7
 10
0
 20
0
  0
LINE
  8
0
  6
CENTER
 62
     7
 10
-73.761902
 20
0
 11
8.6769295
 21
0
  0
LINE
  8
0
  6
CONTINUOUS
 62
     7
 10
-13.956621
 20
92.003334
 11
0
 21
92.003334
  0
LINE
  8
0
  6
CONTINUOUS
 62
     7
 10
-13.956621
 20
65.056183
 11
0
 21
65.056183
  0
LINE
  8
0
  6
CONTINUOUS
 62
     7
 10
0
 20
92.003334
 11
0
 21
0
  0
LINE
  8
0
  6
CONTINUOUS
 62
     7
 10
-64
 20
77.5
 11
-64
 21
0
  0
LINE
  8
0
  6
CONTINUOUS
 62
     7
 10
-18
 20
85
 11
-18
 21
0
  0
LINE
  8
0
  6
CONTINUOUS
 62
     7
 10
-18
 20
85
 11
-13.956624
 21
92.003334
  0
LINE
  8
0
  6
CONTINUOUS
 62
     7
 10
-64
 20
77.5
 11
-60.364517
 21
81.135483
  0
LINE
  8
0
  6
CONTINUOUS
 62
     7
 10
-60.364513
 20
81.13549
 11
-19.807753
 21
82.402885
  0
LINE
  8
0
  6
CONTINUOUS
 62
     7
 10
-61.891224
 20
79.60878
 11
-21.543194
 21
80.869652
  0
LINE
  8
0
  6
CONTINUOUS
 62
     7
 10
-18.000004
 20
84
 11
-21.543198
 21
80.869652
  0
LINE
  8
0
  6
CONTINUOUS
 62
     7
 10
-21.543194
 20
82.348648
 11
-21.543194
 21
0
  0
LINE
  8
0
  6
CONTINUOUS
 62
     7
 10
-60.364517
 20
81.135483
 11
-60.364517
 21
0
  0
LINE
  8
0
  6
CONTINUOUS
 62
     7
 10
-61.891224
 20
79.608772
 11
-61.891224
 21
0
  0
LINE
  8
0
  6
CENTER
 62
     7
 10
-73.761902
 20
0
 11
8.6769295
 21
0
  0
LINE
  8
0
  6
CONTINUOUS
 62
     7
 10
-18.000004
 20
-84
 11
-21.543198
 21
-80.869652
  0
LINE
  8
0
  6
CONTINUOUS
 62
     7
 10
-21.543194
 20
-82.348648
 11
-21.543194
 21
0
  0
LINE
  8
0
  6
CONTINUOUS
 62
     7
 10
-60.364517
 20
-81.135483
 11
-60.364517
 21
0
  0
LINE
  8
0
  6
CONTINUOUS
 62
     7
 10
-13.956621
 20
-92.003334
 11
0
 21
-92.003334
  0
LINE
  8
0
  6
CONTINUOUS
 62
     7
 10
-18
 20
-85
 11
-18
 21
0
  0
LINE
  8
0
  6
CONTINUOUS
 62
     7
 10
-64
 20
-77.5
 11
-64
 21
0
  0
LINE
  8
0
  6
CONTINUOUS
 62
     7
 10
-13.956621
 20
-65.056183
 11
0
 21
-65.056183
  0
LINE
  8
0
  6
CONTINUOUS
 62
     7
 10
0
 20
-92.003334
 11
0
 21
0
  0
LINE
  8
0
  6
CONTINUOUS
 62
     7
 10
-60.364513
 20
-81.13549
 11
-19.807753
 21
-82.402885
  0
LINE
  8
0
  6
CONTINUOUS
 62
     7
 10
-18
 20
-85
 11
-13.956624
 21
-92.003334
  0
LINE
  8
0
  6
CONTINUOUS
 62
     7
 10
-61.891224
 20
-79.60878
 11
-21.543194
 21
-80.869652
  0
LINE
  8
0
  6
CONTINUOUS
 62
     7
 10
-64
 20
-77.5
 11
-60.364517
 21
-81.135483
  0
LINE
  8
0
  6
CONTINUOUS
 62
     7
 10
-61.891224
 20
-79.608772
 11
-61.891224
 21
0
  0
LINE
  8
0
  6
CONTINUOUS
 62
     7
 10
-13.956621
 20
0
 11
0
 21
0
  0
ARC
  8
0
  6
CONTINUOUS
 62
     7
 10
6.4704003
 20
78.529762
 40
24.4704
 50
146.59132
 51
213.40867
  0
ARC
  8
0
  6
CONTINUOUS
 62
     7
 10
114.86237
 20
32.528091
 40
132.86237
 50
165.82848
 51
194.17151
  0
ARC
  8
0
  6
CONTINUOUS
 62
     7
 10
114.86237
 20
-32.528091
 40
132.86237
 50
165.82848
 51
194.17151
  0
ARC
  8
0
  6
CONTINUOUS
 62
     7
 10
6.4704003
 20
-78.529762
 40
24.4704
 50
146.59132
 51
213.40867
  0
TEXT
  8
0
  6
CONTINUOUS
 62
     7
 10
-58.865347
 20
103.87368
 40
3.2
 41
0.84741102
  1
６×１１／２
  0
ENDBLK
  8
0
  0
BLOCK
  8
0
  2
KOZU52
 70
    64
 10
0
 20
0
  0
POINT
  8
0
  6
CONTINUOUS
 62
     7
 10
0
 20
0
  0
POINT
  8
0
  6
CONTINUOUS
 62
     7
 10
0
 20
0
  0
POINT
  8
0
  6
CONTINUOUS
 62
     7
 10
0
 20
0
  0
POINT
  8
0
  6
CONTINUOUS
 62
     7
 10
0
 20
0
  0
LINE
  8
0
  6
CENTER
 62
     7
 10
-73.761902
 20
0
 11
8.6769295
 21
0
  0
LINE
  8
0
  6
CONTINUOUS
 62
     7
 10
-13.956621
 20
92.003334
 11
0
 21
92.003334
  0
LINE
  8
0
  6
CONTINUOUS
 62
     7
 10
-13.956621
 20
65.056183
 11
0
 21
65.056183
  0
LINE
  8
0
  6
CONTINUOUS
 62
     7
 10
0
 20
92.003334
 11
0
 21
0
  0
LINE
  8
0
  6
CONTINUOUS
 62
     7
 10
-64
 20
77.5
 11
-64
 21
0
  0
LINE
  8
0
  6
CONTINUOUS
 62
     7
 10
-18
 20
85
 11
-18
 21
0
  0
LINE
  8
0
  6
CONTINUOUS
 62
     7
 10
-18
 20
85
 11
-13.956624
 21
92.003334
  0
LINE
  8
0
  6
CONTINUOUS
 62
     7
 10
-64
 20
77.5
 11
-60.364517
 21
81.135483
  0
LINE
  8
0
  6
CONTINUOUS
 62
     7
 10
-60.364513
 20
81.13549
 11
-19.807753
 21
82.402885
  0
LINE
  8
0
  6
CONTINUOUS
 62
     7
 10
-61.891224
 20
79.60878
 11
-21.543194
 21
80.869652
  0
LINE
  8
0
  6
CONTINUOUS
 62
     7
 10
-18.000004
 20
84
 11
-21.543198
 21
80.869652
  0
LINE
  8
0
  6
CONTINUOUS
 62
     7
 10
-21.543194
 20
82.348648
 11
-21.543194
 21
0
  0
LINE
  8
0
  6
CONTINUOUS
 62
     7
 10
-60.364517
 20
81.135483
 11
-60.364517
 21
0
  0
LINE
  8
0
  6
CONTINUOUS
 62
     7
 10
-61.891224
 20
79.608772
 11
-61.891224
 21
0
  0
LINE
  8
0
  6
CENTER
 62
     7
 10
-73.761902
 20
0
 11
8.6769295
 21
0
  0
LINE
  8
0
  6
CONTINUOUS
 62
     7
 10
-18.000004
 20
-84
 11
-21.543198
 21
-80.869652
  0
LINE
  8
0
  6
CONTINUOUS
 62
     7
 10
-21.543194
 20
-82.348648
 11
-21.543194
 21
0
  0
LINE
  8
0
  6
CONTINUOUS
 62
     7
 10
-60.364517
 20
-81.135483
 11
-60.364517
 21
0
  0
LINE
  8
0
  6
CONTINUOUS
 62
     7
 10
-13.956621
 20
-92.003334
 11
0
 21
-92.003334
  0
LINE
  8
0
  6
CONTINUOUS
 62
     7
 10
-18
 20
-85
 11
-18
 21
0
  0
LINE
  8
0
  6
CONTINUOUS
 62
     7
 10
-64
 20
-77.5
 11
-64
 21
0
  0
LINE
  8
0
  6
CONTINUOUS
 62
     7
 10
-13.956621
 20
-65.056183
 11
0
 21
-65.056183
  0
LINE
  8
0
  6
CONTINUOUS
 62
     7
 10
0
 20
-92.003334
 11
0
 21
0
  0
LINE
  8
0
  6
CONTINUOUS
 62
     7
 10
-60.364513
 20
-81.13549
 11
-19.807753
 21
-82.402885
  0
LINE
  8
0
  6
CONTINUOUS
 62
     7
 10
-18
 20
-85
 11
-13.956624
 21
-92.003334
  0
LINE
  8
0
  6
CONTINUOUS
 62
     7
 10
-61.891224
 20
-79.60878
 11
-21.543194
 21
-80.869652
  0
LINE
  8
0
  6
CONTINUOUS
 62
     7
 10
-64
 20
-77.5
 11
-60.364517
 21
-81.135483
  0
LINE
  8
0
  6
CONTINUOUS
 62
     7
 10
-61.891224
 20
-79.608772
 11
-61.891224
 21
0
  0
LINE
  8
0
  6
CONTINUOUS
 62
     7
 10
-13.956621
 20
0
 11
0
 21
0
  0
ARC
  8
0
  6
CONTINUOUS
 62
     7
 10
6.4704003
 20
78.529762
 40
24.4704
 50
146.59132
 51
213.40867
  0
ARC
  8
0
  6
CONTINUOUS
 62
     7
 10
114.86237
 20
32.528091
 40
132.86237
 50
165.82848
 51
194.17151
  0
ARC
  8
0
  6
CONTINUOUS
 62
     7
 10
114.86237
 20
-32.528091
 40
132.86237
 50
165.82848
 51
194.17151
  0
ARC
  8
0
  6
CONTINUOUS
 62
     7
 10
6.4704003
 20
-78.529762
 40
24.4704
 50
146.59132
 51
213.40867
  0
TEXT
  8
0
  6
CONTINUOUS
 62
     7
 10
-58.865347
 20
103.87368
 40
3.2
 41
0.85537027
  1
６×２
  0
ENDBLK
  8
0
  0
BLOCK
  8
0
  2
KOZU53
 70
    64
 10
0
 20
0
  0
POINT
  8
0
  6
CONTINUOUS
 62
     7
 10
0
 20
0
  0
POINT
  8
0
  6
CONTINUOUS
 62
     7
 10
0
 20
0
  0
POINT
  8
0
  6
CONTINUOUS
 62
     7
 10
0
 20
0
  0
POINT
  8
0
  6
CONTINUOUS
 62
     7
 10
0
 20
0
  0
LINE
  8
0
  6
CENTER
 62
     7
 10
-73.761902
 20
0
 11
8.6769295
 21
0
  0
LINE
  8
0
  6
CONTINUOUS
 62
     7
 10
-13.956621
 20
92.003334
 11
0
 21
92.003334
  0
LINE
  8
0
  6
CONTINUOUS
 62
     7
 10
-13.956621
 20
65.056183
 11
0
 21
65.056183
  0
LINE
  8
0
  6
CONTINUOUS
 62
     7
 10
0
 20
92.003334
 11
0
 21
0
  0
LINE
  8
0
  6
CONTINUOUS
 62
     7
 10
-64
 20
77.5
 11
-64
 21
0
  0
LINE
  8
0
  6
CONTINUOUS
 62
     7
 10
-18
 20
85
 11
-18
 21
0
  0
LINE
  8
0
  6
CONTINUOUS
 62
     7
 10
-18
 20
85
 11
-13.956624
 21
92.003334
  0
LINE
  8
0
  6
CONTINUOUS
 62
     7
 10
-64
 20
77.5
 11
-60.364517
 21
81.135483
  0
LINE
  8
0
  6
CONTINUOUS
 62
     7
 10
-60.364513
 20
81.13549
 11
-19.807753
 21
82.402885
  0
LINE
  8
0
  6
CONTINUOUS
 62
     7
 10
-61.891224
 20
79.60878
 11
-21.543194
 21
80.869652
  0
LINE
  8
0
  6
CONTINUOUS
 62
     7
 10
-18.000004
 20
84
 11
-21.543198
 21
80.869652
  0
LINE
  8
0
  6
CONTINUOUS
 62
     7
 10
-21.543194
 20
82.348648
 11
-21.543194
 21
0
  0
LINE
  8
0
  6
CONTINUOUS
 62
     7
 10
-60.364517
 20
81.135483
 11
-60.364517
 21
0
  0
LINE
  8
0
  6
CONTINUOUS
 62
     7
 10
-61.891224
 20
79.608772
 11
-61.891224
 21
0
  0
LINE
  8
0
  6
CENTER
 62
     7
 10
-73.761902
 20
0
 11
8.6769295
 21
0
  0
LINE
  8
0
  6
CONTINUOUS
 62
     7
 10
-18.000004
 20
-84
 11
-21.543198
 21
-80.869652
  0
LINE
  8
0
  6
CONTINUOUS
 62
     7
 10
-21.543194
 20
-82.348648
 11
-21.543194
 21
0
  0
LINE
  8
0
  6
CONTINUOUS
 62
     7
 10
-60.364517
 20
-81.135483
 11
-60.364517
 21
0
  0
LINE
  8
0
  6
CONTINUOUS
 62
     7
 10
-13.956621
 20
-92.003334
 11
0
 21
-92.003334
  0
LINE
  8
0
  6
CONTINUOUS
 62
     7
 10
-18
 20
-85
 11
-18
 21
0
  0
LINE
  8
0
  6
CONTINUOUS
 62
     7
 10
-64
 20
-77.5
 11
-64
 21
0
  0
LINE
  8
0
  6
CONTINUOUS
 62
     7
 10
-13.956621
 20
-65.056183
 11
0
 21
-65.056183
  0
LINE
  8
0
  6
CONTINUOUS
 62
     7
 10
0
 20
-92.003334
 11
0
 21
0
  0
LINE
  8
0
  6
CONTINUOUS
 62
     7
 10
-60.364513
 20
-81.13549
 11
-19.807753
 21
-82.402885
  0
LINE
  8
0
  6
CONTINUOUS
 62
     7
 10
-18
 20
-85
 11
-13.956624
 21
-92.003334
  0
LINE
  8
0
  6
CONTINUOUS
 62
     7
 10
-61.891224
 20
-79.60878
 11
-21.543194
 21
-80.869652
  0
LINE
  8
0
  6
CONTINUOUS
 62
     7
 10
-64
 20
-77.5
 11
-60.364517
 21
-81.135483
  0
LINE
  8
0
  6
CONTINUOUS
 62
     7
 10
-61.891224
 20
-79.608772
 11
-61.891224
 21
0
  0
LINE
  8
0
  6
CONTINUOUS
 62
     7
 10
-13.956621
 20
0
 11
0
 21
0
  0
ARC
  8
0
  6
CONTINUOUS
 62
     7
 10
6.4704003
 20
78.529762
 40
24.4704
 50
146.59132
 51
213.40867
  0
ARC
  8
0
  6
CONTINUOUS
 62
     7
 10
114.86237
 20
32.528091
 40
132.86237
 50
165.82848
 51
194.17151
  0
ARC
  8
0
  6
CONTINUOUS
 62
     7
 10
114.86237
 20
-32.528091
 40
132.86237
 50
165.82848
 51
194.17151
  0
ARC
  8
0
  6
CONTINUOUS
 62
     7
 10
6.4704003
 20
-78.529762
 40
24.4704
 50
146.59132
 51
213.40867
  0
TEXT
  8
0
  6
CONTINUOUS
 62
     7
 10
-58.865347
 20
103.87368
 40
3.2
 41
0.84741102
  1
６×２１／２
  0
ENDBLK
  8
0
  0
BLOCK
  8
0
  2
KOZU54
 70
    64
 10
0
 20
0
  0
POINT
  8
0
  6
CONTINUOUS
 62
     7
 10
0
 20
0
  0
POINT
  8
0
  6
CONTINUOUS
 62
     7
 10
1.3
 20
0
  0
POINT
  8
0
  6
CONTINUOUS
 62
     7
 10
0
 20
0
  0
POINT
  8
0
  6
CONTINUOUS
 62
     7
 10
0
 20
0
  0
POINT
  8
0
  6
CONTINUOUS
 62
     7
 10
0
 20
0
  0
LINE
  8
0
  6
CENTER
 62
     7
 10
-73.761902
 20
0
 11
8.6769295
 21
0
  0
LINE
  8
0
  6
CONTINUOUS
 62
     7
 10
-13.956621
 20
92.003334
 11
0
 21
92.003334
  0
LINE
  8
0
  6
CONTINUOUS
 62
     7
 10
-13.956621
 20
65.056183
 11
0
 21
65.056183
  0
LINE
  8
0
  6
CONTINUOUS
 62
     7
 10
0
 20
92.003334
 11
0
 21
0
  0
LINE
  8
0
  6
CONTINUOUS
 62
     7
 10
-64
 20
77.5
 11
-64
 21
0
  0
LINE
  8
0
  6
CONTINUOUS
 62
     7
 10
-18
 20
85
 11
-18
 21
0
  0
LINE
  8
0
  6
CONTINUOUS
 62
     7
 10
-18
 20
85
 11
-13.956624
 21
92.003334
  0
LINE
  8
0
  6
CONTINUOUS
 62
     7
 10
-64
 20
77.5
 11
-60.364517
 21
81.135483
  0
LINE
  8
0
  6
CONTINUOUS
 62
     7
 10
-60.364513
 20
81.13549
 11
-19.807753
 21
82.402885
  0
LINE
  8
0
  6
CONTINUOUS
 62
     7
 10
-61.891224
 20
79.60878
 11
-21.543194
 21
80.869652
  0
LINE
  8
0
  6
CONTINUOUS
 62
     7
 10
-18.000004
 20
84
 11
-21.543198
 21
80.869652
  0
LINE
  8
0
  6
CONTINUOUS
 62
     7
 10
-21.543194
 20
82.348648
 11
-21.543194
 21
0
  0
LINE
  8
0
  6
CONTINUOUS
 62
     7
 10
-60.364517
 20
81.135483
 11
-60.364517
 21
0
  0
LINE
  8
0
  6
CONTINUOUS
 62
     7
 10
-61.891224
 20
79.608772
 11
-61.891224
 21
0
  0
LINE
  8
0
  6
CENTER
 62
     7
 10
-73.761902
 20
0
 11
8.6769295
 21
0
  0
LINE
  8
0
  6
CONTINUOUS
 62
     7
 10
-18.000004
 20
-84
 11
-21.543198
 21
-80.869652
  0
LINE
  8
0
  6
CONTINUOUS
 62
     7
 10
-21.543194
 20
-82.348648
 11
-21.543194
 21
0
  0
LINE
  8
0
  6
CONTINUOUS
 62
     7
 10
-60.364517
 20
-81.135483
 11
-60.364517
 21
0
  0
LINE
  8
0
  6
CONTINUOUS
 62
     7
 10
-13.956621
 20
-92.003334
 11
0
 21
-92.003334
  0
LINE
  8
0
  6
CONTINUOUS
 62
     7
 10
-18
 20
-85
 11
-18
 21
0
  0
LINE
  8
0
  6
CONTINUOUS
 62
     7
 10
-64
 20
-77.5
 11
-64
 21
0
  0
LINE
  8
0
  6
CONTINUOUS
 62
     7
 10
-13.956621
 20
-65.056183
 11
0
 21
-65.056183
  0
LINE
  8
0
  6
CONTINUOUS
 62
     7
 10
0
 20
-92.003334
 11
0
 21
0
  0
LINE
  8
0
  6
CONTINUOUS
 62
     7
 10
-60.364513
 20
-81.13549
 11
-19.807753
 21
-82.402885
  0
LINE
  8
0
  6
CONTINUOUS
 62
     7
 10
-18
 20
-85
 11
-13.956624
 21
-92.003334
  0
LINE
  8
0
  6
CONTINUOUS
 62
     7
 10
-61.891224
 20
-79.60878
 11
-21.543194
 21
-80.869652
  0
LINE
  8
0
  6
CONTINUOUS
 62
     7
 10
-64
 20
-77.5
 11
-60.364517
 21
-81.135483
  0
LINE
  8
0
  6
CONTINUOUS
 62
     7
 10
-61.891224
 20
-79.608772
 11
-61.891224
 21
0
  0
LINE
  8
0
  6
CONTINUOUS
 62
     7
 10
-13.956621
 20
0
 11
0
 21
0
  0
ARC
  8
0
  6
CONTINUOUS
 62
     7
 10
6.4704003
 20
78.529762
 40
24.4704
 50
146.59132
 51
213.40867
  0
ARC
  8
0
  6
CONTINUOUS
 62
     7
 10
114.86237
 20
32.528091
 40
132.86237
 50
165.82848
 51
194.17151
  0
ARC
  8
0
  6
CONTINUOUS
 62
     7
 10
114.86237
 20
-32.528091
 40
132.86237
 50
165.82848
 51
194.17151
  0
ARC
  8
0
  6
CONTINUOUS
 62
     7
 10
6.4704003
 20
-78.529762
 40
24.4704
 50
146.59132
 51
213.40867
  0
TEXT
  8
0
  6
CONTINUOUS
 62
     7
 10
-58.865347
 20
103.87368
 40
3.2
 41
0.84741102
  1
６×１１／４
  0
ENDBLK
  8
0
  0
BLOCK
  8
0
  2
KOZU55
 70
    64
 10
0
 20
0
  0
POINT
  8
0
  6
CONTINUOUS
 62
     7
 10
0
 20
0
  0
POINT
  8
0
  6
CONTINUOUS
 62
     7
 10
0
 20
0
  0
POINT
  8
0
  6
CONTINUOUS
 62
     7
 10
0
 20
0
  0
POINT
  8
0
  6
CONTINUOUS
 62
     7
 10
0
 20
0
  0
LINE
  8
0
  6
CENTER
 62
     7
 10
-73.761902
 20
0
 11
8.6769295
 21
0
  0
LINE
  8
0
  6
CONTINUOUS
 62
     7
 10
-13.956621
 20
92.003334
 11
0
 21
92.003334
  0
LINE
  8
0
  6
CONTINUOUS
 62
     7
 10
-13.956621
 20
65.056183
 11
0
 21
65.056183
  0
LINE
  8
0
  6
CONTINUOUS
 62
     7
 10
0
 20
92.003334
 11
0
 21
0
  0
LINE
  8
0
  6
CONTINUOUS
 62
     7
 10
-64
 20
77.5
 11
-64
 21
0
  0
LINE
  8
0
  6
CONTINUOUS
 62
     7
 10
-18
 20
85
 11
-18
 21
0
  0
LINE
  8
0
  6
CONTINUOUS
 62
     7
 10
-18
 20
85
 11
-13.956624
 21
92.003334
  0
LINE
  8
0
  6
CONTINUOUS
 62
     7
 10
-64
 20
77.5
 11
-60.364517
 21
81.135483
  0
LINE
  8
0
  6
CONTINUOUS
 62
     7
 10
-60.364513
 20
81.13549
 11
-19.807753
 21
82.402885
  0
LINE
  8
0
  6
CONTINUOUS
 62
     7
 10
-61.891224
 20
79.60878
 11
-21.543194
 21
80.869652
  0
LINE
  8
0
  6
CONTINUOUS
 62
     7
 10
-18.000004
 20
84
 11
-21.543198
 21
80.869652
  0
LINE
  8
0
  6
CONTINUOUS
 62
     7
 10
-21.543194
 20
82.348648
 11
-21.543194
 21
0
  0
LINE
  8
0
  6
CONTINUOUS
 62
     7
 10
-60.364517
 20
81.135483
 11
-60.364517
 21
0
  0
LINE
  8
0
  6
CONTINUOUS
 62
     7
 10
-61.891224
 20
79.608772
 11
-61.891224
 21
0
  0
LINE
  8
0
  6
CENTER
 62
     7
 10
-73.761902
 20
0
 11
8.6769295
 21
0
  0
LINE
  8
0
  6
CONTINUOUS
 62
     7
 10
-18.000004
 20
-84
 11
-21.543198
 21
-80.869652
  0
LINE
  8
0
  6
CONTINUOUS
 62
     7
 10
-21.543194
 20
-82.348648
 11
-21.543194
 21
0
  0
LINE
  8
0
  6
CONTINUOUS
 62
     7
 10
-60.364517
 20
-81.135483
 11
-60.364517
 21
0
  0
LINE
  8
0
  6
CONTINUOUS
 62
     7
 10
-13.956621
 20
-92.003334
 11
0
 21
-92.003334
  0
LINE
  8
0
  6
CONTINUOUS
 62
     7
 10
-18
 20
-85
 11
-18
 21
0
  0
LINE
  8
0
  6
CONTINUOUS
 62
     7
 10
-64
 20
-77.5
 11
-64
 21
0
  0
LINE
  8
0
  6
CONTINUOUS
 62
     7
 10
-13.956621
 20
-65.056183
 11
0
 21
-65.056183
  0
LINE
  8
0
  6
CONTINUOUS
 62
     7
 10
0
 20
-92.003334
 11
0
 21
0
  0
LINE
  8
0
  6
CONTINUOUS
 62
     7
 10
-60.364513
 20
-81.13549
 11
-19.807753
 21
-82.402885
  0
LINE
  8
0
  6
CONTINUOUS
 62
     7
 10
-18
 20
-85
 11
-13.956624
 21
-92.003334
  0
LINE
  8
0
  6
CONTINUOUS
 62
     7
 10
-61.891224
 20
-79.60878
 11
-21.543194
 21
-80.869652
  0
LINE
  8
0
  6
CONTINUOUS
 62
     7
 10
-64
 20
-77.5
 11
-60.364517
 21
-81.135483
  0
LINE
  8
0
  6
CONTINUOUS
 62
     7
 10
-61.891224
 20
-79.608772
 11
-61.891224
 21
0
  0
LINE
  8
0
  6
CONTINUOUS
 62
     7
 10
-13.956621
 20
0
 11
0
 21
0
  0
ARC
  8
0
  6
CONTINUOUS
 62
     7
 10
6.4704003
 20
78.529762
 40
24.4704
 50
146.59132
 51
213.40867
  0
ARC
  8
0
  6
CONTINUOUS
 62
     7
 10
114.86237
 20
32.528091
 40
132.86237
 50
165.82848
 51
194.17151
  0
ARC
  8
0
  6
CONTINUOUS
 62
     7
 10
114.86237
 20
-32.528091
 40
132.86237
 50
165.82848
 51
194.17151
  0
ARC
  8
0
  6
CONTINUOUS
 62
     7
 10
6.4704003
 20
-78.529762
 40
24.4704
 50
146.59132
 51
213.40867
  0
TEXT
  8
0
  6
CONTINUOUS
 62
     7
 10
-58.865347
 20
103.87368
 40
3.2
 41
0.85537027
  1
６×４
  0
ENDBLK
  8
0
  0
BLOCK
  8
0
  2
KOZU56
 70
    64
 10
0
 20
0
  0
POINT
  8
0
  6
CONTINUOUS
 62
     7
 10
0
 20
0
  0
POINT
  8
0
  6
CONTINUOUS
 62
     7
 10
0
 20
0
  0
POINT
  8
0
  6
CONTINUOUS
 62
     7
 10
0
 20
0
  0
POINT
  8
0
  6
CONTINUOUS
 62
     7
 10
0
 20
0
  0
LINE
  8
0
  6
CENTER
 62
     7
 10
-73.761902
 20
0
 11
8.6769295
 21
0
  0
LINE
  8
0
  6
CONTINUOUS
 62
     7
 10
-13.956621
 20
92.003334
 11
0
 21
92.003334
  0
LINE
  8
0
  6
CONTINUOUS
 62
     7
 10
-13.956621
 20
65.056183
 11
0
 21
65.056183
  0
LINE
  8
0
  6
CONTINUOUS
 62
     7
 10
0
 20
92.003334
 11
0
 21
0
  0
LINE
  8
0
  6
CONTINUOUS
 62
     7
 10
-64
 20
77.5
 11
-64
 21
0
  0
LINE
  8
0
  6
CONTINUOUS
 62
     7
 10
-18
 20
85
 11
-18
 21
0
  0
LINE
  8
0
  6
CONTINUOUS
 62
     7
 10
-18
 20
85
 11
-13.956624
 21
92.003334
  0
LINE
  8
0
  6
CONTINUOUS
 62
     7
 10
-64
 20
77.5
 11
-60.364517
 21
81.135483
  0
LINE
  8
0
  6
CONTINUOUS
 62
     7
 10
-60.364513
 20
81.13549
 11
-19.807753
 21
82.402885
  0
LINE
  8
0
  6
CONTINUOUS
 62
     7
 10
-61.891224
 20
79.60878
 11
-21.543194
 21
80.869652
  0
LINE
  8
0
  6
CONTINUOUS
 62
     7
 10
-18.000004
 20
84
 11
-21.543198
 21
80.869652
  0
LINE
  8
0
  6
CONTINUOUS
 62
     7
 10
-21.543194
 20
82.348648
 11
-21.543194
 21
0
  0
LINE
  8
0
  6
CONTINUOUS
 62
     7
 10
-60.364517
 20
81.135483
 11
-60.364517
 21
0
  0
LINE
  8
0
  6
CONTINUOUS
 62
     7
 10
-61.891224
 20
79.608772
 11
-61.891224
 21
0
  0
LINE
  8
0
  6
CENTER
 62
     7
 10
-73.761902
 20
0
 11
8.6769295
 21
0
  0
LINE
  8
0
  6
CONTINUOUS
 62
     7
 10
-18.000004
 20
-84
 11
-21.543198
 21
-80.869652
  0
LINE
  8
0
  6
CONTINUOUS
 62
     7
 10
-21.543194
 20
-82.348648
 11
-21.543194
 21
0
  0
LINE
  8
0
  6
CONTINUOUS
 62
     7
 10
-60.364517
 20
-81.135483
 11
-60.364517
 21
0
  0
LINE
  8
0
  6
CONTINUOUS
 62
     7
 10
-13.956621
 20
-92.003334
 11
0
 21
-92.003334
  0
LINE
  8
0
  6
CONTINUOUS
 62
     7
 10
-18
 20
-85
 11
-18
 21
0
  0
LINE
  8
0
  6
CONTINUOUS
 62
     7
 10
-64
 20
-77.5
 11
-64
 21
0
  0
LINE
  8
0
  6
CONTINUOUS
 62
     7
 10
-13.956621
 20
-65.056183
 11
0
 21
-65.056183
  0
LINE
  8
0
  6
CONTINUOUS
 62
     7
 10
0
 20
-92.003334
 11
0
 21
0
  0
LINE
  8
0
  6
CONTINUOUS
 62
     7
 10
-60.364513
 20
-81.13549
 11
-19.807753
 21
-82.402885
  0
LINE
  8
0
  6
CONTINUOUS
 62
     7
 10
-18
 20
-85
 11
-13.956624
 21
-92.003334
  0
LINE
  8
0
  6
CONTINUOUS
 62
     7
 10
-61.891224
 20
-79.60878
 11
-21.543194
 21
-80.869652
  0
LINE
  8
0
  6
CONTINUOUS
 62
     7
 10
-64
 20
-77.5
 11
-60.364517
 21
-81.135483
  0
LINE
  8
0
  6
CONTINUOUS
 62
     7
 10
-61.891224
 20
-79.608772
 11
-61.891224
 21
0
  0
LINE
  8
0
  6
CONTINUOUS
 62
     7
 10
-13.956621
 20
0
 11
0
 21
0
  0
ARC
  8
0
  6
CONTINUOUS
 62
     7
 10
6.4704003
 20
78.529762
 40
24.4704
 50
146.59132
 51
213.40867
  0
ARC
  8
0
  6
CONTINUOUS
 62
     7
 10
114.86237
 20
32.528091
 40
132.86237
 50
165.82848
 51
194.17151
  0
ARC
  8
0
  6
CONTINUOUS
 62
     7
 10
114.86237
 20
-32.528091
 40
132.86237
 50
165.82848
 51
194.17151
  0
ARC
  8
0
  6
CONTINUOUS
 62
     7
 10
6.4704003
 20
-78.529762
 40
24.4704
 50
146.59132
 51
213.40867
  0
TEXT
  8
0
  6
CONTINUOUS
 62
     7
 10
-58.865347
 20
103.87368
 40
3.2
 41
0.85537027
  1
６×５
  0
ENDBLK
  8
0
  0
ENDSEC
  0
SECTION
  2
ENTITIES
  0
POINT
  8
0
  6
CONTINUOUS
 62
     7
 10
-290
 20
60
  0
POINT
  8
0
  6
CONTINUOUS
 62
     7
 10
304
 20
60
  0
POINT
  8
0
  6
CONTINUOUS
 62
     7
 10
-290
 20
480
  0
POINT
  8
0
  6
CONTINUOUS
 62
     7
 10
304
 20
480
  0
POINT
  8
0
  6
CONTINUOUS
 62
     7
 10
343
 20
480
  0
POINT
  8
0
  6
CONTINUOUS
 62
     7
 10
343
 20
60
  0
POINT
  8
0
  6
CONTINUOUS
 62
     7
 10
937
 20
480
  0
POINT
  8
0
  6
CONTINUOUS
 62
     7
 10
937
 20
60
  0
LINE
  8
0
  6
CONTINUOUS
 62
     7
 10
294
 20
470
 11
294
 21
70
  0
LINE
  8
0
  6
CONTINUOUS
 62
     7
 10
-280
 20
470
 11
294
 21
470
  0
LINE
  8
0
  6
CONTINUOUS
 62
     7
 10
-280
 20
470
 11
-280
 21
70
  0
LINE
  8
0
  6
CONTINUOUS
 62
     7
 10
-280
 20
70
 11
294
 21
70
  0
LINE
  8
0
  6
CONTINUOUS
 62
     7
 10
353
 20
470
 11
927
 21
470
  0
LINE
  8
0
  6
CONTINUOUS
 62
     7
 10
927
 20
470
 11
927
 21
70
  0
LINE
  8
0
  6
CONTINUOUS
 62
     7
 10
353
 20
470
 11
353
 21
70
  0
LINE
  8
0
  6
CONTINUOUS
 62
     7
 10
353
 20
70
 11
927
 21
70
  0
LINE
  8
0
  6
CONTINUOUS
 62
     7
 10
-280
 20
-50
 11
294
 21
-50
  0
LINE
  8
0
  6
CONTINUOUS
 62
     7
 10
294
 20
-50
 11
294
 21
-450
  0
LINE
  8
0
  6
CONTINUOUS
 62
     7
 10
-280
 20
-50
 11
-280
 21
-450
  0
LINE
  8
0
  6
CONTINUOUS
 62
     7
 10
-280
 20
-450
 11
294
 21
-450
  0
LINE
  8
0
  6
CONTINUOUS
 62
     7
 10
360
 20
-50
 11
934
 21
-50
  0
LINE
  8
0
  6
CONTINUOUS
 62
     7
 10
934
 20
-50
 11
934
 21
-450
  0
LINE
  8
0
  6
CONTINUOUS
 62
     7
 10
360
 20
-50
 11
360
 21
-450
  0
LINE
  8
0
  6
CONTINUOUS
 62
     7
 10
360
 20
-450
 11
934
 21
-450
  0
LINE
  8
0
  6
CENTER
 62
     7
 10
-144.32675
 20
390
 11
-117.09039
 21
390
  0
LINE
  8
0
  6
CONTINUOUS
 62
     7
 10
-125
 20
402.82501
 11
-125
 21
377.17499
  0
LINE
  8
0
  6
CONTINUOUS
 62
     7
 10
-123.83889
 20
404.83612
 11
-120
 21
404.83612
  0
LINE
  8
0
  6
CONTINUOUS
 62
     7
 10
-123.83889
 20
397.33057
 11
-120
 21
397.33057
  0
LINE
  8
0
  6
CONTINUOUS
 62
     7
 10
-120
 20
404.83612
 11
-120
 21
375.16388
  0
LINE
  8
0
  6
CONTINUOUS
 62
     7
 10
-125
 20
402.82501
 11
-123.83888
 21
404.83612
  0
LINE
  8
0
  6
CONTINUOUS
 62
     7
 10
-123.83889
 20
382.31946
 11
-120
 21
382.31946
  0
LINE
  8
0
  6
CONTINUOUS
 62
     7
 10
-141
 20
398.5
 11
-141
 21
390
  0
LINE
  8
0
  6
CONTINUOUS
 62
     7
 10
-139.22194
 20
400.27808
 11
-125.71049
 21
400.70032
  0
LINE
  8
0
  6
CONTINUOUS
 62
     7
 10
-140.422
 20
399.078
 11
-126.91055
 21
399.50021
  0
LINE
  8
0
  6
CONTINUOUS
 62
     7
 10
-140.99998
 20
398.5
 11
-139.22192
 21
400.27805
  0
LINE
  8
0
  6
CONTINUOUS
 62
     7
 10
-126.91056
 20
399.50021
 11
-125.00001
 21
401.4108
  0
LINE
  8
0
  6
CONTINUOUS
 62
     7
 10
-126.91056
 20
400.66278
 11
-126.91056
 21
390
  0
LINE
  8
0
  6
CONTINUOUS
 62
     7
 10
-140.42201
 20
399.078
 11
-140.42201
 21
390
  0
LINE
  8
0
  6
CONTINUOUS
 62
     7
 10
-125
 20
377.17499
 11
-125
 21
402.82501
  0
LINE
  8
0
  6
CONTINUOUS
 62
     7
 10
-126.91056
 20
379.33722
 11
-126.91056
 21
390
  0
LINE
  8
0
  6
CONTINUOUS
 62
     7
 10
-123.83889
 20
375.16388
 11
-120
 21
375.16388
  0
LINE
  8
0
  6
CONTINUOUS
 62
     7
 10
-141
 20
381.5
 11
-141
 21
390
  0
LINE
  8
0
  6
CONTINUOUS
 62
     7
 10
-125
 20
377.17499
 11
-123.83888
 21
375.16388
  0
LINE
  8
0
  6
CONTINUOUS
 62
     7
 10
-140.42201
 20
380.922
 11
-126.91055
 21
380.49976
  0
LINE
  8
0
  6
CONTINUOUS
 62
     7
 10
-140.42201
 20
380.922
 11
-140.42201
 21
390
  0
LINE
  8
0
  6
CONTINUOUS
 62
     7
 10
-139.22194
 20
379.72195
 11
-125.71049
 21
379.29971
  0
LINE
  8
0
  6
CONTINUOUS
 62
     7
 10
-126.91055
 20
380.49976
 11
-124.99999
 21
378.5892
  0
LINE
  8
0
  6
CONTINUOUS
 62
     7
 10
-141
 20
381.5
 11
-139.22194
 21
379.72192
  0
LINE
  8
0
  6
CONTINUOUS
 62
     7
 10
-139.22194
 20
400.27808
 11
-139.22194
 21
379.72192
  0
LINE
  8
0
  6
CENTER
 62
     7
 10
170.70355
 20
390
 11
202.9817
 21
390
  0
LINE
  8
0
  6
CONTINUOUS
 62
     7
 10
194.69701
 20
411.9393
 11
200
 21
411.9393
  0
LINE
  8
0
  6
CONTINUOUS
 62
     7
 10
194.69701
 20
400.96967
 11
200
 21
400.96967
  0
LINE
  8
0
  6
CONTINUOUS
 62
     7
 10
200
 20
411.9393
 11
200
 21
368.0607
  0
LINE
  8
0
  6
CONTINUOUS
 62
     7
 10
193
 20
409
 11
193
 21
390
  0
LINE
  8
0
  6
CONTINUOUS
 62
     7
 10
175.37399
 20
406.37402
 11
192.23311
 21
406.90085
  0
LINE
  8
0
  6
CONTINUOUS
 62
     7
 10
173.84654
 20
404.84656
 11
190.64929
 21
405.37164
  0
LINE
  8
0
  6
CONTINUOUS
 62
     7
 10
194.69701
 20
379.03033
 11
200
 21
379.03033
  0
LINE
  8
0
  6
CONTINUOUS
 62
     7
 10
193
 20
409
 11
194.69702
 21
411.9393
  0
LINE
  8
0
  6
CONTINUOUS
 62
     7
 10
193.00002
 20
407.6413
 11
190.64929
 21
405.37164
  0
LINE
  8
0
  6
CONTINUOUS
 62
     7
 10
190.64928
 20
406.85135
 11
190.64928
 21
390
  0
LINE
  8
0
  6
CONTINUOUS
 62
     7
 10
173
 20
404
 11
173
 21
390
  0
LINE
  8
0
  6
CONTINUOUS
 62
     7
 10
173.00002
 20
404
 11
175.37401
 21
406.37399
  0
LINE
  8
0
  6
CONTINUOUS
 62
     7
 10
175.37399
 20
406.37399
 11
175.37399
 21
390
  0
LINE
  8
0
  6
CONTINUOUS
 62
     7
 10
173.84654
 20
404.84656
 11
173.84654
 21
390
  0
LINE
  8
0
  6
CONTINUOUS
 62
     7
 10
173.84654
 20
375.15344
 11
190.64929
 21
374.62836
  0
LINE
  8
0
  6
CONTINUOUS
 62
     7
 10
194.69701
 20
368.0607
 11
200
 21
368.0607
  0
LINE
  8
0
  6
CONTINUOUS
 62
     7
 10
175.37399
 20
373.62601
 11
175.37399
 21
390
  0
LINE
  8
0
  6
CONTINUOUS
 62
     7
 10
193
 20
371
 11
193
 21
390
  0
LINE
  8
0
  6
CONTINUOUS
 62
     7
 10
194.69701
 20
379.03033
 11
200
 21
379.03033
  0
LINE
  8
0
  6
CONTINUOUS
 62
     7
 10
190.64928
 20
373.14865
 11
190.64928
 21
390
  0
LINE
  8
0
  6
CONTINUOUS
 62
     7
 10
175.37399
 20
373.62598
 11
192.23311
 21
373.09915
  0
LINE
  8
0
  6
CONTINUOUS
 62
     7
 10
193
 20
371
 11
194.69702
 21
368.0607
  0
LINE
  8
0
  6
CONTINUOUS
 62
     7
 10
173
 20
376
 11
175.37399
 21
373.62601
  0
LINE
  8
0
  6
CONTINUOUS
 62
     7
 10
173
 20
376
 11
173
 21
390
  0
LINE
  8
0
  6
CONTINUOUS
 62
     7
 10
173.84654
 20
375.15344
 11
173.84654
 21
390
  0
LINE
  8
0
  6
CONTINUOUS
 62
     7
 10
192.99998
 20
372.3587
 11
190.64926
 21
374.62836
  0
LINE
  8
0
  6
CENTER
 62
     7
 10
120.70355
 20
390
 11
152.9817
 21
390
  0
LINE
  8
0
  6
CONTINUOUS
 62
     7
 10
144.69701
 20
411.9393
 11
150
 21
411.9393
  0
LINE
  8
0
  6
CONTINUOUS
 62
     7
 10
144.69701
 20
400.96967
 11
150
 21
400.96967
  0
LINE
  8
0
  6
CONTINUOUS
 62
     7
 10
150
 20
411.9393
 11
150
 21
368.0607
  0
LINE
  8
0
  6
CONTINUOUS
 62
     7
 10
143
 20
409
 11
143
 21
390
  0
LINE
  8
0
  6
CONTINUOUS
 62
     7
 10
125.374
 20
406.37402
 11
142.23311
 21
406.90085
  0
LINE
  8
0
  6
CONTINUOUS
 62
     7
 10
123.84655
 20
404.84656
 11
140.64928
 21
405.37164
  0
LINE
  8
0
  6
CONTINUOUS
 62
     7
 10
144.69701
 20
379.03033
 11
150
 21
379.03033
  0
LINE
  8
0
  6
CONTINUOUS
 62
     7
 10
143
 20
409
 11
144.69702
 21
411.93933
  0
LINE
  8
0
  6
CONTINUOUS
 62
     7
 10
143
 20
407.6413
 11
140.64928
 21
405.37161
  0
LINE
  8
0
  6
CONTINUOUS
 62
     7
 10
140.64928
 20
406.85135
 11
140.64928
 21
390
  0
LINE
  8
0
  6
CONTINUOUS
 62
     7
 10
123
 20
404
 11
123
 21
390
  0
LINE
  8
0
  6
CONTINUOUS
 62
     7
 10
123
 20
404
 11
125.37401
 21
406.37402
  0
LINE
  8
0
  6
CONTINUOUS
 62
     7
 10
125.374
 20
406.37399
 11
125.374
 21
390
  0
LINE
  8
0
  6
CONTINUOUS
 62
     7
 10
123.84654
 20
404.84656
 11
123.84654
 21
390
  0
LINE
  8
0
  6
CONTINUOUS
 62
     7
 10
123.84655
 20
375.15344
 11
140.64928
 21
374.62836
  0
LINE
  8
0
  6
CONTINUOUS
 62
     7
 10
144.69701
 20
368.0607
 11
150
 21
368.0607
  0
LINE
  8
0
  6
CONTINUOUS
 62
     7
 10
125.374
 20
373.62601
 11
125.374
 21
390
  0
LINE
  8
0
  6
CONTINUOUS
 62
     7
 10
143
 20
371
 11
143
 21
390
  0
LINE
  8
0
  6
CONTINUOUS
 62
     7
 10
144.69701
 20
379.03033
 11
150
 21
379.03033
  0
LINE
  8
0
  6
CONTINUOUS
 62
     7
 10
140.64928
 20
373.14865
 11
140.64928
 21
390
  0
LINE
  8
0
  6
CONTINUOUS
 62
     7
 10
125.374
 20
373.62598
 11
142.23311
 21
373.09915
  0
LINE
  8
0
  6
CONTINUOUS
 62
     7
 10
143
 20
371
 11
144.69702
 21
368.0607
  0
LINE
  8
0
  6
CONTINUOUS
 62
     7
 10
122.99998
 20
376
 11
125.37399
 21
373.62601
  0
LINE
  8
0
  6
CONTINUOUS
 62
     7
 10
123
 20
376
 11
123
 21
390
  0
LINE
  8
0
  6
CONTINUOUS
 62
     7
 10
123.84654
 20
375.15344
 11
123.84654
 21
390
  0
LINE
  8
0
  6
CONTINUOUS
 62
     7
 10
143
 20
372.3587
 11
140.64928
 21
374.62839
  0
LINE
  8
0
  6
CENTER
 62
     7
 10
70.703552
 20
390
 11
102.9817
 21
390
  0
LINE
  8
0
  6
CONTINUOUS
 62
     7
 10
94.697014
 20
411.9393
 11
100
 21
411.9393
  0
LINE
  8
0
  6
CONTINUOUS
 62
     7
 10
94.697014
 20
400.96967
 11
100
 21
400.96967
  0
LINE
  8
0
  6
CONTINUOUS
 62
     7
 10
100
 20
411.9393
 11
100
 21
368.0607
  0
LINE
  8
0
  6
CONTINUOUS
 62
     7
 10
93
 20
409
 11
93
 21
390
  0
LINE
  8
0
  6
CONTINUOUS
 62
     7
 10
75.374001
 20
406.37402
 11
92.233109
 21
406.90085
  0
LINE
  8
0
  6
CONTINUOUS
 62
     7
 10
73.846542
 20
404.84656
 11
90.649284
 21
405.37164
  0
LINE
  8
0
  6
CONTINUOUS
 62
     7
 10
94.697014
 20
379.03033
 11
100
 21
379.03033
  0
LINE
  8
0
  6
CONTINUOUS
 62
     7
 10
92.999992
 20
409
 11
94.697014
 21
411.93933
  0
LINE
  8
0
  6
CONTINUOUS
 62
     7
 10
93.000015
 20
407.6413
 11
90.649292
 21
405.37161
  0
LINE
  8
0
  6
CONTINUOUS
 62
     7
 10
90.649277
 20
406.85135
 11
90.649277
 21
390
  0
LINE
  8
0
  6
CONTINUOUS
 62
     7
 10
73
 20
404
 11
73
 21
390
  0
LINE
  8
0
  6
CONTINUOUS
 62
     7
 10
73
 20
404
 11
75.374008
 21
406.37399
  0
LINE
  8
0
  6
CONTINUOUS
 62
     7
 10
75.374001
 20
406.37399
 11
75.374001
 21
390
  0
LINE
  8
0
  6
CONTINUOUS
 62
     7
 10
73.846542
 20
404.84656
 11
73.846542
 21
390
  0
LINE
  8
0
  6
CONTINUOUS
 62
     7
 10
73.846542
 20
375.15344
 11
90.649277
 21
374.62836
  0
LINE
  8
0
  6
CONTINUOUS
 62
     7
 10
94.697014
 20
368.0607
 11
100
 21
368.0607
  0
LINE
  8
0
  6
CONTINUOUS
 62
     7
 10
75.374001
 20
373.62601
 11
75.374001
 21
390
  0
LINE
  8
0
  6
CONTINUOUS
 62
     7
 10
93
 20
371
 11
93
 21
390
  0
LINE
  8
0
  6
CONTINUOUS
 62
     7
 10
94.697014
 20
379.03033
 11
100
 21
379.03033
  0
LINE
  8
0
  6
CONTINUOUS
 62
     7
 10
90.649277
 20
373.14865
 11
90.649277
 21
390
  0
LINE
  8
0
  6
CONTINUOUS
 62
     7
 10
75.374001
 20
373.62598
 11
92.233109
 21
373.09915
  0
LINE
  8
0
  6
CONTINUOUS
 62
     7
 10
93.000015
 20
371
 11
94.697021
 21
368.0607
  0
LINE
  8
0
  6
CONTINUOUS
 62
     7
 10
73.000008
 20
376
 11
75.374008
 21
373.62601
  0
LINE
  8
0
  6
CONTINUOUS
 62
     7
 10
73
 20
376
 11
73
 21
390
  0
LINE
  8
0
  6
CONTINUOUS
 62
     7
 10
73.846542
 20
375.15344
 11
73.846542
 21
390
  0
LINE
  8
0
  6
CONTINUOUS
 62
     7
 10
92.999992
 20
372.3587
 11
90.649269
 21
374.62836
  0
LINE
  8
0
  6
CENTER
 62
     7
 10
20.703548
 20
390
 11
52.981697
 21
390
  0
LINE
  8
0
  6
CONTINUOUS
 62
     7
 10
44.69701
 20
411.9393
 11
50
 21
411.9393
  0
LINE
  8
0
  6
CONTINUOUS
 62
     7
 10
44.69701
 20
400.96967
 11
50
 21
400.96967
  0
LINE
  8
0
  6
CONTINUOUS
 62
     7
 10
50
 20
411.9393
 11
50
 21
368.0607
  0
LINE
  8
0
  6
CONTINUOUS
 62
     7
 10
43
 20
409
 11
43
 21
390
  0
LINE
  8
0
  6
CONTINUOUS
 62
     7
 10
25.374001
 20
406.37402
 11
42.233112
 21
406.90085
  0
LINE
  8
0
  6
CONTINUOUS
 62
     7
 10
23.846544
 20
404.84656
 11
40.649277
 21
405.37164
  0
LINE
  8
0
  6
CONTINUOUS
 62
     7
 10
44.69701
 20
379.03033
 11
50
 21
379.03033
  0
LINE
  8
0
  6
CONTINUOUS
 62
     7
 10
42.999992
 20
409
 11
44.697014
 21
411.93933
  0
LINE
  8
0
  6
CONTINUOUS
 62
     7
 10
43.000027
 20
407.6413
 11
40.649303
 21
405.37164
  0
LINE
  8
0
  6
CONTINUOUS
 62
     7
 10
40.649281
 20
406.85135
 11
40.649281
 21
390
  0
LINE
  8
0
  6
CONTINUOUS
 62
     7
 10
23
 20
404
 11
23
 21
390
  0
LINE
  8
0
  6
CONTINUOUS
 62
     7
 10
23.000021
 20
404
 11
25.374012
 21
406.37399
  0
LINE
  8
0
  6
CONTINUOUS
 62
     7
 10
25.374001
 20
406.37399
 11
25.374001
 21
390
  0
LINE
  8
0
  6
CONTINUOUS
 62
     7
 10
23.846544
 20
404.84656
 11
23.846544
 21
390
  0
LINE
  8
0
  6
CONTINUOUS
 62
     7
 10
23.846544
 20
375.15344
 11
40.649277
 21
374.62836
  0
LINE
  8
0
  6
CONTINUOUS
 62
     7
 10
44.69701
 20
368.0607
 11
50
 21
368.0607
  0
LINE
  8
0
  6
CONTINUOUS
 62
     7
 10
25.374001
 20
373.62601
 11
25.374001
 21
390
  0
LINE
  8
0
  6
CONTINUOUS
 62
     7
 10
43
 20
371
 11
43
 21
390
  0
LINE
  8
0
  6
CONTINUOUS
 62
     7
 10
44.69701
 20
379.03033
 11
50
 21
379.03033
  0
LINE
  8
0
  6
CONTINUOUS
 62
     7
 10
40.649281
 20
373.14865
 11
40.649281
 21
390
  0
LINE
  8
0
  6
CONTINUOUS
 62
     7
 10
25.374001
 20
373.62598
 11
42.233112
 21
373.09915
  0
LINE
  8
0
  6
CONTINUOUS
 62
     7
 10
43.000004
 20
371
 11
44.69701
 21
368.0607
  0
LINE
  8
0
  6
CONTINUOUS
 62
     7
 10
22.999998
 20
376
 11
25.374001
 21
373.62601
  0
LINE
  8
0
  6
CONTINUOUS
 62
     7
 10
23
 20
376
 11
23
 21
390
  0
LINE
  8
0
  6
CONTINUOUS
 62
     7
 10
23.846544
 20
375.15344
 11
23.846544
 21
390
  0
LINE
  8
0
  6
CONTINUOUS
 62
     7
 10
42.999981
 20
372.3587
 11
40.649258
 21
374.62836
  0
LINE
  8
0
  6
CENTER
 62
     7
 10
-26.269258
 20
390
 11
2.6998007
 21
390
  0
LINE
  8
0
  6
CONTINUOUS
 62
     7
 10
-6.5709376
 20
408.47522
 11
0
 21
408.47522
  0
LINE
  8
0
  6
CONTINUOUS
 62
     7
 10
-6.5709376
 20
399.23761
 11
0
 21
399.23761
  0
LINE
  8
0
  6
CONTINUOUS
 62
     7
 10
0
 20
408.47522
 11
0
 21
390
  0
LINE
  8
0
  6
CONTINUOUS
 62
     7
 10
-24
 20
400.70001
 11
-24
 21
390
  0
LINE
  8
0
  6
CONTINUOUS
 62
     7
 10
-8
 20
406
 11
-8
 21
390
  0
LINE
  8
0
  6
CONTINUOUS
 62
     7
 10
-7.9999957
 20
406
 11
-6.5709338
 21
408.47522
  0
LINE
  8
0
  6
CONTINUOUS
 62
     7
 10
-23.999987
 20
400.70001
 11
-21.705603
 21
402.99438
  0
LINE
  8
0
  6
CONTINUOUS
 62
     7
 10
-21.705612
 20
402.99438
 11
-8.8314371
 21
403.39673
  0
LINE
  8
0
  6
CONTINUOUS
 62
     7
 10
-22.905096
 20
401.79492
 11
-9.9326735
 21
402.20029
  0
LINE
  8
0
  6
CONTINUOUS
 62
     7
 10
-22.905096
 20
401.79489
 11
-22.905096
 21
390
  0
LINE
  8
0
  6
CONTINUOUS
 62
     7
 10
-21.705612
 20
402.99438
 11
-21.705612
 21
390
  0
LINE
  8
0
  6
CONTINUOUS
 62
     7
 10
-7.9999933
 20
404.29999
 11
-9.9326601
 21
402.20029
  0
LINE
  8
0
  6
CONTINUOUS
 62
     7
 10
-9.9326735
 20
403.3623
 11
-9.9326735
 21
390
  0
LINE
  8
0
  6
CONTINUOUS
 62
     7
 10
-22.905096
 20
378.20508
 11
-9.9326744
 21
377.79968
  0
LINE
  8
0
  6
CONTINUOUS
 62
     7
 10
-23.999998
 20
379.29999
 11
-21.705614
 21
377.00562
  0
LINE
  8
0
  6
CONTINUOUS
 62
     7
 10
-9.9326735
 20
376.6377
 11
-9.9326735
 21
390
  0
LINE
  8
0
  6
CONTINUOUS
 62
     7
 10
-21.705612
 20
377.00562
 11
-8.8314371
 21
376.6033
  0
LINE
  8
0
  6
CONTINUOUS
 62
     7
 10
-8.0000067
 20
375.70001
 11
-9.9326735
 21
377.79971
  0
LINE
  8
0
  6
CONTINUOUS
 62
     7
 10
-8.0000029
 20
374
 11
-6.570941
 21
371.52478
  0
LINE
  8
0
  6
CONTINUOUS
 62
     7
 10
-22.905096
 20
378.20511
 11
-22.905096
 21
390
  0
LINE
  8
0
  6
CONTINUOUS
 62
     7
 10
0
 20
371.52478
 11
0
 21
390
  0
LINE
  8
0
  6
CONTINUOUS
 62
     7
 10
-6.5709376
 20
380.76239
 11
0
 21
380.76239
  0
LINE
  8
0
  6
CONTINUOUS
 62
     7
 10
-24
 20
379.29999
 11
-24
 21
390
  0
LINE
  8
0
  6
CONTINUOUS
 62
     7
 10
-8
 20
374
 11
-8
 21
390
  0
LINE
  8
0
  6
CONTINUOUS
 62
     7
 10
-21.705612
 20
377.00562
 11
-21.705612
 21
390
  0
LINE
  8
0
  6
CONTINUOUS
 62
     7
 10
-6.5709376
 20
371.52478
 11
0
 21
371.52478
  0
LINE
  8
0
  6
CENTER
 62
     7
 10
-26.269258
 20
390
 11
2.6998007
 21
390
  0
LINE
  8
0
  6
CENTER
 62
     7
 10
-66.269257
 20
390
 11
-37.300198
 21
390
  0
LINE
  8
0
  6
CONTINUOUS
 62
     7
 10
-46.570938
 20
408.47522
 11
-40
 21
408.47522
  0
LINE
  8
0
  6
CONTINUOUS
 62
     7
 10
-46.570938
 20
399.23761
 11
-40
 21
399.23761
  0
LINE
  8
0
  6
CONTINUOUS
 62
     7
 10
-40
 20
408.47522
 11
-40
 21
390
  0
LINE
  8
0
  6
CONTINUOUS
 62
     7
 10
-64
 20
400.70001
 11
-64
 21
390
  0
LINE
  8
0
  6
CONTINUOUS
 62
     7
 10
-48
 20
406
 11
-48
 21
390
  0
LINE
  8
0
  6
CONTINUOUS
 62
     7
 10
-47.999989
 20
406
 11
-46.570927
 21
408.47522
  0
LINE
  8
0
  6
CONTINUOUS
 62
     7
 10
-64
 20
400.70001
 11
-61.705612
 21
402.99438
  0
LINE
  8
0
  6
CONTINUOUS
 62
     7
 10
-61.705612
 20
402.99438
 11
-48.831436
 21
403.39673
  0
LINE
  8
0
  6
CONTINUOUS
 62
     7
 10
-62.905098
 20
401.79492
 11
-49.932674
 21
402.20029
  0
LINE
  8
0
  6
CONTINUOUS
 62
     7
 10
-62.905098
 20
401.79489
 11
-62.905098
 21
390
  0
LINE
  8
0
  6
CONTINUOUS
 62
     7
 10
-61.705612
 20
402.99438
 11
-61.705612
 21
390
  0
LINE
  8
0
  6
CONTINUOUS
 62
     7
 10
-48
 20
404.29999
 11
-49.932667
 21
402.20029
  0
LINE
  8
0
  6
CONTINUOUS
 62
     7
 10
-49.932674
 20
403.3623
 11
-49.932674
 21
390
  0
LINE
  8
0
  6
CONTINUOUS
 62
     7
 10
-62.905102
 20
378.20508
 11
-49.932674
 21
377.79968
  0
LINE
  8
0
  6
CONTINUOUS
 62
     7
 10
-64
 20
379.29999
 11
-61.705612
 21
377.00562
  0
LINE
  8
0
  6
CONTINUOUS
 62
     7
 10
-49.932674
 20
376.6377
 11
-49.932674
 21
390
  0
LINE
  8
0
  6
CONTINUOUS
 62
     7
 10
-61.705612
 20
377.00562
 11
-48.831436
 21
376.6033
  0
LINE
  8
0
  6
CONTINUOUS
 62
     7
 10
-48.000011
 20
375.70001
 11
-49.932678
 21
377.79971
  0
LINE
  8
0
  6
CONTINUOUS
 62
     7
 10
-47.999996
 20
374
 11
-46.570934
 21
371.52478
  0
LINE
  8
0
  6
CONTINUOUS
 62
     7
 10
-62.905098
 20
378.20511
 11
-62.905098
 21
390
  0
LINE
  8
0
  6
CONTINUOUS
 62
     7
 10
-40
 20
371.52478
 11
-40
 21
390
  0
LINE
  8
0
  6
CONTINUOUS
 62
     7
 10
-46.570938
 20
380.76239
 11
-40
 21
380.76239
  0
LINE
  8
0
  6
CONTINUOUS
 62
     7
 10
-64
 20
379.29999
 11
-64
 21
390
  0
LINE
  8
0
  6
CONTINUOUS
 62
     7
 10
-48
 20
374
 11
-48
 21
390
  0
LINE
  8
0
  6
CONTINUOUS
 62
     7
 10
-61.705612
 20
377.00562
 11
-61.705612
 21
390
  0
LINE
  8
0
  6
CONTINUOUS
 62
     7
 10
-46.570938
 20
371.52478
 11
-40
 21
371.52478
  0
LINE
  8
0
  6
CENTER
 62
     7
 10
-66.269257
 20
390
 11
-37.300198
 21
390
  0
LINE
  8
0
  6
CENTER
 62
     7
 10
-106.26926
 20
390
 11
-77.300201
 21
390
  0
LINE
  8
0
  6
CONTINUOUS
 62
     7
 10
-86.570938
 20
408.47522
 11
-80
 21
408.47522
  0
LINE
  8
0
  6
CONTINUOUS
 62
     7
 10
-86.570938
 20
399.23761
 11
-80
 21
399.23761
  0
LINE
  8
0
  6
CONTINUOUS
 62
     7
 10
-80
 20
408.47522
 11
-80
 21
390
  0
LINE
  8
0
  6
CONTINUOUS
 62
     7
 10
-104
 20
400.70001
 11
-104
 21
390
  0
LINE
  8
0
  6
CONTINUOUS
 62
     7
 10
-88
 20
406
 11
-88
 21
390
  0
LINE
  8
0
  6
CONTINUOUS
 62
     7
 10
-87.999992
 20
406
 11
-86.57093
 21
408.47522
  0
LINE
  8
0
  6
CONTINUOUS
 62
     7
 10
-104
 20
400.70001
 11
-101.70561
 21
402.99438
  0
LINE
  8
0
  6
CONTINUOUS
 62
     7
 10
-101.70561
 20
402.99438
 11
-88.831436
 21
403.39673
  0
LINE
  8
0
  6
CONTINUOUS
 62
     7
 10
-102.90509
 20
401.79492
 11
-89.932671
 21
402.20029
  0
LINE
  8
0
  6
CONTINUOUS
 62
     7
 10
-102.9051
 20
401.79489
 11
-102.9051
 21
390
  0
LINE
  8
0
  6
CONTINUOUS
 62
     7
 10
-101.70561
 20
402.99438
 11
-101.70561
 21
390
  0
LINE
  8
0
  6
CONTINUOUS
 62
     7
 10
-87.999992
 20
404.30002
 11
-89.932671
 21
402.20029
  0
LINE
  8
0
  6
CONTINUOUS
 62
     7
 10
-89.932671
 20
403.3623
 11
-89.932671
 21
390
  0
LINE
  8
0
  6
CONTINUOUS
 62
     7
 10
-102.90509
 20
378.20508
 11
-89.932678
 21
377.79968
  0
LINE
  8
0
  6
CONTINUOUS
 62
     7
 10
-104
 20
379.29999
 11
-101.70561
 21
377.00562
  0
LINE
  8
0
  6
CONTINUOUS
 62
     7
 10
-89.932671
 20
376.6377
 11
-89.932671
 21
390
  0
LINE
  8
0
  6
CONTINUOUS
 62
     7
 10
-101.70561
 20
377.00562
 11
-88.831436
 21
376.6033
  0
LINE
  8
0
  6
CONTINUOUS
 62
     7
 10
-88.000015
 20
375.70001
 11
-89.932686
 21
377.79971
  0
LINE
  8
0
  6
CONTINUOUS
 62
     7
 10
-88
 20
374
 11
-86.570938
 21
371.52478
  0
LINE
  8
0
  6
CONTINUOUS
 62
     7
 10
-102.9051
 20
378.20511
 11
-102.9051
 21
390
  0
LINE
  8
0
  6
CONTINUOUS
 62
     7
 10
-80
 20
371.52478
 11
-80
 21
390
  0
LINE
  8
0
  6
CONTINUOUS
 62
     7
 10
-86.570938
 20
380.76239
 11
-80
 21
380.76239
  0
LINE
  8
0
  6
CONTINUOUS
 62
     7
 10
-104
 20
379.29999
 11
-104
 21
390
  0
LINE
  8
0
  6
CONTINUOUS
 62
     7
 10
-88
 20
374
 11
-88
 21
390
  0
LINE
  8
0
  6
CONTINUOUS
 62
     7
 10
-101.70561
 20
377.00562
 11
-101.70561
 21
390
  0
LINE
  8
0
  6
CONTINUOUS
 62
     7
 10
-86.570938
 20
371.52478
 11
-80
 21
371.52478
  0
LINE
  8
0
  6
CENTER
 62
     7
 10
-106.26926
 20
390
 11
-77.300201
 21
390
  0
LINE
  8
0
  6
CENTER
 62
     7
 10
-184.32675
 20
390
 11
-157.09039
 21
390
  0
LINE
  8
0
  6
CONTINUOUS
 62
     7
 10
-165
 20
402.82501
 11
-165
 21
377.17499
  0
LINE
  8
0
  6
CONTINUOUS
 62
     7
 10
-163.83888
 20
404.83612
 11
-160
 21
404.83612
  0
LINE
  8
0
  6
CONTINUOUS
 62
     7
 10
-163.83888
 20
397.33057
 11
-160
 21
397.33057
  0
LINE
  8
0
  6
CONTINUOUS
 62
     7
 10
-160
 20
404.83612
 11
-160
 21
375.16388
  0
LINE
  8
0
  6
CONTINUOUS
 62
     7
 10
-165
 20
402.82501
 11
-163.83888
 21
404.83612
  0
LINE
  8
0
  6
CONTINUOUS
 62
     7
 10
-163.83888
 20
382.31946
 11
-160
 21
382.31946
  0
LINE
  8
0
  6
CONTINUOUS
 62
     7
 10
-181
 20
398.5
 11
-181
 21
390
  0
LINE
  8
0
  6
CONTINUOUS
 62
     7
 10
-179.22194
 20
400.27808
 11
-165.71048
 21
400.70032
  0
LINE
  8
0
  6
CONTINUOUS
 62
     7
 10
-180.42201
 20
399.078
 11
-166.91055
 21
399.50021
  0
LINE
  8
0
  6
CONTINUOUS
 62
     7
 10
-180.99998
 20
398.5
 11
-179.22192
 21
400.27805
  0
LINE
  8
0
  6
CONTINUOUS
 62
     7
 10
-166.91057
 20
399.50021
 11
-165
 21
401.4108
  0
LINE
  8
0
  6
CONTINUOUS
 62
     7
 10
-166.91055
 20
400.66278
 11
-166.91055
 21
390
  0
LINE
  8
0
  6
CONTINUOUS
 62
     7
 10
-180.42201
 20
399.078
 11
-180.42201
 21
390
  0
LINE
  8
0
  6
CONTINUOUS
 62
     7
 10
-165
 20
377.17499
 11
-165
 21
402.82501
  0
LINE
  8
0
  6
CONTINUOUS
 62
     7
 10
-166.91055
 20
379.33722
 11
-166.91055
 21
390
  0
LINE
  8
0
  6
CONTINUOUS
 62
     7
 10
-163.83888
 20
375.16388
 11
-160
 21
375.16388
  0
LINE
  8
0
  6
CONTINUOUS
 62
     7
 10
-181
 20
381.5
 11
-181
 21
390
  0
LINE
  8
0
  6
CONTINUOUS
 62
     7
 10
-165
 20
377.17499
 11
-163.83888
 21
375.16388
  0
LINE
  8
0
  6
CONTINUOUS
 62
     7
 10
-180.42201
 20
380.922
 11
-166.91055
 21
380.49976
  0
LINE
  8
0
  6
CONTINUOUS
 62
     7
 10
-180.42201
 20
380.922
 11
-180.42201
 21
390
  0
LINE
  8
0
  6
CONTINUOUS
 62
     7
 10
-179.22194
 20
379.72195
 11
-165.71048
 21
379.29971
  0
LINE
  8
0
  6
CONTINUOUS
 62
     7
 10
-166.91055
 20
380.49976
 11
-165
 21
378.5892
  0
LINE
  8
0
  6
CONTINUOUS
 62
     7
 10
-181
 20
381.5
 11
-179.22194
 21
379.72192
  0
LINE
  8
0
  6
CONTINUOUS
 62
     7
 10
-179.22194
 20
400.27808
 11
-179.22194
 21
379.72192
  0
LINE
  8
0
  6
CONTINUOUS
 62
     7
 10
-200
 20
402.29935
 11
-200
 21
378.05066
  0
LINE
  8
0
  6
CONTINUOUS
 62
     7
 10
-200
 20
402.29935
 11
-200
 21
378.05066
  0
LINE
  8
0
  6
CENTER
 62
     7
 10
-219.32675
 20
390
 11
-197.70491
 21
390
  0
LINE
  8
0
  6
CONTINUOUS
 62
     7
 10
-204.06218
 20
402.29935
 11
-200
 21
402.29935
  0
LINE
  8
0
  6
CONTINUOUS
 62
     7
 10
-204.06218
 20
378.05066
 11
-200
 21
378.05066
  0
LINE
  8
0
  6
CONTINUOUS
 62
     7
 10
-204.06218
 20
396.23718
 11
-200
 21
396.23718
  0
LINE
  8
0
  6
CONTINUOUS
 62
     7
 10
-204.06218
 20
384.11282
 11
-200
 21
384.11282
  0
LINE
  8
0
  6
CONTINUOUS
 62
     7
 10
-205
 20
400.67499
 11
-205
 21
379.67499
  0
LINE
  8
0
  6
CONTINUOUS
 62
     7
 10
-218
 20
383.60001
 11
-218
 21
390
  0
LINE
  8
0
  6
CONTINUOUS
 62
     7
 10
-216.21155
 20
381.81155
 11
-206.05466
 21
381.49414
  0
LINE
  8
0
  6
CONTINUOUS
 62
     7
 10
-218
 20
383.60001
 11
-216.21155
 21
381.81155
  0
LINE
  8
0
  6
CONTINUOUS
 62
     7
 10
-217.0956
 20
382.69559
 11
-207.11028
 21
382.38354
  0
LINE
  8
0
  6
CONTINUOUS
 62
     7
 10
-217.0956
 20
382.69559
 11
-217.0956
 21
390
  0
LINE
  8
0
  6
CONTINUOUS
 62
     7
 10
-216.21155
 20
381.81155
 11
-216.21155
 21
390
  0
LINE
  8
0
  6
CONTINUOUS
 62
     7
 10
-205
 20
400.67502
 11
-204.06218
 21
402.29935
  0
LINE
  8
0
  6
CONTINUOUS
 62
     7
 10
-205
 20
379.67499
 11
-204.06218
 21
378.05066
  0
LINE
  8
0
  6
CONTINUOUS
 62
     7
 10
-204.97325
 20
397.68323
 11
-205
 21
397.70996
  0
LINE
  8
0
  6
CONTINUOUS
 62
     7
 10
-207.11028
 20
382.38354
 11
-205
 21
380.57474
  0
LINE
  8
0
  6
CONTINUOUS
 62
     7
 10
-218
 20
396.39999
 11
-216.21155
 21
398.18845
  0
LINE
  8
0
  6
CONTINUOUS
 62
     7
 10
-218
 20
396.39999
 11
-218
 21
390
  0
LINE
  8
0
  6
CONTINUOUS
 62
     7
 10
-216.21155
 20
398.18845
 11
-206.05466
 21
398.50583
  0
LINE
  8
0
  6
CONTINUOUS
 62
     7
 10
-216.21155
 20
398.18845
 11
-216.21155
 21
390
  0
LINE
  8
0
  6
CONTINUOUS
 62
     7
 10
-217.0956
 20
397.30441
 11
-217.0956
 21
390
  0
LINE
  8
0
  6
CONTINUOUS
 62
     7
 10
-217.0956
 20
397.30441
 11
-207.11028
 21
397.61646
  0
LINE
  8
0
  6
CONTINUOUS
 62
     7
 10
-207.11026
 20
397.61646
 11
-205
 21
399.42526
  0
LINE
  8
0
  6
CONTINUOUS
 62
     7
 10
-207.11028
 20
398.47287
 11
-207.11028
 21
381.52713
  0
LINE
  8
0
  6
CONTINUOUS
 62
     7
 10
-218
 20
396.39999
 11
-216.21155
 21
398.18845
  0
LINE
  8
0
  6
CENTER
 62
     7
 10
-216.36388
 20
300
 11
-178.0961
 21
300
  0
LINE
  8
0
  6
CONTINUOUS
 62
     7
 10
-183
 20
326.55811
 11
-183
 21
286.72095
  0
LINE
  8
0
  6
CONTINUOUS
 62
     7
 10
-213
 20
317.79999
 11
-213
 21
300
  0
LINE
  8
0
  6
CONTINUOUS
 62
     7
 10
-191
 20
323
 11
-191
 21
300
  0
LINE
  8
0
  6
CONTINUOUS
 62
     7
 10
-188.94572
 20
326.55811
 11
-183
 21
326.55811
  0
LINE
  8
0
  6
CONTINUOUS
 62
     7
 10
-188.94572
 20
313.27905
 11
-183
 21
313.27905
  0
LINE
  8
0
  6
CONTINUOUS
 62
     7
 10
-188.94572
 20
286.72095
 11
-183
 21
286.72095
  0
LINE
  8
0
  6
CONTINUOUS
 62
     7
 10
-191
 20
323
 11
-188.94572
 21
326.55811
  0
LINE
  8
0
  6
CONTINUOUS
 62
     7
 10
-213
 20
317.79999
 11
-210.15289
 21
320.64709
  0
LINE
  8
0
  6
CONTINUOUS
 62
     7
 10
-210.15291
 20
320.64709
 11
-192.15082
 21
321.20966
  0
LINE
  8
0
  6
CONTINUOUS
 62
     7
 10
-211.67961
 20
319.12039
 11
-194.14296
 21
319.66843
  0
LINE
  8
0
  6
CONTINUOUS
 62
     7
 10
-191
 20
322.09998
 11
-194.14296
 21
319.6684
  0
LINE
  8
0
  6
CONTINUOUS
 62
     7
 10
-211.67961
 20
319.12039
 11
-211.67961
 21
300
  0
LINE
  8
0
  6
CONTINUOUS
 62
     7
 10
-210.15291
 20
320.64709
 11
-210.15291
 21
300
  0
LINE
  8
0
  6
CONTINUOUS
 62
     7
 10
-194.14296
 20
321.1474
 11
-194.14296
 21
300
  0
LINE
  8
0
  6
CONTINUOUS
 62
     7
 10
-183
 20
273.44189
 11
-183
 21
313.27905
  0
LINE
  8
0
  6
CONTINUOUS
 62
     7
 10
-213
 20
282.20001
 11
-213
 21
300
  0
LINE
  8
0
  6
CONTINUOUS
 62
     7
 10
-191
 20
277
 11
-191
 21
300
  0
LINE
  8
0
  6
CONTINUOUS
 62
     7
 10
-188.94572
 20
273.44189
 11
-183
 21
273.44189
  0
LINE
  8
0
  6
CONTINUOUS
 62
     7
 10
-211.67961
 20
280.87961
 11
-211.67961
 21
300
  0
LINE
  8
0
  6
CONTINUOUS
 62
     7
 10
-211.67961
 20
280.87961
 11
-194.14296
 21
280.33157
  0
LINE
  8
0
  6
CONTINUOUS
 62
     7
 10
-210.15291
 20
279.35291
 11
-192.15082
 21
278.79034
  0
LINE
  8
0
  6
CONTINUOUS
 62
     7
 10
-191
 20
277
 11
-188.94572
 21
273.44189
  0
LINE
  8
0
  6
CONTINUOUS
 62
     7
 10
-210.15291
 20
279.35291
 11
-210.15291
 21
300
  0
LINE
  8
0
  6
CONTINUOUS
 62
     7
 10
-191
 20
277.90002
 11
-194.14294
 21
280.3316
  0
LINE
  8
0
  6
CONTINUOUS
 62
     7
 10
-213
 20
282.19998
 11
-210.15291
 21
279.35291
  0
LINE
  8
0
  6
CONTINUOUS
 62
     7
 10
-194.14296
 20
278.8526
 11
-194.14296
 21
300
  0
LINE
  8
0
  6
CENTER
 62
     7
 10
-258.43149
 20
390
 11
-237.96635
 21
390
  0
LINE
  8
0
  6
CONTINUOUS
 62
     7
 10
-240
 20
399.81494
 11
-240
 21
380.18506
  0
LINE
  8
0
  6
CONTINUOUS
 62
     7
 10
-245
 20
398.5
 11
-245
 21
381.5
  0
LINE
  8
0
  6
CONTINUOUS
 62
     7
 10
-244.24081
 20
399.81494
 11
-240
 21
399.81494
  0
LINE
  8
0
  6
CONTINUOUS
 62
     7
 10
-244.24081
 20
380.18506
 11
-240
 21
380.18506
  0
LINE
  8
0
  6
CONTINUOUS
 62
     7
 10
-245
 20
398.5
 11
-244.24081
 21
399.81497
  0
LINE
  8
0
  6
CONTINUOUS
 62
     7
 10
-244.24081
 20
380.18503
 11
-245.00002
 21
381.5
  0
LINE
  8
0
  6
CONTINUOUS
 62
     7
 10
-257
 20
395.16666
 11
-257
 21
390
  0
LINE
  8
0
  6
CONTINUOUS
 62
     7
 10
-255.7365
 20
396.43018
 11
-245.758
 21
396.742
  0
LINE
  8
0
  6
CONTINUOUS
 62
     7
 10
-256.62012
 20
395.54654
 11
-246.64162
 21
395.85837
  0
LINE
  8
0
  6
CONTINUOUS
 62
     7
 10
-244.24081
 20
394.90747
 11
-240
 21
394.90747
  0
LINE
  8
0
  6
CONTINUOUS
 62
     7
 10
-244.24081
 20
385.09253
 11
-240
 21
385.09253
  0
LINE
  8
0
  6
CONTINUOUS
 62
     7
 10
-255.73648
 20
396.43015
 11
-257
 21
395.16666
  0
LINE
  8
0
  6
CONTINUOUS
 62
     7
 10
-255.7365
 20
396.43018
 11
-255.7365
 21
390
  0
LINE
  8
0
  6
CONTINUOUS
 62
     7
 10
-256.62012
 20
395.54657
 11
-256.62012
 21
390
  0
LINE
  8
0
  6
CONTINUOUS
 62
     7
 10
-245
 20
397.5
 11
-246.64162
 21
395.85837
  0
LINE
  8
0
  6
CONTINUOUS
 62
     7
 10
-246.64162
 20
396.71439
 11
-246.64162
 21
390
  0
LINE
  8
0
  6
CONTINUOUS
 62
     7
 10
-245
 20
382.5
 11
-246.64162
 21
384.1416
  0
LINE
  8
0
  6
CONTINUOUS
 62
     7
 10
-255.7365
 20
383.56982
 11
-257
 21
384.83331
  0
LINE
  8
0
  6
CONTINUOUS
 62
     7
 10
-256.62012
 20
384.45343
 11
-246.64162
 21
384.1416
  0
LINE
  8
0
  6
CONTINUOUS
 62
     7
 10
-255.73648
 20
383.56982
 11
-245.75798
 21
383.258
  0
LINE
  8
0
  6
CONTINUOUS
 62
     7
 10
-257
 20
384.83334
 11
-257
 21
390
  0
LINE
  8
0
  6
CONTINUOUS
 62
     7
 10
-255.7365
 20
383.56982
 11
-255.7365
 21
390
  0
LINE
  8
0
  6
CONTINUOUS
 62
     7
 10
-256.62012
 20
384.45343
 11
-256.62012
 21
390
  0
LINE
  8
0
  6
CONTINUOUS
 62
     7
 10
-246.64162
 20
383.28561
 11
-246.64162
 21
390
  0
LINE
  8
0
  6
CONTINUOUS
 62
     7
 10
-9.5884571
 20
331.17691
 11
-3
 21
331.17691
  0
LINE
  8
0
  6
CONTINUOUS
 62
     7
 10
-9.5884571
 20
315.58847
 11
-3
 21
315.58847
  0
LINE
  8
0
  6
CONTINUOUS
 62
     7
 10
-3
 20
331.17691
 11
-3
 21
300
  0
LINE
  8
0
  6
CONTINUOUS
 62
     7
 10
-35
 20
320.79999
 11
-35
 21
300
  0
LINE
  8
0
  6
CONTINUOUS
 62
     7
 10
-12
 20
327
 11
-12
 21
300
  0
LINE
  8
0
  6
CONTINUOUS
 62
     7
 10
-12
 20
327
 11
-12
 21
300
  0
LINE
  8
0
  6
CONTINUOUS
 62
     7
 10
-11.999996
 20
327
 11
-9.5884514
 21
331.17691
  0
LINE
  8
0
  6
CENTER
 62
     7
 10
-38.678394
 20
300
 11
1.5181814
 21
300
  0
LINE
  8
0
  6
CONTINUOUS
 62
     7
 10
-34.999992
 20
320.79999
 11
-32.208118
 21
323.59186
  0
LINE
  8
0
  6
CONTINUOUS
 62
     7
 10
-32.20813
 20
323.59189
 11
-12.773859
 21
324.19919
  0
LINE
  8
0
  6
CONTINUOUS
 62
     7
 10
-33.73484
 20
322.06519
 11
-14.079476
 21
322.67941
  0
LINE
  8
0
  6
CONTINUOUS
 62
     7
 10
-12.000009
 20
325.10001
 11
-14.079479
 21
322.67941
  0
LINE
  8
0
  6
CONTINUOUS
 62
     7
 10
-33.73484
 20
322.06516
 11
-33.73484
 21
300
  0
LINE
  8
0
  6
CONTINUOUS
 62
     7
 10
-32.20813
 20
323.59186
 11
-32.20813
 21
300
  0
LINE
  8
0
  6
CONTINUOUS
 62
     7
 10
-14.079476
 20
324.15839
 11
-14.079476
 21
300
  0
LINE
  8
0
  6
CONTINUOUS
 62
     7
 10
-12.000005
 20
273
 11
-9.588459
 21
268.82309
  0
LINE
  8
0
  6
CONTINUOUS
 62
     7
 10
-9.5884571
 20
268.82309
 11
-3
 21
268.82309
  0
LINE
  8
0
  6
CONTINUOUS
 62
     7
 10
-34.999996
 20
279.20001
 11
-32.208122
 21
276.40814
  0
LINE
  8
0
  6
CONTINUOUS
 62
     7
 10
-32.20813
 20
276.40814
 11
-32.20813
 21
300
  0
LINE
  8
0
  6
CONTINUOUS
 62
     7
 10
-11.999999
 20
274.89999
 11
-14.07948
 21
277.32062
  0
LINE
  8
0
  6
CONTINUOUS
 62
     7
 10
-12
 20
273
 11
-12
 21
300
  0
LINE
  8
0
  6
CONTINUOUS
 62
     7
 10
-9.5884571
 20
284.41153
 11
-3
 21
284.41153
  0
LINE
  8
0
  6
CONTINUOUS
 62
     7
 10
-35
 20
279.20001
 11
-35
 21
300
  0
LINE
  8
0
  6
CONTINUOUS
 62
     7
 10
-3
 20
268.82309
 11
-3
 21
300
  0
LINE
  8
0
  6
CONTINUOUS
 62
     7
 10
-32.20813
 20
276.40811
 11
-12.773859
 21
275.80081
  0
LINE
  8
0
  6
CONTINUOUS
 62
     7
 10
-33.73484
 20
277.93484
 11
-33.73484
 21
300
  0
LINE
  8
0
  6
CONTINUOUS
 62
     7
 10
-33.73484
 20
277.93481
 11
-14.079476
 21
277.32059
  0
LINE
  8
0
  6
CONTINUOUS
 62
     7
 10
-14.079476
 20
275.84161
 11
-14.079476
 21
300
  0
LINE
  8
0
  6
CONTINUOUS
 62
     7
 10
-69.588455
 20
331.17691
 11
-63
 21
331.17691
  0
LINE
  8
0
  6
CONTINUOUS
 62
     7
 10
-69.588455
 20
315.58847
 11
-63
 21
315.58847
  0
LINE
  8
0
  6
CONTINUOUS
 62
     7
 10
-63
 20
331.17691
 11
-63
 21
300
  0
LINE
  8
0
  6
CONTINUOUS
 62
     7
 10
-95
 20
320.79999
 11
-95
 21
300
  0
LINE
  8
0
  6
CONTINUOUS
 62
     7
 10
-72
 20
327
 11
-72
 21
300
  0
LINE
  8
0
  6
CONTINUOUS
 62
     7
 10
-72
 20
327
 11
-72
 21
300
  0
LINE
  8
0
  6
CONTINUOUS
 62
     7
 10
-72
 20
327
 11
-69.588455
 21
331.17691
  0
LINE
  8
0
  6
CENTER
 62
     7
 10
-98.678398
 20
300
 11
-58.481819
 21
300
  0
LINE
  8
0
  6
CONTINUOUS
 62
     7
 10
-95
 20
320.80002
 11
-92.20813
 21
323.59189
  0
LINE
  8
0
  6
CONTINUOUS
 62
     7
 10
-92.20813
 20
323.59189
 11
-72.773857
 21
324.19919
  0
LINE
  8
0
  6
CONTINUOUS
 62
     7
 10
-93.734833
 20
322.06519
 11
-74.079475
 21
322.67941
  0
LINE
  8
0
  6
CONTINUOUS
 62
     7
 10
-72
 20
325.10001
 11
-74.079483
 21
322.67938
  0
LINE
  8
0
  6
CONTINUOUS
 62
     7
 10
-93.73484
 20
322.06516
 11
-93.73484
 21
300
  0
LINE
  8
0
  6
CONTINUOUS
 62
     7
 10
-92.20813
 20
323.59186
 11
-92.20813
 21
300
  0
LINE
  8
0
  6
CONTINUOUS
 62
     7
 10
-74.079475
 20
324.15839
 11
-74.079475
 21
300
  0
LINE
  8
0
  6
CONTINUOUS
 62
     7
 10
-72
 20
273
 11
-69.588455
 21
268.82306
  0
LINE
  8
0
  6
CONTINUOUS
 62
     7
 10
-69.588455
 20
268.82309
 11
-63
 21
268.82309
  0
LINE
  8
0
  6
CONTINUOUS
 62
     7
 10
-95.000008
 20
279.20001
 11
-92.208138
 21
276.40814
  0
LINE
  8
0
  6
CONTINUOUS
 62
     7
 10
-92.20813
 20
276.40814
 11
-92.20813
 21
300
  0
LINE
  8
0
  6
CONTINUOUS
 62
     7
 10
-72
 20
274.89999
 11
-74.079475
 21
277.32062
  0
LINE
  8
0
  6
CONTINUOUS
 62
     7
 10
-72
 20
273
 11
-72
 21
300
  0
LINE
  8
0
  6
CONTINUOUS
 62
     7
 10
-69.588455
 20
284.41153
 11
-63
 21
284.41153
  0
LINE
  8
0
  6
CONTINUOUS
 62
     7
 10
-95
 20
279.20001
 11
-95
 21
300
  0
LINE
  8
0
  6
CONTINUOUS
 62
     7
 10
-63
 20
268.82309
 11
-63
 21
300
  0
LINE
  8
0
  6
CONTINUOUS
 62
     7
 10
-92.20813
 20
276.40811
 11
-72.773865
 21
275.80081
  0
LINE
  8
0
  6
CONTINUOUS
 62
     7
 10
-93.73484
 20
277.93484
 11
-93.73484
 21
300
  0
LINE
  8
0
  6
CONTINUOUS
 62
     7
 10
-93.734833
 20
277.93481
 11
-74.079475
 21
277.32059
  0
LINE
  8
0
  6
CONTINUOUS
 62
     7
 10
-74.079475
 20
275.84161
 11
-74.079475
 21
300
  0
LINE
  8
0
  6
CENTER
 62
     7
 10
-156.36388
 20
300
 11
-118.09609
 21
300
  0
LINE
  8
0
  6
CONTINUOUS
 62
     7
 10
-123
 20
326.55811
 11
-123
 21
286.72095
  0
LINE
  8
0
  6
CONTINUOUS
 62
     7
 10
-153
 20
317.79999
 11
-153
 21
300
  0
LINE
  8
0
  6
CONTINUOUS
 62
     7
 10
-131
 20
323
 11
-131
 21
300
  0
LINE
  8
0
  6
CONTINUOUS
 62
     7
 10
-128.94572
 20
326.55811
 11
-123
 21
326.55811
  0
LINE
  8
0
  6
CONTINUOUS
 62
     7
 10
-128.94572
 20
313.27905
 11
-123
 21
313.27905
  0
LINE
  8
0
  6
CONTINUOUS
 62
     7
 10
-128.94572
 20
286.72095
 11
-123
 21
286.72095
  0
LINE
  8
0
  6
CONTINUOUS
 62
     7
 10
-131
 20
323
 11
-128.94572
 21
326.55814
  0
LINE
  8
0
  6
CONTINUOUS
 62
     7
 10
-153
 20
317.80002
 11
-150.15291
 21
320.64709
  0
LINE
  8
0
  6
CONTINUOUS
 62
     7
 10
-150.15291
 20
320.64709
 11
-132.1508
 21
321.20966
  0
LINE
  8
0
  6
CONTINUOUS
 62
     7
 10
-151.67961
 20
319.12039
 11
-134.14296
 21
319.66843
  0
LINE
  8
0
  6
CONTINUOUS
 62
     7
 10
-131.00002
 20
322.10001
 11
-134.14297
 21
319.66843
  0
LINE
  8
0
  6
CONTINUOUS
 62
     7
 10
-151.67961
 20
319.12039
 11
-151.67961
 21
300
  0
LINE
  8
0
  6
CONTINUOUS
 62
     7
 10
-150.15291
 20
320.64709
 11
-150.15291
 21
300
  0
LINE
  8
0
  6
CONTINUOUS
 62
     7
 10
-134.14296
 20
321.1474
 11
-134.14296
 21
300
  0
LINE
  8
0
  6
CONTINUOUS
 62
     7
 10
-123
 20
273.44189
 11
-123
 21
313.27905
  0
LINE
  8
0
  6
CONTINUOUS
 62
     7
 10
-153
 20
282.20001
 11
-153
 21
300
  0
LINE
  8
0
  6
CONTINUOUS
 62
     7
 10
-131
 20
277
 11
-131
 21
300
  0
LINE
  8
0
  6
CONTINUOUS
 62
     7
 10
-128.94572
 20
273.44189
 11
-123
 21
273.44189
  0
LINE
  8
0
  6
CONTINUOUS
 62
     7
 10
-151.67961
 20
280.87961
 11
-151.67961
 21
300
  0
LINE
  8
0
  6
CONTINUOUS
 62
     7
 10
-151.67961
 20
280.87961
 11
-134.14296
 21
280.33157
  0
LINE
  8
0
  6
CONTINUOUS
 62
     7
 10
-150.15291
 20
279.35291
 11
-132.1508
 21
278.79034
  0
LINE
  8
0
  6
CONTINUOUS
 62
     7
 10
-131
 20
277
 11
-128.94572
 21
273.44189
  0
LINE
  8
0
  6
CONTINUOUS
 62
     7
 10
-150.15291
 20
279.35291
 11
-150.15291
 21
300
  0
LINE
  8
0
  6
CONTINUOUS
 62
     7
 10
-130.99998
 20
277.89999
 11
-134.14296
 21
280.3316
  0
LINE
  8
0
  6
CONTINUOUS
 62
     7
 10
-153.00002
 20
282.20001
 11
-150.15289
 21
279.35291
  0
LINE
  8
0
  6
CONTINUOUS
 62
     7
 10
-134.14296
 20
278.8526
 11
-134.14296
 21
300
  0
LINE
  8
0
  6
CENTER
 62
     7
 10
-270.91388
 20
300.85001
 11
-232.64609
 21
300.85001
  0
LINE
  8
0
  6
CONTINUOUS
 62
     7
 10
-237.55
 20
327.40811
 11
-237.55
 21
287.57095
  0
LINE
  8
0
  6
CONTINUOUS
 62
     7
 10
-267.54999
 20
318.64999
 11
-267.54999
 21
300.85001
  0
LINE
  8
0
  6
CONTINUOUS
 62
     7
 10
-245.55
 20
323.85001
 11
-245.55
 21
300.85001
  0
LINE
  8
0
  6
CONTINUOUS
 62
     7
 10
-243.49573
 20
327.40811
 11
-237.55
 21
327.40811
  0
LINE
  8
0
  6
CONTINUOUS
 62
     7
 10
-243.49573
 20
314.12906
 11
-237.55
 21
314.12906
  0
LINE
  8
0
  6
CONTINUOUS
 62
     7
 10
-243.49573
 20
287.57095
 11
-237.55
 21
287.57095
  0
LINE
  8
0
  6
CONTINUOUS
 62
     7
 10
-245.55
 20
323.85001
 11
-243.49573
 21
327.40811
  0
LINE
  8
0
  6
CONTINUOUS
 62
     7
 10
-267.54999
 20
318.64999
 11
-264.70288
 21
321.4971
  0
LINE
  8
0
  6
CONTINUOUS
 62
     7
 10
-264.70291
 20
321.4971
 11
-246.70081
 21
322.05966
  0
LINE
  8
0
  6
CONTINUOUS
 62
     7
 10
-266.22961
 20
319.9704
 11
-248.69296
 21
320.5184
  0
LINE
  8
0
  6
CONTINUOUS
 62
     7
 10
-245.55002
 20
322.95001
 11
-248.69298
 21
320.5184
  0
LINE
  8
0
  6
CONTINUOUS
 62
     7
 10
-266.22961
 20
319.9704
 11
-266.22961
 21
300.85001
  0
LINE
  8
0
  6
CONTINUOUS
 62
     7
 10
-264.70291
 20
321.4971
 11
-264.70291
 21
300.85001
  0
LINE
  8
0
  6
CONTINUOUS
 62
     7
 10
-248.69296
 20
321.99741
 11
-248.69296
 21
300.85001
  0
LINE
  8
0
  6
CONTINUOUS
 62
     7
 10
-237.55
 20
274.2919
 11
-237.55
 21
314.12906
  0
LINE
  8
0
  6
CONTINUOUS
 62
     7
 10
-267.54999
 20
283.04999
 11
-267.54999
 21
300.85001
  0
LINE
  8
0
  6
CONTINUOUS
 62
     7
 10
-245.55
 20
277.85001
 11
-245.55
 21
300.85001
  0
LINE
  8
0
  6
CONTINUOUS
 62
     7
 10
-243.49573
 20
274.2919
 11
-237.55
 21
274.2919
  0
LINE
  8
0
  6
CONTINUOUS
 62
     7
 10
-266.22961
 20
281.72961
 11
-266.22961
 21
300.85001
  0
LINE
  8
0
  6
CONTINUOUS
 62
     7
 10
-266.22961
 20
281.72961
 11
-248.69296
 21
281.18161
  0
LINE
  8
0
  6
CONTINUOUS
 62
     7
 10
-264.70288
 20
280.20288
 11
-246.70081
 21
279.64032
  0
LINE
  8
0
  6
CONTINUOUS
 62
     7
 10
-245.55
 20
277.84998
 11
-243.49573
 21
274.29187
  0
LINE
  8
0
  6
CONTINUOUS
 62
     7
 10
-264.70291
 20
280.20291
 11
-264.70291
 21
300.85001
  0
LINE
  8
0
  6
CONTINUOUS
 62
     7
 10
-245.55
 20
278.75
 11
-248.69295
 21
281.18161
  0
LINE
  8
0
  6
CONTINUOUS
 62
     7
 10
-267.55002
 20
283.05002
 11
-264.70291
 21
280.20288
  0
LINE
  8
0
  6
CONTINUOUS
 62
     7
 10
-248.69296
 20
279.70261
 11
-248.69296
 21
300.85001
  0
LINE
  8
0
  6
CENTER
 62
     7
 10
226.63612
 20
390
 11
264.9039
 21
390
  0
LINE
  8
0
  6
CONTINUOUS
 62
     7
 10
260
 20
416.55811
 11
260
 21
376.72095
  0
LINE
  8
0
  6
CONTINUOUS
 62
     7
 10
230
 20
407.79999
 11
230
 21
390
  0
LINE
  8
0
  6
CONTINUOUS
 62
     7
 10
252
 20
413
 11
252
 21
390
  0
LINE
  8
0
  6
CONTINUOUS
 62
     7
 10
254.05428
 20
416.55811
 11
260
 21
416.55811
  0
LINE
  8
0
  6
CONTINUOUS
 62
     7
 10
254.05428
 20
403.27905
 11
260
 21
403.27905
  0
LINE
  8
0
  6
CONTINUOUS
 62
     7
 10
254.05428
 20
376.72095
 11
260
 21
376.72095
  0
LINE
  8
0
  6
CONTINUOUS
 62
     7
 10
252
 20
413
 11
254.05428
 21
416.55811
  0
LINE
  8
0
  6
CONTINUOUS
 62
     7
 10
230
 20
407.79999
 11
232.84711
 21
410.64709
  0
LINE
  8
0
  6
CONTINUOUS
 62
     7
 10
232.84709
 20
410.64713
 11
250.8492
 21
411.20969
  0
LINE
  8
0
  6
CONTINUOUS
 62
     7
 10
231.32039
 20
409.12039
 11
248.85703
 21
409.6684
  0
LINE
  8
0
  6
CONTINUOUS
 62
     7
 10
251.99998
 20
412.10001
 11
248.85704
 21
409.66843
  0
LINE
  8
0
  6
CONTINUOUS
 62
     7
 10
231.32039
 20
409.12039
 11
231.32039
 21
390
  0
LINE
  8
0
  6
CONTINUOUS
 62
     7
 10
232.84709
 20
410.64709
 11
232.84709
 21
390
  0
LINE
  8
0
  6
CONTINUOUS
 62
     7
 10
248.85704
 20
411.1474
 11
248.85704
 21
390
  0
LINE
  8
0
  6
CONTINUOUS
 62
     7
 10
260
 20
363.44189
 11
260
 21
403.27905
  0
LINE
  8
0
  6
CONTINUOUS
 62
     7
 10
230
 20
372.20001
 11
230
 21
390
  0
LINE
  8
0
  6
CONTINUOUS
 62
     7
 10
252
 20
367
 11
252
 21
390
  0
LINE
  8
0
  6
CONTINUOUS
 62
     7
 10
254.05428
 20
363.44189
 11
260
 21
363.44189
  0
LINE
  8
0
  6
CONTINUOUS
 62
     7
 10
231.32039
 20
370.87961
 11
231.32039
 21
390
  0
LINE
  8
0
  6
CONTINUOUS
 62
     7
 10
231.32037
 20
370.87961
 11
248.85704
 21
370.3316
  0
LINE
  8
0
  6
CONTINUOUS
 62
     7
 10
232.84709
 20
369.35291
 11
250.8492
 21
368.79034
  0
LINE
  8
0
  6
CONTINUOUS
 62
     7
 10
252
 20
367
 11
254.05428
 21
363.44189
  0
LINE
  8
0
  6
CONTINUOUS
 62
     7
 10
232.84709
 20
369.35291
 11
232.84709
 21
390
  0
LINE
  8
0
  6
CONTINUOUS
 62
     7
 10
252.00002
 20
367.89999
 11
248.85706
 21
370.33157
  0
LINE
  8
0
  6
CONTINUOUS
 62
     7
 10
230
 20
372.19998
 11
232.84709
 21
369.35291
  0
LINE
  8
0
  6
CONTINUOUS
 62
     7
 10
248.85704
 20
368.8526
 11
248.85704
 21
390
  0
LINE
  8
0
  6
CONTINUOUS
 62
     7
 10
50.411541
 20
331.17691
 11
57
 21
331.17691
  0
LINE
  8
0
  6
CONTINUOUS
 62
     7
 10
50.411541
 20
315.58847
 11
57
 21
315.58847
  0
LINE
  8
0
  6
CONTINUOUS
 62
     7
 10
57
 20
331.17691
 11
57
 21
300
  0
LINE
  8
0
  6
CONTINUOUS
 62
     7
 10
25
 20
320.79999
 11
25
 21
300
  0
LINE
  8
0
  6
CONTINUOUS
 62
     7
 10
48
 20
327
 11
48
 21
300
  0
LINE
  8
0
  6
CONTINUOUS
 62
     7
 10
48
 20
327
 11
48
 21
300
  0
LINE
  8
0
  6
CONTINUOUS
 62
     7
 10
48.000004
 20
327
 11
50.411549
 21
331.17691
  0
LINE
  8
0
  6
CENTER
 62
     7
 10
21.321606
 20
300
 11
61.518181
 21
300
  0
LINE
  8
0
  6
CONTINUOUS
 62
     7
 10
24.999998
 20
320.80002
 11
27.79187
 21
323.59189
  0
LINE
  8
0
  6
CONTINUOUS
 62
     7
 10
27.791872
 20
323.59189
 11
47.226139
 21
324.19919
  0
LINE
  8
0
  6
CONTINUOUS
 62
     7
 10
26.265163
 20
322.06519
 11
45.920525
 21
322.67941
  0
LINE
  8
0
  6
CONTINUOUS
 62
     7
 10
47.999985
 20
325.10001
 11
45.920513
 21
322.67938
  0
LINE
  8
0
  6
CONTINUOUS
 62
     7
 10
26.265162
 20
322.06516
 11
26.265162
 21
300
  0
LINE
  8
0
  6
CONTINUOUS
 62
     7
 10
27.791872
 20
323.59186
 11
27.791872
 21
300
  0
LINE
  8
0
  6
CONTINUOUS
 62
     7
 10
45.920525
 20
324.15839
 11
45.920525
 21
300
  0
LINE
  8
0
  6
CONTINUOUS
 62
     7
 10
47.999989
 20
273
 11
50.411533
 21
268.82309
  0
LINE
  8
0
  6
CONTINUOUS
 62
     7
 10
50.411541
 20
268.82309
 11
57
 21
268.82309
  0
LINE
  8
0
  6
CONTINUOUS
 62
     7
 10
24.999994
 20
279.19998
 11
27.791866
 21
276.40811
  0
LINE
  8
0
  6
CONTINUOUS
 62
     7
 10
27.791872
 20
276.40814
 11
27.791872
 21
300
  0
LINE
  8
0
  6
CONTINUOUS
 62
     7
 10
48.000008
 20
274.89999
 11
45.920525
 21
277.32062
  0
LINE
  8
0
  6
CONTINUOUS
 62
     7
 10
48
 20
273
 11
48
 21
300
  0
LINE
  8
0
  6
CONTINUOUS
 62
     7
 10
50.411541
 20
284.41153
 11
57
 21
284.41153
  0
LINE
  8
0
  6
CONTINUOUS
 62
     7
 10
25
 20
279.20001
 11
25
 21
300
  0
LINE
  8
0
  6
CONTINUOUS
 62
     7
 10
57
 20
268.82309
 11
57
 21
300
  0
LINE
  8
0
  6
CONTINUOUS
 62
     7
 10
27.791872
 20
276.40811
 11
47.226139
 21
275.80081
  0
LINE
  8
0
  6
CONTINUOUS
 62
     7
 10
26.265162
 20
277.93484
 11
26.265162
 21
300
  0
LINE
  8
0
  6
CONTINUOUS
 62
     7
 10
26.265162
 20
277.93481
 11
45.920525
 21
277.32059
  0
LINE
  8
0
  6
CONTINUOUS
 62
     7
 10
45.920525
 20
275.84161
 11
45.920525
 21
300
  0
LINE
  8
0
  6
CONTINUOUS
 62
     7
 10
110.41154
 20
331.17691
 11
117
 21
331.17691
  0
LINE
  8
0
  6
CONTINUOUS
 62
     7
 10
110.41154
 20
315.58847
 11
117
 21
315.58847
  0
LINE
  8
0
  6
CONTINUOUS
 62
     7
 10
117
 20
331.17691
 11
117
 21
300
  0
LINE
  8
0
  6
CONTINUOUS
 62
     7
 10
85
 20
320.79999
 11
85
 21
300
  0
LINE
  8
0
  6
CONTINUOUS
 62
     7
 10
108
 20
327
 11
108
 21
300
  0
LINE
  8
0
  6
CONTINUOUS
 62
     7
 10
108
 20
327
 11
108
 21
300
  0
LINE
  8
0
  6
CONTINUOUS
 62
     7
 10
108.00001
 20
327
 11
110.41155
 21
331.17691
  0
LINE
  8
0
  6
CENTER
 62
     7
 10
81.321602
 20
300
 11
121.51818
 21
300
  0
LINE
  8
0
  6
CONTINUOUS
 62
     7
 10
85.000008
 20
320.80002
 11
87.791878
 21
323.59189
  0
LINE
  8
0
  6
CONTINUOUS
 62
     7
 10
87.79187
 20
323.59189
 11
107.22614
 21
324.19919
  0
LINE
  8
0
  6
CONTINUOUS
 62
     7
 10
86.26516
 20
322.06519
 11
105.92052
 21
322.67941
  0
LINE
  8
0
  6
CONTINUOUS
 62
     7
 10
108.00001
 20
325.10001
 11
105.92052
 21
322.67938
  0
LINE
  8
0
  6
CONTINUOUS
 62
     7
 10
86.26516
 20
322.06516
 11
86.26516
 21
300
  0
LINE
  8
0
  6
CONTINUOUS
 62
     7
 10
87.79187
 20
323.59186
 11
87.79187
 21
300
  0
LINE
  8
0
  6
CONTINUOUS
 62
     7
 10
105.92052
 20
324.15839
 11
105.92052
 21
300
  0
LINE
  8
0
  6
CONTINUOUS
 62
     7
 10
108
 20
273
 11
110.41154
 21
268.82309
  0
LINE
  8
0
  6
CONTINUOUS
 62
     7
 10
110.41154
 20
268.82309
 11
117
 21
268.82309
  0
LINE
  8
0
  6
CONTINUOUS
 62
     7
 10
84.999992
 20
279.20001
 11
87.791862
 21
276.40811
  0
LINE
  8
0
  6
CONTINUOUS
 62
     7
 10
87.79187
 20
276.40814
 11
87.79187
 21
300
  0
LINE
  8
0
  6
CONTINUOUS
 62
     7
 10
108.00001
 20
274.89999
 11
105.92053
 21
277.32062
  0
LINE
  8
0
  6
CONTINUOUS
 62
     7
 10
108
 20
273
 11
108
 21
300
  0
LINE
  8
0
  6
CONTINUOUS
 62
     7
 10
110.41154
 20
284.41153
 11
117
 21
284.41153
  0
LINE
  8
0
  6
CONTINUOUS
 62
     7
 10
85
 20
279.20001
 11
85
 21
300
  0
LINE
  8
0
  6
CONTINUOUS
 62
     7
 10
117
 20
268.82309
 11
117
 21
300
  0
LINE
  8
0
  6
CONTINUOUS
 62
     7
 10
87.79187
 20
276.40811
 11
107.22614
 21
275.80081
  0
LINE
  8
0
  6
CONTINUOUS
 62
     7
 10
86.26516
 20
277.93484
 11
86.26516
 21
300
  0
LINE
  8
0
  6
CONTINUOUS
 62
     7
 10
86.26516
 20
277.93481
 11
105.92052
 21
277.32059
  0
LINE
  8
0
  6
CONTINUOUS
 62
     7
 10
105.92052
 20
275.84161
 11
105.92052
 21
300
  0
LINE
  8
0
  6
CENTER
 62
     7
 10
137.37045
 20
300
 11
181.3443
 21
300
  0
LINE
  8
0
  6
CONTINUOUS
 62
     7
 10
167.49843
 20
334.09537
 11
177
 21
334.09537
  0
LINE
  8
0
  6
CONTINUOUS
 62
     7
 10
167.49843
 20
334.09537
 11
177
 21
334.09537
  0
LINE
  8
0
  6
CONTINUOUS
 62
     7
 10
167.49843
 20
324.10907
 11
177
 21
324.10907
  0
LINE
  8
0
  6
CONTINUOUS
 62
     7
 10
177
 20
334.09537
 11
177
 21
300
  0
LINE
  8
0
  6
CONTINUOUS
 62
     7
 10
141
 20
326.39999
 11
141
 21
300
  0
LINE
  8
0
  6
CONTINUOUS
 62
     7
 10
166
 20
331.5
 11
166
 21
300
  0
LINE
  8
0
  6
CONTINUOUS
 62
     7
 10
166.00002
 20
331.5
 11
167.49844
 21
334.09537
  0
LINE
  8
0
  6
CONTINUOUS
 62
     7
 10
141
 20
326.39999
 11
144.00465
 21
329.40463
  0
LINE
  8
0
  6
CONTINUOUS
 62
     7
 10
144.00464
 20
329.40463
 11
164.68449
 21
330.0509
  0
LINE
  8
0
  6
CONTINUOUS
 62
     7
 10
142.47794
 20
327.87793
 11
162.92851
 21
328.51703
  0
LINE
  8
0
  6
CONTINUOUS
 62
     7
 10
142.47794
 20
327.87793
 11
142.47794
 21
300
  0
LINE
  8
0
  6
CONTINUOUS
 62
     7
 10
144.00464
 20
329.40463
 11
144.00464
 21
300
  0
LINE
  8
0
  6
CONTINUOUS
 62
     7
 10
166
 20
331.20001
 11
162.92848
 21
328.517
  0
LINE
  8
0
  6
CONTINUOUS
 62
     7
 10
162.9285
 20
329.996
 11
162.9285
 21
300
  0
LINE
  8
0
  6
CONTINUOUS
 62
     7
 10
167.49843
 20
300
 11
177
 21
300
  0
LINE
  8
0
  6
CENTER
 62
     7
 10
137.37045
 20
300
 11
181.3443
 21
300
  0
LINE
  8
0
  6
CONTINUOUS
 62
     7
 10
142.47794
 20
272.12207
 11
142.47794
 21
300
  0
LINE
  8
0
  6
CONTINUOUS
 62
     7
 10
167.49843
 20
265.90463
 11
177
 21
265.90463
  0
LINE
  8
0
  6
CONTINUOUS
 62
     7
 10
144.00464
 20
270.59537
 11
164.68449
 21
269.9491
  0
LINE
  8
0
  6
CONTINUOUS
 62
     7
 10
167.49843
 20
265.90463
 11
177
 21
265.90463
  0
LINE
  8
0
  6
CONTINUOUS
 62
     7
 10
166
 20
268.5
 11
167.49843
 21
265.90463
  0
LINE
  8
0
  6
CONTINUOUS
 62
     7
 10
167.49843
 20
275.89093
 11
177
 21
275.89093
  0
LINE
  8
0
  6
CONTINUOUS
 62
     7
 10
166
 20
268.5
 11
166
 21
300
  0
LINE
  8
0
  6
CONTINUOUS
 62
     7
 10
162.9285
 20
270.004
 11
162.9285
 21
300
  0
LINE
  8
0
  6
CONTINUOUS
 62
     7
 10
141
 20
273.60001
 11
141
 21
300
  0
LINE
  8
0
  6
CONTINUOUS
 62
     7
 10
177
 20
265.90463
 11
177
 21
300
  0
LINE
  8
0
  6
CONTINUOUS
 62
     7
 10
141
 20
273.60001
 11
144.00464
 21
270.59537
  0
LINE
  8
0
  6
CONTINUOUS
 62
     7
 10
166
 20
268.80002
 11
162.9285
 21
271.483
  0
LINE
  8
0
  6
CONTINUOUS
 62
     7
 10
144.00464
 20
270.59537
 11
144.00464
 21
300
  0
LINE
  8
0
  6
CONTINUOUS
 62
     7
 10
142.47794
 20
272.12207
 11
162.9285
 21
271.48297
  0
LINE
  8
0
  6
CONTINUOUS
 62
     7
 10
167.49843
 20
300
 11
177
 21
300
  0
LINE
  8
0
  6
CENTER
 62
     7
 10
197.37045
 20
300
 11
241.3443
 21
300
  0
LINE
  8
0
  6
CONTINUOUS
 62
     7
 10
227.49843
 20
334.09537
 11
237
 21
334.09537
  0
LINE
  8
0
  6
CONTINUOUS
 62
     7
 10
227.49843
 20
334.09537
 11
237
 21
334.09537
  0
LINE
  8
0
  6
CONTINUOUS
 62
     7
 10
227.49843
 20
324.10907
 11
237
 21
324.10907
  0
LINE
  8
0
  6
CONTINUOUS
 62
     7
 10
237
 20
334.09537
 11
237
 21
300
  0
LINE
  8
0
  6
CONTINUOUS
 62
     7
 10
201
 20
326.39999
 11
201
 21
300
  0
LINE
  8
0
  6
CONTINUOUS
 62
     7
 10
226
 20
331.5
 11
226
 21
300
  0
LINE
  8
0
  6
CONTINUOUS
 62
     7
 10
226.00002
 20
331.5
 11
227.49844
 21
334.09537
  0
LINE
  8
0
  6
CONTINUOUS
 62
     7
 10
201
 20
326.39999
 11
204.00465
 21
329.40466
  0
LINE
  8
0
  6
CONTINUOUS
 62
     7
 10
204.00464
 20
329.40463
 11
224.68448
 21
330.0509
  0
LINE
  8
0
  6
CONTINUOUS
 62
     7
 10
202.47794
 20
327.87793
 11
222.9285
 21
328.51703
  0
LINE
  8
0
  6
CONTINUOUS
 62
     7
 10
202.47794
 20
327.87793
 11
202.47794
 21
300
  0
LINE
  8
0
  6
CONTINUOUS
 62
     7
 10
204.00464
 20
329.40463
 11
204.00464
 21
300
  0
LINE
  8
0
  6
CONTINUOUS
 62
     7
 10
226
 20
331.20001
 11
222.9285
 21
328.51703
  0
LINE
  8
0
  6
CONTINUOUS
 62
     7
 10
222.9285
 20
329.996
 11
222.9285
 21
300
  0
LINE
  8
0
  6
CONTINUOUS
 62
     7
 10
227.49843
 20
300
 11
237
 21
300
  0
LINE
  8
0
  6
CENTER
 62
     7
 10
197.37045
 20
300
 11
241.3443
 21
300
  0
LINE
  8
0
  6
CONTINUOUS
 62
     7
 10
202.47794
 20
272.12207
 11
202.47794
 21
300
  0
LINE
  8
0
  6
CONTINUOUS
 62
     7
 10
227.49843
 20
265.90463
 11
237
 21
265.90463
  0
LINE
  8
0
  6
CONTINUOUS
 62
     7
 10
204.00464
 20
270.59537
 11
224.68448
 21
269.9491
  0
LINE
  8
0
  6
CONTINUOUS
 62
     7
 10
227.49843
 20
265.90463
 11
237
 21
265.90463
  0
LINE
  8
0
  6
CONTINUOUS
 62
     7
 10
226
 20
268.5
 11
227.49843
 21
265.90466
  0
LINE
  8
0
  6
CONTINUOUS
 62
     7
 10
227.49843
 20
275.89093
 11
237
 21
275.89093
  0
LINE
  8
0
  6
CONTINUOUS
 62
     7
 10
226
 20
268.5
 11
226
 21
300
  0
LINE
  8
0
  6
CONTINUOUS
 62
     7
 10
222.9285
 20
270.004
 11
222.9285
 21
300
  0
LINE
  8
0
  6
CONTINUOUS
 62
     7
 10
201
 20
273.60001
 11
201
 21
300
  0
LINE
  8
0
  6
CONTINUOUS
 62
     7
 10
237
 20
265.90463
 11
237
 21
300
  0
LINE
  8
0
  6
CONTINUOUS
 62
     7
 10
200.99998
 20
273.60001
 11
204.00464
 21
270.59534
  0
LINE
  8
0
  6
CONTINUOUS
 62
     7
 10
226
 20
268.80002
 11
222.9285
 21
271.483
  0
LINE
  8
0
  6
CONTINUOUS
 62
     7
 10
204.00464
 20
270.59537
 11
204.00464
 21
300
  0
LINE
  8
0
  6
CONTINUOUS
 62
     7
 10
202.47794
 20
272.12207
 11
222.9285
 21
271.48297
  0
LINE
  8
0
  6
CONTINUOUS
 62
     7
 10
227.49843
 20
300
 11
237
 21
300
  0
LINE
  8
0
  6
CENTER
 62
     7
 10
-272.62955
 20
150
 11
-228.6557
 21
150
  0
LINE
  8
0
  6
CONTINUOUS
 62
     7
 10
-242.50157
 20
184.09535
 11
-233
 21
184.09535
  0
LINE
  8
0
  6
CONTINUOUS
 62
     7
 10
-242.50157
 20
184.09535
 11
-233
 21
184.09535
  0
LINE
  8
0
  6
CONTINUOUS
 62
     7
 10
-242.50157
 20
174.10905
 11
-233
 21
174.10905
  0
LINE
  8
0
  6
CONTINUOUS
 62
     7
 10
-233
 20
184.09535
 11
-233
 21
150
  0
LINE
  8
0
  6
CONTINUOUS
 62
     7
 10
-269
 20
176.39999
 11
-269
 21
150
  0
LINE
  8
0
  6
CONTINUOUS
 62
     7
 10
-244
 20
181.5
 11
-244
 21
150
  0
LINE
  8
0
  6
CONTINUOUS
 62
     7
 10
-244.00002
 20
181.5
 11
-242.50159
 21
184.09537
  0
LINE
  8
0
  6
CONTINUOUS
 62
     7
 10
-269
 20
176.39999
 11
-265.99533
 21
179.40463
  0
LINE
  8
0
  6
CONTINUOUS
 62
     7
 10
-265.99533
 20
179.40465
 11
-245.31552
 21
180.0509
  0
LINE
  8
0
  6
CONTINUOUS
 62
     7
 10
-267.52206
 20
177.87793
 11
-247.0715
 21
178.51701
  0
LINE
  8
0
  6
CONTINUOUS
 62
     7
 10
-267.52206
 20
177.87793
 11
-267.52206
 21
150
  0
LINE
  8
0
  6
CONTINUOUS
 62
     7
 10
-265.99536
 20
179.40465
 11
-265.99536
 21
150
  0
LINE
  8
0
  6
CONTINUOUS
 62
     7
 10
-244
 20
181.20001
 11
-247.0715
 21
178.51703
  0
LINE
  8
0
  6
CONTINUOUS
 62
     7
 10
-247.0715
 20
179.99602
 11
-247.0715
 21
150
  0
LINE
  8
0
  6
CONTINUOUS
 62
     7
 10
-242.50157
 20
150
 11
-233
 21
150
  0
LINE
  8
0
  6
CENTER
 62
     7
 10
-272.62955
 20
150
 11
-228.6557
 21
150
  0
LINE
  8
0
  6
CONTINUOUS
 62
     7
 10
-267.52206
 20
122.12206
 11
-267.52206
 21
150
  0
LINE
  8
0
  6
CONTINUOUS
 62
     7
 10
-242.50157
 20
115.90465
 11
-233
 21
115.90465
  0
LINE
  8
0
  6
CONTINUOUS
 62
     7
 10
-265.99533
 20
120.59535
 11
-245.31552
 21
119.94911
  0
LINE
  8
0
  6
CONTINUOUS
 62
     7
 10
-242.50157
 20
115.90465
 11
-233
 21
115.90465
  0
LINE
  8
0
  6
CONTINUOUS
 62
     7
 10
-244
 20
118.5
 11
-242.50157
 21
115.90464
  0
LINE
  8
0
  6
CONTINUOUS
 62
     7
 10
-242.50157
 20
125.89095
 11
-233
 21
125.89095
  0
LINE
  8
0
  6
CONTINUOUS
 62
     7
 10
-244
 20
118.5
 11
-244
 21
150
  0
LINE
  8
0
  6
CONTINUOUS
 62
     7
 10
-247.0715
 20
120.00398
 11
-247.0715
 21
150
  0
LINE
  8
0
  6
CONTINUOUS
 62
     7
 10
-269
 20
123.6
 11
-269
 21
150
  0
LINE
  8
0
  6
CONTINUOUS
 62
     7
 10
-233
 20
115.90465
 11
-233
 21
150
  0
LINE
  8
0
  6
CONTINUOUS
 62
     7
 10
-269
 20
123.60001
 11
-265.99533
 21
120.59534
  0
LINE
  8
0
  6
CONTINUOUS
 62
     7
 10
-244
 20
118.8
 11
-247.0715
 21
121.48299
  0
LINE
  8
0
  6
CONTINUOUS
 62
     7
 10
-265.99536
 20
120.59535
 11
-265.99536
 21
150
  0
LINE
  8
0
  6
CONTINUOUS
 62
     7
 10
-267.52206
 20
122.12206
 11
-247.0715
 21
121.48299
  0
LINE
  8
0
  6
CONTINUOUS
 62
     7
 10
-242.50157
 20
150
 11
-233
 21
150
  0
LINE
  8
0
  6
CENTER
 62
     7
 10
-202.62955
 20
150
 11
-158.6557
 21
150
  0
LINE
  8
0
  6
CONTINUOUS
 62
     7
 10
-172.50157
 20
184.09535
 11
-163
 21
184.09535
  0
LINE
  8
0
  6
CONTINUOUS
 62
     7
 10
-172.50157
 20
184.09535
 11
-163
 21
184.09535
  0
LINE
  8
0
  6
CONTINUOUS
 62
     7
 10
-172.50157
 20
174.10905
 11
-163
 21
174.10905
  0
LINE
  8
0
  6
CONTINUOUS
 62
     7
 10
-163
 20
184.09535
 11
-163
 21
150
  0
LINE
  8
0
  6
CONTINUOUS
 62
     7
 10
-199
 20
176.39999
 11
-199
 21
150
  0
LINE
  8
0
  6
CONTINUOUS
 62
     7
 10
-174
 20
181.5
 11
-174
 21
150
  0
LINE
  8
0
  6
CONTINUOUS
 62
     7
 10
-174
 20
181.5
 11
-172.50157
 21
184.09535
  0
LINE
  8
0
  6
CONTINUOUS
 62
     7
 10
-199
 20
176.39999
 11
-195.99535
 21
179.40463
  0
LINE
  8
0
  6
CONTINUOUS
 62
     7
 10
-195.99536
 20
179.40465
 11
-175.31551
 21
180.0509
  0
LINE
  8
0
  6
CONTINUOUS
 62
     7
 10
-197.52206
 20
177.87793
 11
-177.07149
 21
178.51701
  0
LINE
  8
0
  6
CONTINUOUS
 62
     7
 10
-197.52206
 20
177.87793
 11
-197.52206
 21
150
  0
LINE
  8
0
  6
CONTINUOUS
 62
     7
 10
-195.99536
 20
179.40465
 11
-195.99536
 21
150
  0
LINE
  8
0
  6
CONTINUOUS
 62
     7
 10
-174
 20
181.2
 11
-177.0715
 21
178.51701
  0
LINE
  8
0
  6
CONTINUOUS
 62
     7
 10
-177.0715
 20
179.99602
 11
-177.0715
 21
150
  0
LINE
  8
0
  6
CONTINUOUS
 62
     7
 10
-172.50157
 20
150
 11
-163
 21
150
  0
LINE
  8
0
  6
CENTER
 62
     7
 10
-202.62955
 20
150
 11
-158.6557
 21
150
  0
LINE
  8
0
  6
CONTINUOUS
 62
     7
 10
-197.52206
 20
122.12206
 11
-197.52206
 21
150
  0
LINE
  8
0
  6
CONTINUOUS
 62
     7
 10
-172.50157
 20
115.90465
 11
-163
 21
115.90465
  0
LINE
  8
0
  6
CONTINUOUS
 62
     7
 10
-195.99536
 20
120.59535
 11
-175.31551
 21
119.94911
  0
LINE
  8
0
  6
CONTINUOUS
 62
     7
 10
-172.50157
 20
115.90465
 11
-163
 21
115.90465
  0
LINE
  8
0
  6
CONTINUOUS
 62
     7
 10
-174
 20
118.49999
 11
-172.50157
 21
115.90464
  0
LINE
  8
0
  6
CONTINUOUS
 62
     7
 10
-172.50157
 20
125.89095
 11
-163
 21
125.89095
  0
LINE
  8
0
  6
CONTINUOUS
 62
     7
 10
-174
 20
118.5
 11
-174
 21
150
  0
LINE
  8
0
  6
CONTINUOUS
 62
     7
 10
-177.0715
 20
120.00398
 11
-177.0715
 21
150
  0
LINE
  8
0
  6
CONTINUOUS
 62
     7
 10
-199
 20
123.6
 11
-199
 21
150
  0
LINE
  8
0
  6
CONTINUOUS
 62
     7
 10
-163
 20
115.90465
 11
-163
 21
150
  0
LINE
  8
0
  6
CONTINUOUS
 62
     7
 10
-199
 20
123.60001
 11
-195.99535
 21
120.59535
  0
LINE
  8
0
  6
CONTINUOUS
 62
     7
 10
-174
 20
118.8
 11
-177.0715
 21
121.48299
  0
LINE
  8
0
  6
CONTINUOUS
 62
     7
 10
-195.99536
 20
120.59535
 11
-195.99536
 21
150
  0
LINE
  8
0
  6
CONTINUOUS
 62
     7
 10
-197.52206
 20
122.12206
 11
-177.07149
 21
121.48299
  0
LINE
  8
0
  6
CONTINUOUS
 62
     7
 10
-172.50157
 20
150
 11
-163
 21
150
  0
LINE
  8
0
  6
CENTER
 62
     7
 10
-132.62955
 20
150
 11
-88.655701
 21
150
  0
LINE
  8
0
  6
CONTINUOUS
 62
     7
 10
-102.50157
 20
184.09535
 11
-93
 21
184.09535
  0
LINE
  8
0
  6
CONTINUOUS
 62
     7
 10
-102.50157
 20
184.09535
 11
-93
 21
184.09535
  0
LINE
  8
0
  6
CONTINUOUS
 62
     7
 10
-102.50157
 20
174.10905
 11
-93
 21
174.10905
  0
LINE
  8
0
  6
CONTINUOUS
 62
     7
 10
-93
 20
184.09535
 11
-93
 21
150
  0
LINE
  8
0
  6
CONTINUOUS
 62
     7
 10
-129
 20
176.39999
 11
-129
 21
150
  0
LINE
  8
0
  6
CONTINUOUS
 62
     7
 10
-104
 20
181.5
 11
-104
 21
150
  0
LINE
  8
0
  6
CONTINUOUS
 62
     7
 10
-103.99999
 20
181.5
 11
-102.50156
 21
184.09535
  0
LINE
  8
0
  6
CONTINUOUS
 62
     7
 10
-129
 20
176.39999
 11
-125.99535
 21
179.40465
  0
LINE
  8
0
  6
CONTINUOUS
 62
     7
 10
-125.99535
 20
179.40465
 11
-105.31551
 21
180.0509
  0
LINE
  8
0
  6
CONTINUOUS
 62
     7
 10
-127.52206
 20
177.87793
 11
-107.0715
 21
178.51701
  0
LINE
  8
0
  6
CONTINUOUS
 62
     7
 10
-127.52206
 20
177.87793
 11
-127.52206
 21
150
  0
LINE
  8
0
  6
CONTINUOUS
 62
     7
 10
-125.99535
 20
179.40465
 11
-125.99535
 21
150
  0
LINE
  8
0
  6
CONTINUOUS
 62
     7
 10
-104
 20
181.2
 11
-107.0715
 21
178.51701
  0
LINE
  8
0
  6
CONTINUOUS
 62
     7
 10
-107.0715
 20
179.99602
 11
-107.0715
 21
150
  0
LINE
  8
0
  6
CONTINUOUS
 62
     7
 10
-102.50157
 20
150
 11
-93
 21
150
  0
LINE
  8
0
  6
CENTER
 62
     7
 10
-132.62955
 20
150
 11
-88.655701
 21
150
  0
LINE
  8
0
  6
CONTINUOUS
 62
     7
 10
-127.52206
 20
122.12206
 11
-127.52206
 21
150
  0
LINE
  8
0
  6
CONTINUOUS
 62
     7
 10
-102.50157
 20
115.90465
 11
-93
 21
115.90465
  0
LINE
  8
0
  6
CONTINUOUS
 62
     7
 10
-125.99535
 20
120.59535
 11
-105.31551
 21
119.94911
  0
LINE
  8
0
  6
CONTINUOUS
 62
     7
 10
-102.50157
 20
115.90465
 11
-93
 21
115.90465
  0
LINE
  8
0
  6
CONTINUOUS
 62
     7
 10
-104
 20
118.5
 11
-102.50157
 21
115.90464
  0
LINE
  8
0
  6
CONTINUOUS
 62
     7
 10
-102.50157
 20
125.89095
 11
-93
 21
125.89095
  0
LINE
  8
0
  6
CONTINUOUS
 62
     7
 10
-104
 20
118.5
 11
-104
 21
150
  0
LINE
  8
0
  6
CONTINUOUS
 62
     7
 10
-107.0715
 20
120.00398
 11
-107.0715
 21
150
  0
LINE
  8
0
  6
CONTINUOUS
 62
     7
 10
-129
 20
123.6
 11
-129
 21
150
  0
LINE
  8
0
  6
CONTINUOUS
 62
     7
 10
-93
 20
115.90465
 11
-93
 21
150
  0
LINE
  8
0
  6
CONTINUOUS
 62
     7
 10
-129
 20
123.6
 11
-125.99536
 21
120.59536
  0
LINE
  8
0
  6
CONTINUOUS
 62
     7
 10
-104
 20
118.8
 11
-107.0715
 21
121.48298
  0
LINE
  8
0
  6
CONTINUOUS
 62
     7
 10
-125.99535
 20
120.59535
 11
-125.99535
 21
150
  0
LINE
  8
0
  6
CONTINUOUS
 62
     7
 10
-127.52206
 20
122.12206
 11
-107.0715
 21
121.48299
  0
LINE
  8
0
  6
CONTINUOUS
 62
     7
 10
-102.50157
 20
150
 11
-93
 21
150
  0
LINE
  8
0
  6
CENTER
 62
     7
 10
-56.831219
 20
150
 11
-7.1848087
 21
150
  0
LINE
  8
0
  6
CONTINUOUS
 62
     7
 10
-22.097233
 20
193.29568
 11
-13
 21
193.29568
  0
LINE
  8
0
  6
CONTINUOUS
 62
     7
 10
-22.097233
 20
180.61467
 11
-13
 21
180.61467
  0
LINE
  8
0
  6
CONTINUOUS
 62
     7
 10
-13
 20
193.29568
 11
-13
 21
150
  0
LINE
  8
0
  6
CONTINUOUS
 62
     7
 10
-24
 20
190
 11
-24
 21
150
  0
LINE
  8
0
  6
CONTINUOUS
 62
     7
 10
-52
 20
183.85001
 11
-52
 21
150
  0
LINE
  8
0
  6
CONTINUOUS
 62
     7
 10
-23.999994
 20
190
 11
-22.097231
 21
193.29568
  0
LINE
  8
0
  6
CONTINUOUS
 62
     7
 10
-51.999996
 20
183.85001
 11
-48.700508
 21
187.14949
  0
LINE
  8
0
  6
CONTINUOUS
 62
     7
 10
-48.700516
 20
187.14948
 11
-25.827305
 21
187.86427
  0
LINE
  8
0
  6
CONTINUOUS
 62
     7
 10
-50.227226
 20
185.62277
 11
-27.437304
 21
186.33496
  0
LINE
  8
0
  6
CONTINUOUS
 62
     7
 10
-23.999998
 20
189.59999
 11
-27.437302
 21
186.33496
  0
LINE
  8
0
  6
CONTINUOUS
 62
     7
 10
-48.700516
 20
187.14949
 11
-48.700516
 21
150
  0
LINE
  8
0
  6
CONTINUOUS
 62
     7
 10
-50.227226
 20
185.62277
 11
-50.227226
 21
150
  0
LINE
  8
0
  6
CONTINUOUS
 62
     7
 10
-27.437304
 20
187.81396
 11
-27.437304
 21
150
  0
LINE
  8
0
  6
CONTINUOUS
 62
     7
 10
-22.097233
 20
150
 11
-13
 21
150
  0
LINE
  8
0
  6
CENTER
 62
     7
 10
-56.831219
 20
150
 11
-7.1848087
 21
150
  0
LINE
  8
0
  6
CONTINUOUS
 62
     7
 10
-23.999998
 20
110.4
 11
-27.4373
 21
113.66504
  0
LINE
  8
0
  6
CONTINUOUS
 62
     7
 10
-22.097233
 20
106.70432
 11
-13
 21
106.70432
  0
LINE
  8
0
  6
CONTINUOUS
 62
     7
 10
-52
 20
116.15
 11
-52
 21
150
  0
LINE
  8
0
  6
CONTINUOUS
 62
     7
 10
-50.227226
 20
114.37723
 11
-50.227226
 21
150
  0
LINE
  8
0
  6
CONTINUOUS
 62
     7
 10
-24
 20
110
 11
-24
 21
150
  0
LINE
  8
0
  6
CONTINUOUS
 62
     7
 10
-22.097233
 20
119.38532
 11
-13
 21
119.38532
  0
LINE
  8
0
  6
CONTINUOUS
 62
     7
 10
-13
 20
106.70432
 11
-13
 21
150
  0
LINE
  8
0
  6
CONTINUOUS
 62
     7
 10
-24.000002
 20
110
 11
-22.097235
 21
106.70431
  0
LINE
  8
0
  6
CONTINUOUS
 62
     7
 10
-48.700516
 20
112.85052
 11
-48.700516
 21
150
  0
LINE
  8
0
  6
CONTINUOUS
 62
     7
 10
-22.097233
 20
150
 11
-13
 21
150
  0
LINE
  8
0
  6
CONTINUOUS
 62
     7
 10
-48.700516
 20
112.85052
 11
-25.827305
 21
112.13573
  0
LINE
  8
0
  6
CONTINUOUS
 62
     7
 10
-50.227226
 20
114.37723
 11
-27.437304
 21
113.66505
  0
LINE
  8
0
  6
CONTINUOUS
 62
     7
 10
-27.437304
 20
112.18604
 11
-27.437304
 21
150
  0
LINE
  8
0
  6
CONTINUOUS
 62
     7
 10
-52
 20
116.15
 11
-48.700516
 21
112.85052
  0
LINE
  8
0
  6
CENTER
 62
     7
 10
13.16878
 20
150
 11
62.815193
 21
150
  0
LINE
  8
0
  6
CONTINUOUS
 62
     7
 10
47.902767
 20
193.29568
 11
57
 21
193.29568
  0
LINE
  8
0
  6
CONTINUOUS
 62
     7
 10
47.902767
 20
180.61467
 11
57
 21
180.61467
  0
LINE
  8
0
  6
CONTINUOUS
 62
     7
 10
57
 20
193.29568
 11
57
 21
150
  0
LINE
  8
0
  6
CONTINUOUS
 62
     7
 10
46
 20
190
 11
46
 21
150
  0
LINE
  8
0
  6
CONTINUOUS
 62
     7
 10
18
 20
183.85001
 11
18
 21
150
  0
LINE
  8
0
  6
CONTINUOUS
 62
     7
 10
46.000004
 20
190
 11
47.902767
 21
193.29568
  0
LINE
  8
0
  6
CONTINUOUS
 62
     7
 10
17.999994
 20
183.84999
 11
21.299484
 21
187.14949
  0
LINE
  8
0
  6
CONTINUOUS
 62
     7
 10
21.299484
 20
187.14948
 11
44.172695
 21
187.86427
  0
LINE
  8
0
  6
CONTINUOUS
 62
     7
 10
19.772774
 20
185.62277
 11
42.562695
 21
186.33496
  0
LINE
  8
0
  6
CONTINUOUS
 62
     7
 10
46
 20
189.60001
 11
42.562691
 21
186.33496
  0
LINE
  8
0
  6
CONTINUOUS
 62
     7
 10
21.299484
 20
187.14949
 11
21.299484
 21
150
  0
LINE
  8
0
  6
CONTINUOUS
 62
     7
 10
19.772774
 20
185.62277
 11
19.772774
 21
150
  0
LINE
  8
0
  6
CONTINUOUS
 62
     7
 10
42.562698
 20
187.81396
 11
42.562698
 21
150
  0
LINE
  8
0
  6
CONTINUOUS
 62
     7
 10
47.902767
 20
150
 11
57
 21
150
  0
LINE
  8
0
  6
CENTER
 62
     7
 10
13.16878
 20
150
 11
62.815193
 21
150
  0
LINE
  8
0
  6
CONTINUOUS
 62
     7
 10
46.000004
 20
110.4
 11
42.562702
 21
113.66504
  0
LINE
  8
0
  6
CONTINUOUS
 62
     7
 10
47.902767
 20
106.70432
 11
57
 21
106.70432
  0
LINE
  8
0
  6
CONTINUOUS
 62
     7
 10
18
 20
116.15
 11
18
 21
150
  0
LINE
  8
0
  6
CONTINUOUS
 62
     7
 10
19.772774
 20
114.37723
 11
19.772774
 21
150
  0
LINE
  8
0
  6
CONTINUOUS
 62
     7
 10
46
 20
110
 11
46
 21
150
  0
LINE
  8
0
  6
CONTINUOUS
 62
     7
 10
47.902767
 20
119.38532
 11
57
 21
119.38532
  0
LINE
  8
0
  6
CONTINUOUS
 62
     7
 10
57
 20
106.70432
 11
57
 21
150
  0
LINE
  8
0
  6
CONTINUOUS
 62
     7
 10
45.999996
 20
110
 11
47.902763
 21
106.70431
  0
LINE
  8
0
  6
CONTINUOUS
 62
     7
 10
21.299484
 20
112.85052
 11
21.299484
 21
150
  0
LINE
  8
0
  6
CONTINUOUS
 62
     7
 10
47.902767
 20
150
 11
57
 21
150
  0
LINE
  8
0
  6
CONTINUOUS
 62
     7
 10
21.299484
 20
112.85052
 11
44.172695
 21
112.13573
  0
LINE
  8
0
  6
CONTINUOUS
 62
     7
 10
19.772776
 20
114.37723
 11
42.562695
 21
113.66505
  0
LINE
  8
0
  6
CONTINUOUS
 62
     7
 10
42.562698
 20
112.18604
 11
42.562698
 21
150
  0
LINE
  8
0
  6
CONTINUOUS
 62
     7
 10
17.999998
 20
116.15
 11
21.299482
 21
112.85052
  0
LINE
  8
0
  6
CENTER
 62
     7
 10
83.168777
 20
150
 11
132.81519
 21
150
  0
LINE
  8
0
  6
CONTINUOUS
 62
     7
 10
117.90276
 20
193.29568
 11
127
 21
193.29568
  0
LINE
  8
0
  6
CONTINUOUS
 62
     7
 10
117.90276
 20
180.61467
 11
127
 21
180.61467
  0
LINE
  8
0
  6
CONTINUOUS
 62
     7
 10
127
 20
193.29568
 11
127
 21
150
  0
LINE
  8
0
  6
CONTINUOUS
 62
     7
 10
116
 20
190
 11
116
 21
150
  0
LINE
  8
0
  6
CONTINUOUS
 62
     7
 10
88
 20
183.85001
 11
88
 21
150
  0
LINE
  8
0
  6
CONTINUOUS
 62
     7
 10
116
 20
190
 11
117.90276
 21
193.29568
  0
LINE
  8
0
  6
CONTINUOUS
 62
     7
 10
88
 20
183.84999
 11
91.299492
 21
187.14949
  0
LINE
  8
0
  6
CONTINUOUS
 62
     7
 10
91.299484
 20
187.14948
 11
114.17269
 21
187.86427
  0
LINE
  8
0
  6
CONTINUOUS
 62
     7
 10
89.772781
 20
185.62277
 11
112.56269
 21
186.33496
  0
LINE
  8
0
  6
CONTINUOUS
 62
     7
 10
116
 20
189.60001
 11
112.56269
 21
186.33496
  0
LINE
  8
0
  6
CONTINUOUS
 62
     7
 10
91.299484
 20
187.14949
 11
91.299484
 21
150
  0
LINE
  8
0
  6
CONTINUOUS
 62
     7
 10
89.772774
 20
185.62277
 11
89.772774
 21
150
  0
LINE
  8
0
  6
CONTINUOUS
 62
     7
 10
112.5627
 20
187.81396
 11
112.5627
 21
150
  0
LINE
  8
0
  6
CONTINUOUS
 62
     7
 10
117.90276
 20
150
 11
127
 21
150
  0
LINE
  8
0
  6
CENTER
 62
     7
 10
83.168777
 20
150
 11
132.81519
 21
150
  0
LINE
  8
0
  6
CONTINUOUS
 62
     7
 10
116.00001
 20
110.4
 11
112.5627
 21
113.66504
  0
LINE
  8
0
  6
CONTINUOUS
 62
     7
 10
117.90276
 20
106.70432
 11
127
 21
106.70432
  0
LINE
  8
0
  6
CONTINUOUS
 62
     7
 10
88
 20
116.15
 11
88
 21
150
  0
LINE
  8
0
  6
CONTINUOUS
 62
     7
 10
89.772774
 20
114.37723
 11
89.772774
 21
150
  0
LINE
  8
0
  6
CONTINUOUS
 62
     7
 10
116
 20
110
 11
116
 21
150
  0
LINE
  8
0
  6
CONTINUOUS
 62
     7
 10
117.90276
 20
119.38532
 11
127
 21
119.38532
  0
LINE
  8
0
  6
CONTINUOUS
 62
     7
 10
127
 20
106.70432
 11
127
 21
150
  0
LINE
  8
0
  6
CONTINUOUS
 62
     7
 10
116.00001
 20
110.00001
 11
117.90277
 21
106.70432
  0
LINE
  8
0
  6
CONTINUOUS
 62
     7
 10
91.299484
 20
112.85052
 11
91.299484
 21
150
  0
LINE
  8
0
  6
CONTINUOUS
 62
     7
 10
117.90276
 20
150
 11
127
 21
150
  0
LINE
  8
0
  6
CONTINUOUS
 62
     7
 10
91.299484
 20
112.85052
 11
114.17269
 21
112.13573
  0
LINE
  8
0
  6
CONTINUOUS
 62
     7
 10
89.772774
 20
114.37723
 11
112.56269
 21
113.66505
  0
LINE
  8
0
  6
CONTINUOUS
 62
     7
 10
112.5627
 20
112.18604
 11
112.5627
 21
150
  0
LINE
  8
0
  6
CONTINUOUS
 62
     7
 10
88
 20
116.15
 11
91.299484
 21
112.85052
  0
LINE
  8
0
  6
CENTER
 62
     7
 10
153.16878
 20
150
 11
202.81519
 21
150
  0
LINE
  8
0
  6
CONTINUOUS
 62
     7
 10
187.90277
 20
193.29568
 11
197
 21
193.29568
  0
LINE
  8
0
  6
CONTINUOUS
 62
     7
 10
187.90277
 20
180.61467
 11
197
 21
180.61467
  0
LINE
  8
0
  6
CONTINUOUS
 62
     7
 10
197
 20
193.29568
 11
197
 21
150
  0
LINE
  8
0
  6
CONTINUOUS
 62
     7
 10
186
 20
190
 11
186
 21
150
  0
LINE
  8
0
  6
CONTINUOUS
 62
     7
 10
158
 20
183.85001
 11
158
 21
150
  0
LINE
  8
0
  6
CONTINUOUS
 62
     7
 10
186
 20
190
 11
187.90277
 21
193.2957
  0
LINE
  8
0
  6
CONTINUOUS
 62
     7
 10
158
 20
183.85001
 11
161.29948
 21
187.14948
  0
LINE
  8
0
  6
CONTINUOUS
 62
     7
 10
161.29948
 20
187.14948
 11
184.1727
 21
187.86427
  0
LINE
  8
0
  6
CONTINUOUS
 62
     7
 10
159.77277
 20
185.62277
 11
182.5627
 21
186.33496
  0
LINE
  8
0
  6
CONTINUOUS
 62
     7
 10
185.99998
 20
189.60001
 11
182.56268
 21
186.33496
  0
LINE
  8
0
  6
CONTINUOUS
 62
     7
 10
161.29948
 20
187.14949
 11
161.29948
 21
150
  0
LINE
  8
0
  6
CONTINUOUS
 62
     7
 10
159.77278
 20
185.62277
 11
159.77278
 21
150
  0
LINE
  8
0
  6
CONTINUOUS
 62
     7
 10
182.5627
 20
187.81396
 11
182.5627
 21
150
  0
LINE
  8
0
  6
CONTINUOUS
 62
     7
 10
187.90277
 20
150
 11
197
 21
150
  0
LINE
  8
0
  6
CENTER
 62
     7
 10
153.16878
 20
150
 11
202.81519
 21
150
  0
LINE
  8
0
  6
CONTINUOUS
 62
     7
 10
186
 20
110.4
 11
182.5627
 21
113.66504
  0
LINE
  8
0
  6
CONTINUOUS
 62
     7
 10
187.90277
 20
106.70432
 11
197
 21
106.70432
  0
LINE
  8
0
  6
CONTINUOUS
 62
     7
 10
158
 20
116.15
 11
158
 21
150
  0
LINE
  8
0
  6
CONTINUOUS
 62
     7
 10
159.77278
 20
114.37723
 11
159.77278
 21
150
  0
LINE
  8
0
  6
CONTINUOUS
 62
     7
 10
186
 20
110
 11
186
 21
150
  0
LINE
  8
0
  6
CONTINUOUS
 62
     7
 10
187.90277
 20
119.38532
 11
197
 21
119.38532
  0
LINE
  8
0
  6
CONTINUOUS
 62
     7
 10
197
 20
106.70432
 11
197
 21
150
  0
LINE
  8
0
  6
CONTINUOUS
 62
     7
 10
186
 20
110
 11
187.90276
 21
106.70431
  0
LINE
  8
0
  6
CONTINUOUS
 62
     7
 10
161.29948
 20
112.85052
 11
161.29948
 21
150
  0
LINE
  8
0
  6
CONTINUOUS
 62
     7
 10
187.90277
 20
150
 11
197
 21
150
  0
LINE
  8
0
  6
CONTINUOUS
 62
     7
 10
161.29948
 20
112.85052
 11
184.1727
 21
112.13573
  0
LINE
  8
0
  6
CONTINUOUS
 62
     7
 10
159.77277
 20
114.37723
 11
182.5627
 21
113.66505
  0
LINE
  8
0
  6
CONTINUOUS
 62
     7
 10
182.5627
 20
112.18604
 11
182.5627
 21
150
  0
LINE
  8
0
  6
CONTINUOUS
 62
     7
 10
158
 20
116.14999
 11
161.29948
 21
112.85051
  0
LINE
  8
0
  6
CENTER
 62
     7
 10
223.16878
 20
150
 11
272.81519
 21
150
  0
LINE
  8
0
  6
CONTINUOUS
 62
     7
 10
257.90277
 20
193.29568
 11
267
 21
193.29568
  0
LINE
  8
0
  6
CONTINUOUS
 62
     7
 10
257.90277
 20
180.61467
 11
267
 21
180.61467
  0
LINE
  8
0
  6
CONTINUOUS
 62
     7
 10
267
 20
193.29568
 11
267
 21
150
  0
LINE
  8
0
  6
CONTINUOUS
 62
     7
 10
256
 20
190
 11
256
 21
150
  0
LINE
  8
0
  6
CONTINUOUS
 62
     7
 10
228
 20
183.85001
 11
228
 21
150
  0
LINE
  8
0
  6
CONTINUOUS
 62
     7
 10
256
 20
190
 11
257.90277
 21
193.2957
  0
LINE
  8
0
  6
CONTINUOUS
 62
     7
 10
228
 20
183.84999
 11
231.29948
 21
187.14948
  0
LINE
  8
0
  6
CONTINUOUS
 62
     7
 10
231.29948
 20
187.14948
 11
254.17268
 21
187.86427
  0
LINE
  8
0
  6
CONTINUOUS
 62
     7
 10
229.77278
 20
185.62277
 11
252.56268
 21
186.33496
  0
LINE
  8
0
  6
CONTINUOUS
 62
     7
 10
256
 20
189.60001
 11
252.5627
 21
186.33496
  0
LINE
  8
0
  6
CONTINUOUS
 62
     7
 10
231.29948
 20
187.14949
 11
231.29948
 21
150
  0
LINE
  8
0
  6
CONTINUOUS
 62
     7
 10
229.77278
 20
185.62277
 11
229.77278
 21
150
  0
LINE
  8
0
  6
CONTINUOUS
 62
     7
 10
252.5627
 20
187.81396
 11
252.5627
 21
150
  0
LINE
  8
0
  6
CONTINUOUS
 62
     7
 10
257.90277
 20
150
 11
267
 21
150
  0
LINE
  8
0
  6
CENTER
 62
     7
 10
223.16878
 20
150
 11
272.81519
 21
150
  0
LINE
  8
0
  6
CONTINUOUS
 62
     7
 10
256
 20
110.4
 11
252.5627
 21
113.66504
  0
LINE
  8
0
  6
CONTINUOUS
 62
     7
 10
257.90277
 20
106.70432
 11
267
 21
106.70432
  0
LINE
  8
0
  6
CONTINUOUS
 62
     7
 10
228
 20
116.15
 11
228
 21
150
  0
LINE
  8
0
  6
CONTINUOUS
 62
     7
 10
229.77278
 20
114.37723
 11
229.77278
 21
150
  0
LINE
  8
0
  6
CONTINUOUS
 62
     7
 10
256
 20
110
 11
256
 21
150
  0
LINE
  8
0
  6
CONTINUOUS
 62
     7
 10
257.90277
 20
119.38532
 11
267
 21
119.38532
  0
LINE
  8
0
  6
CONTINUOUS
 62
     7
 10
267
 20
106.70432
 11
267
 21
150
  0
LINE
  8
0
  6
CONTINUOUS
 62
     7
 10
256
 20
110.00001
 11
257.90277
 21
106.70432
  0
LINE
  8
0
  6
CONTINUOUS
 62
     7
 10
231.29948
 20
112.85052
 11
231.29948
 21
150
  0
LINE
  8
0
  6
CONTINUOUS
 62
     7
 10
257.90277
 20
150
 11
267
 21
150
  0
LINE
  8
0
  6
CONTINUOUS
 62
     7
 10
231.29948
 20
112.85052
 11
254.17268
 21
112.13573
  0
LINE
  8
0
  6
CONTINUOUS
 62
     7
 10
229.77278
 20
114.37723
 11
252.56268
 21
113.66505
  0
LINE
  8
0
  6
CONTINUOUS
 62
     7
 10
252.5627
 20
112.18604
 11
252.5627
 21
150
  0
LINE
  8
0
  6
CONTINUOUS
 62
     7
 10
228
 20
116.15
 11
231.29948
 21
112.85052
  0
LINE
  8
0
  6
CENTER
 62
     7
 10
386.16879
 20
340
 11
435.81519
 21
340
  0
LINE
  8
0
  6
CONTINUOUS
 62
     7
 10
420.90277
 20
383.29568
 11
430
 21
383.29568
  0
LINE
  8
0
  6
CONTINUOUS
 62
     7
 10
420.90277
 20
370.61469
 11
430
 21
370.61469
  0
LINE
  8
0
  6
CONTINUOUS
 62
     7
 10
430
 20
383.29568
 11
430
 21
340
  0
LINE
  8
0
  6
CONTINUOUS
 62
     7
 10
419
 20
380
 11
419
 21
340
  0
LINE
  8
0
  6
CONTINUOUS
 62
     7
 10
391
 20
373.85001
 11
391
 21
340
  0
LINE
  8
0
  6
CONTINUOUS
 62
     7
 10
419
 20
380
 11
420.90277
 21
383.29572
  0
LINE
  8
0
  6
CONTINUOUS
 62
     7
 10
391
 20
373.85001
 11
394.2995
 21
377.14951
  0
LINE
  8
0
  6
CONTINUOUS
 62
     7
 10
394.2995
 20
377.14948
 11
417.1727
 21
377.86429
  0
LINE
  8
0
  6
CONTINUOUS
 62
     7
 10
392.77277
 20
375.62277
 11
415.56268
 21
376.33496
  0
LINE
  8
0
  6
CONTINUOUS
 62
     7
 10
418.99997
 20
379.60001
 11
415.56268
 21
376.33496
  0
LINE
  8
0
  6
CONTINUOUS
 62
     7
 10
394.2995
 20
377.14948
 11
394.2995
 21
340
  0
LINE
  8
0
  6
CONTINUOUS
 62
     7
 10
392.77277
 20
375.62277
 11
392.77277
 21
340
  0
LINE
  8
0
  6
CONTINUOUS
 62
     7
 10
415.56268
 20
377.81396
 11
415.56268
 21
340
  0
LINE
  8
0
  6
CONTINUOUS
 62
     7
 10
420.90277
 20
340
 11
430
 21
340
  0
LINE
  8
0
  6
CENTER
 62
     7
 10
386.16879
 20
340
 11
435.81519
 21
340
  0
LINE
  8
0
  6
CONTINUOUS
 62
     7
 10
419
 20
300.39999
 11
415.56268
 21
303.66504
  0
LINE
  8
0
  6
CONTINUOUS
 62
     7
 10
420.90277
 20
296.70432
 11
430
 21
296.70432
  0
LINE
  8
0
  6
CONTINUOUS
 62
     7
 10
391
 20
306.14999
 11
391
 21
340
  0
LINE
  8
0
  6
CONTINUOUS
 62
     7
 10
392.77277
 20
304.37723
 11
392.77277
 21
340
  0
LINE
  8
0
  6
CONTINUOUS
 62
     7
 10
419
 20
300
 11
419
 21
340
  0
LINE
  8
0
  6
CONTINUOUS
 62
     7
 10
420.90277
 20
309.38531
 11
430
 21
309.38531
  0
LINE
  8
0
  6
CONTINUOUS
 62
     7
 10
430
 20
296.70432
 11
430
 21
340
  0
LINE
  8
0
  6
CONTINUOUS
 62
     7
 10
418.99997
 20
300
 11
420.90274
 21
296.70432
  0
LINE
  8
0
  6
CONTINUOUS
 62
     7
 10
394.2995
 20
302.85052
 11
394.2995
 21
340
  0
LINE
  8
0
  6
CONTINUOUS
 62
     7
 10
420.90277
 20
340
 11
430
 21
340
  0
LINE
  8
0
  6
CONTINUOUS
 62
     7
 10
394.2995
 20
302.85052
 11
417.1727
 21
302.13571
  0
LINE
  8
0
  6
CONTINUOUS
 62
     7
 10
392.77277
 20
304.37723
 11
415.56268
 21
303.66504
  0
LINE
  8
0
  6
CONTINUOUS
 62
     7
 10
415.56268
 20
302.18604
 11
415.56268
 21
340
  0
LINE
  8
0
  6
CONTINUOUS
 62
     7
 10
391
 20
306.15002
 11
394.2995
 21
302.85052
  0
LINE
  8
0
  6
CONTINUOUS
 62
     7
 10
500.25952
 20
391.41364
 11
510
 21
391.41364
  0
LINE
  8
0
  6
CONTINUOUS
 62
     7
 10
500.25952
 20
376.35492
 11
510
 21
376.35492
  0
LINE
  8
0
  6
CENTER
 62
     7
 10
460.64413
 20
340
 11
516.28296
 21
340
  0
LINE
  8
0
  6
CONTINUOUS
 62
     7
 10
510
 20
391.41364
 11
510
 21
340
  0
LINE
  8
0
  6
CONTINUOUS
 62
     7
 10
466
 20
380.5
 11
466
 21
340
  0
LINE
  8
0
  6
CONTINUOUS
 62
     7
 10
498
 20
387.5
 11
498
 21
340
  0
LINE
  8
0
  6
CONTINUOUS
 62
     7
 10
498
 20
387.5
 11
500.25955
 21
391.41364
  0
LINE
  8
0
  6
CONTINUOUS
 62
     7
 10
500.25952
 20
391.41364
 11
500.25952
 21
340
  0
LINE
  8
0
  6
CONTINUOUS
 62
     7
 10
466.00003
 20
380.50003
 11
468.88724
 21
383.38724
  0
LINE
  8
0
  6
CONTINUOUS
 62
     7
 10
468.88724
 20
383.38724
 11
496.1716
 21
384.23987
  0
LINE
  8
0
  6
CONTINUOUS
 62
     7
 10
467.3605
 20
381.86053
 11
494.58374
 21
382.71124
  0
LINE
  8
0
  6
CONTINUOUS
 62
     7
 10
468.88724
 20
383.38724
 11
468.88724
 21
340
  0
LINE
  8
0
  6
CONTINUOUS
 62
     7
 10
498
 20
386
 11
494.58374
 21
382.71127
  0
LINE
  8
0
  6
CONTINUOUS
 62
     7
 10
467.3605
 20
381.8605
 11
467.3605
 21
340
  0
LINE
  8
0
  6
CONTINUOUS
 62
     7
 10
494.58371
 20
384.19025
 11
494.58371
 21
340
  0
LINE
  8
0
  6
CONTINUOUS
 62
     7
 10
500.25952
 20
288.58636
 11
500.25952
 21
340
  0
LINE
  8
0
  6
CONTINUOUS
 62
     7
 10
500.25952
 20
288.58636
 11
510
 21
288.58636
  0
LINE
  8
0
  6
CONTINUOUS
 62
     7
 10
494.58371
 20
295.80975
 11
494.58371
 21
340
  0
LINE
  8
0
  6
CONTINUOUS
 62
     7
 10
468.88724
 20
296.61276
 11
496.1716
 21
295.76013
  0
LINE
  8
0
  6
CONTINUOUS
 62
     7
 10
498
 20
292.5
 11
500.25952
 21
288.58636
  0
LINE
  8
0
  6
CONTINUOUS
 62
     7
 10
498
 20
292.5
 11
498
 21
340
  0
LINE
  8
0
  6
CONTINUOUS
 62
     7
 10
500.25952
 20
303.64508
 11
510
 21
303.64508
  0
LINE
  8
0
  6
CONTINUOUS
 62
     7
 10
466
 20
299.5
 11
466
 21
340
  0
LINE
  8
0
  6
CONTINUOUS
 62
     7
 10
510
 20
288.58636
 11
510
 21
340
  0
LINE
  8
0
  6
CONTINUOUS
 62
     7
 10
468.88724
 20
296.61276
 11
468.88724
 21
340
  0
LINE
  8
0
  6
CONTINUOUS
 62
     7
 10
467.3605
 20
298.1395
 11
467.3605
 21
340
  0
LINE
  8
0
  6
CONTINUOUS
 62
     7
 10
498.00003
 20
294
 11
494.58374
 21
297.28876
  0
LINE
  8
0
  6
CONTINUOUS
 62
     7
 10
466
 20
299.5
 11
468.88721
 21
296.61276
  0
LINE
  8
0
  6
CONTINUOUS
 62
     7
 10
467.3605
 20
298.13947
 11
494.58374
 21
297.28876
  0
LINE
  8
0
  6
CONTINUOUS
 62
     7
 10
500.25952
 20
340
 11
510
 21
340
  0
LINE
  8
0
  6
CONTINUOUS
 62
     7
 10
580.25952
 20
391.41364
 11
590
 21
391.41364
  0
LINE
  8
0
  6
CONTINUOUS
 62
     7
 10
580.25952
 20
376.35492
 11
590
 21
376.35492
  0
LINE
  8
0
  6
CENTER
 62
     7
 10
540.64417
 20
340
 11
596.28296
 21
340
  0
LINE
  8
0
  6
CONTINUOUS
 62
     7
 10
590
 20
391.41364
 11
590
 21
340
  0
LINE
  8
0
  6
CONTINUOUS
 62
     7
 10
546
 20
380.5
 11
546
 21
340
  0
LINE
  8
0
  6
CONTINUOUS
 62
     7
 10
578
 20
387.5
 11
578
 21
340
  0
LINE
  8
0
  6
CONTINUOUS
 62
     7
 10
578
 20
387.5
 11
580.25958
 21
391.41364
  0
LINE
  8
0
  6
CONTINUOUS
 62
     7
 10
580.25952
 20
391.41364
 11
580.25952
 21
340
  0
LINE
  8
0
  6
CONTINUOUS
 62
     7
 10
546
 20
380.5
 11
548.88721
 21
383.38724
  0
LINE
  8
0
  6
CONTINUOUS
 62
     7
 10
548.88721
 20
383.38724
 11
576.17163
 21
384.23987
  0
LINE
  8
0
  6
CONTINUOUS
 62
     7
 10
547.36053
 20
381.86053
 11
574.58374
 21
382.71124
  0
LINE
  8
0
  6
CONTINUOUS
 62
     7
 10
548.88721
 20
383.38724
 11
548.88721
 21
340
  0
LINE
  8
0
  6
CONTINUOUS
 62
     7
 10
578
 20
386.00003
 11
574.58368
 21
382.71124
  0
LINE
  8
0
  6
CONTINUOUS
 62
     7
 10
547.36053
 20
381.8605
 11
547.36053
 21
340
  0
LINE
  8
0
  6
CONTINUOUS
 62
     7
 10
574.58374
 20
384.19025
 11
574.58374
 21
340
  0
LINE
  8
0
  6
CONTINUOUS
 62
     7
 10
580.25952
 20
288.58636
 11
580.25952
 21
340
  0
LINE
  8
0
  6
CONTINUOUS
 62
     7
 10
580.25952
 20
288.58636
 11
590
 21
288.58636
  0
LINE
  8
0
  6
CONTINUOUS
 62
     7
 10
574.58374
 20
295.80975
 11
574.58374
 21
340
  0
LINE
  8
0
  6
CONTINUOUS
 62
     7
 10
548.88721
 20
296.61276
 11
576.17157
 21
295.76013
  0
LINE
  8
0
  6
CONTINUOUS
 62
     7
 10
578
 20
292.5
 11
580.25952
 21
288.58636
  0
LINE
  8
0
  6
CONTINUOUS
 62
     7
 10
578
 20
292.5
 11
578
 21
340
  0
LINE
  8
0
  6
CONTINUOUS
 62
     7
 10
580.25952
 20
303.64508
 11
590
 21
303.64508
  0
LINE
  8
0
  6
CONTINUOUS
 62
     7
 10
546
 20
299.5
 11
546
 21
340
  0
LINE
  8
0
  6
CONTINUOUS
 62
     7
 10
590
 20
288.58636
 11
590
 21
340
  0
LINE
  8
0
  6
CONTINUOUS
 62
     7
 10
548.88721
 20
296.61276
 11
548.88721
 21
340
  0
LINE
  8
0
  6
CONTINUOUS
 62
     7
 10
547.36053
 20
298.1395
 11
547.36053
 21
340
  0
LINE
  8
0
  6
CONTINUOUS
 62
     7
 10
578
 20
294
 11
574.58374
 21
297.28876
  0
LINE
  8
0
  6
CONTINUOUS
 62
     7
 10
546
 20
299.5
 11
548.88721
 21
296.61276
  0
LINE
  8
0
  6
CONTINUOUS
 62
     7
 10
547.36053
 20
298.13947
 11
574.58374
 21
297.28876
  0
LINE
  8
0
  6
CONTINUOUS
 62
     7
 10
580.25952
 20
340
 11
590
 21
340
  0
LINE
  8
0
  6
CONTINUOUS
 62
     7
 10
660.25952
 20
391.41364
 11
670
 21
391.41364
  0
LINE
  8
0
  6
CONTINUOUS
 62
     7
 10
660.25952
 20
376.35492
 11
670
 21
376.35492
  0
LINE
  8
0
  6
CENTER
 62
     7
 10
620.64417
 20
340
 11
676.28296
 21
340
  0
LINE
  8
0
  6
CONTINUOUS
 62
     7
 10
670
 20
391.41364
 11
670
 21
340
  0
LINE
  8
0
  6
CONTINUOUS
 62
     7
 10
626
 20
380.5
 11
626
 21
340
  0
LINE
  8
0
  6
CONTINUOUS
 62
     7
 10
658
 20
387.5
 11
658
 21
340
  0
LINE
  8
0
  6
CONTINUOUS
 62
     7
 10
658
 20
387.5
 11
660.25958
 21
391.41364
  0
LINE
  8
0
  6
CONTINUOUS
 62
     7
 10
660.25952
 20
391.41364
 11
660.25952
 21
340
  0
LINE
  8
0
  6
CONTINUOUS
 62
     7
 10
626
 20
380.5
 11
628.88721
 21
383.38721
  0
LINE
  8
0
  6
CONTINUOUS
 62
     7
 10
628.88721
 20
383.38724
 11
656.17163
 21
384.23987
  0
LINE
  8
0
  6
CONTINUOUS
 62
     7
 10
627.36053
 20
381.86053
 11
654.58368
 21
382.71124
  0
LINE
  8
0
  6
CONTINUOUS
 62
     7
 10
628.88721
 20
383.38724
 11
628.88721
 21
340
  0
LINE
  8
0
  6
CONTINUOUS
 62
     7
 10
658
 20
386.00003
 11
654.58374
 21
382.71124
  0
LINE
  8
0
  6
CONTINUOUS
 62
     7
 10
627.36053
 20
381.8605
 11
627.36053
 21
340
  0
LINE
  8
0
  6
CONTINUOUS
 62
     7
 10
654.58374
 20
384.19025
 11
654.58374
 21
340
  0
LINE
  8
0
  6
CONTINUOUS
 62
     7
 10
660.25952
 20
288.58636
 11
660.25952
 21
340
  0
LINE
  8
0
  6
CONTINUOUS
 62
     7
 10
660.25952
 20
288.58636
 11
670
 21
288.58636
  0
LINE
  8
0
  6
CONTINUOUS
 62
     7
 10
654.58374
 20
295.80975
 11
654.58374
 21
340
  0
LINE
  8
0
  6
CONTINUOUS
 62
     7
 10
628.88721
 20
296.61276
 11
656.17163
 21
295.76013
  0
LINE
  8
0
  6
CONTINUOUS
 62
     7
 10
658
 20
292.5
 11
660.25952
 21
288.58636
  0
LINE
  8
0
  6
CONTINUOUS
 62
     7
 10
658
 20
292.5
 11
658
 21
340
  0
LINE
  8
0
  6
CONTINUOUS
 62
     7
 10
660.25952
 20
303.64508
 11
670
 21
303.64508
  0
LINE
  8
0
  6
CONTINUOUS
 62
     7
 10
626
 20
299.5
 11
626
 21
340
  0
LINE
  8
0
  6
CONTINUOUS
 62
     7
 10
670
 20
288.58636
 11
670
 21
340
  0
LINE
  8
0
  6
CONTINUOUS
 62
     7
 10
628.88721
 20
296.61276
 11
628.88721
 21
340
  0
LINE
  8
0
  6
CONTINUOUS
 62
     7
 10
627.36053
 20
298.1395
 11
627.36053
 21
340
  0
LINE
  8
0
  6
CONTINUOUS
 62
     7
 10
658
 20
293.99997
 11
654.58374
 21
297.28876
  0
LINE
  8
0
  6
CONTINUOUS
 62
     7
 10
626
 20
299.5
 11
628.88721
 21
296.61276
  0
LINE
  8
0
  6
CONTINUOUS
 62
     7
 10
627.36053
 20
298.13947
 11
654.58368
 21
297.28876
  0
LINE
  8
0
  6
CONTINUOUS
 62
     7
 10
660.25952
 20
340
 11
670
 21
340
  0
LINE
  8
0
  6
CONTINUOUS
 62
     7
 10
740.25952
 20
391.41364
 11
750
 21
391.41364
  0
LINE
  8
0
  6
CONTINUOUS
 62
     7
 10
740.25952
 20
376.35492
 11
750
 21
376.35492
  0
LINE
  8
0
  6
CENTER
 62
     7
 10
700.64417
 20
340
 11
756.28296
 21
340
  0
LINE
  8
0
  6
CONTINUOUS
 62
     7
 10
750
 20
391.41364
 11
750
 21
340
  0
LINE
  8
0
  6
CONTINUOUS
 62
     7
 10
706
 20
380.5
 11
706
 21
340
  0
LINE
  8
0
  6
CONTINUOUS
 62
     7
 10
738
 20
387.5
 11
738
 21
340
  0
LINE
  8
0
  6
CONTINUOUS
 62
     7
 10
738
 20
387.5
 11
740.25952
 21
391.41367
  0
LINE
  8
0
  6
CONTINUOUS
 62
     7
 10
740.25952
 20
391.41364
 11
740.25952
 21
340
  0
LINE
  8
0
  6
CONTINUOUS
 62
     7
 10
706
 20
380.5
 11
708.88721
 21
383.38724
  0
LINE
  8
0
  6
CONTINUOUS
 62
     7
 10
708.88727
 20
383.38724
 11
736.17157
 21
384.23987
  0
LINE
  8
0
  6
CONTINUOUS
 62
     7
 10
707.36053
 20
381.86053
 11
734.58374
 21
382.71124
  0
LINE
  8
0
  6
CONTINUOUS
 62
     7
 10
708.88721
 20
383.38724
 11
708.88721
 21
340
  0
LINE
  8
0
  6
CONTINUOUS
 62
     7
 10
738
 20
386
 11
734.58374
 21
382.71127
  0
LINE
  8
0
  6
CONTINUOUS
 62
     7
 10
707.36053
 20
381.8605
 11
707.36053
 21
340
  0
LINE
  8
0
  6
CONTINUOUS
 62
     7
 10
734.58374
 20
384.19025
 11
734.58374
 21
340
  0
LINE
  8
0
  6
CONTINUOUS
 62
     7
 10
740.25952
 20
288.58636
 11
740.25952
 21
340
  0
LINE
  8
0
  6
CONTINUOUS
 62
     7
 10
740.25952
 20
288.58636
 11
750
 21
288.58636
  0
LINE
  8
0
  6
CONTINUOUS
 62
     7
 10
734.58374
 20
295.80975
 11
734.58374
 21
340
  0
LINE
  8
0
  6
CONTINUOUS
 62
     7
 10
708.88727
 20
296.61276
 11
736.17157
 21
295.76013
  0
LINE
  8
0
  6
CONTINUOUS
 62
     7
 10
738
 20
292.50003
 11
740.25958
 21
288.5864
  0
LINE
  8
0
  6
CONTINUOUS
 62
     7
 10
738
 20
292.5
 11
738
 21
340
  0
LINE
  8
0
  6
CONTINUOUS
 62
     7
 10
740.25952
 20
303.64508
 11
750
 21
303.64508
  0
LINE
  8
0
  6
CONTINUOUS
 62
     7
 10
706
 20
299.5
 11
706
 21
340
  0
LINE
  8
0
  6
CONTINUOUS
 62
     7
 10
750
 20
288.58636
 11
750
 21
340
  0
LINE
  8
0
  6
CONTINUOUS
 62
     7
 10
708.88721
 20
296.61276
 11
708.88721
 21
340
  0
LINE
  8
0
  6
CONTINUOUS
 62
     7
 10
707.36053
 20
298.1395
 11
707.36053
 21
340
  0
LINE
  8
0
  6
CONTINUOUS
 62
     7
 10
738
 20
294
 11
734.58374
 21
297.28876
  0
LINE
  8
0
  6
CONTINUOUS
 62
     7
 10
706
 20
299.5
 11
708.88721
 21
296.61276
  0
LINE
  8
0
  6
CONTINUOUS
 62
     7
 10
707.36053
 20
298.13947
 11
734.58374
 21
297.28876
  0
LINE
  8
0
  6
CONTINUOUS
 62
     7
 10
740.25952
 20
340
 11
750
 21
340
  0
LINE
  8
0
  6
CONTINUOUS
 62
     7
 10
820.40955
 20
390.86362
 11
830.15002
 21
390.86362
  0
LINE
  8
0
  6
CONTINUOUS
 62
     7
 10
820.40955
 20
375.80493
 11
830.15002
 21
375.80493
  0
LINE
  8
0
  6
CENTER
 62
     7
 10
780.79413
 20
339.45001
 11
836.43298
 21
339.45001
  0
LINE
  8
0
  6
CONTINUOUS
 62
     7
 10
830.15002
 20
390.86362
 11
830.15002
 21
339.45001
  0
LINE
  8
0
  6
CONTINUOUS
 62
     7
 10
786.15002
 20
379.95001
 11
786.15002
 21
339.45001
  0
LINE
  8
0
  6
CONTINUOUS
 62
     7
 10
818.15002
 20
386.95001
 11
818.15002
 21
339.45001
  0
LINE
  8
0
  6
CONTINUOUS
 62
     7
 10
818.14996
 20
386.95001
 11
820.40948
 21
390.86362
  0
LINE
  8
0
  6
CONTINUOUS
 62
     7
 10
820.40955
 20
390.86362
 11
820.40955
 21
339.45001
  0
LINE
  8
0
  6
CONTINUOUS
 62
     7
 10
786.15002
 20
379.95001
 11
789.03723
 21
382.83722
  0
LINE
  8
0
  6
CONTINUOUS
 62
     7
 10
789.03723
 20
382.83722
 11
816.32159
 21
383.68988
  0
LINE
  8
0
  6
CONTINUOUS
 62
     7
 10
787.5105
 20
381.31049
 11
814.7337
 21
382.16122
  0
LINE
  8
0
  6
CONTINUOUS
 62
     7
 10
789.03723
 20
382.83722
 11
789.03723
 21
339.45001
  0
LINE
  8
0
  6
CONTINUOUS
 62
     7
 10
818.15002
 20
385.45001
 11
814.73376
 21
382.16125
  0
LINE
  8
0
  6
CONTINUOUS
 62
     7
 10
787.5105
 20
381.31052
 11
787.5105
 21
339.45001
  0
LINE
  8
0
  6
CONTINUOUS
 62
     7
 10
814.7337
 20
383.64023
 11
814.7337
 21
339.45001
  0
LINE
  8
0
  6
CONTINUOUS
 62
     7
 10
820.40955
 20
288.03638
 11
820.40955
 21
339.45001
  0
LINE
  8
0
  6
CONTINUOUS
 62
     7
 10
820.40955
 20
288.03638
 11
830.15002
 21
288.03638
  0
LINE
  8
0
  6
CONTINUOUS
 62
     7
 10
814.7337
 20
295.25977
 11
814.7337
 21
339.45001
  0
LINE
  8
0
  6
CONTINUOUS
 62
     7
 10
789.03723
 20
296.06277
 11
816.32166
 21
295.21014
  0
LINE
  8
0
  6
CONTINUOUS
 62
     7
 10
818.14996
 20
291.95001
 11
820.40955
 21
288.03638
  0
LINE
  8
0
  6
CONTINUOUS
 62
     7
 10
818.15002
 20
291.95001
 11
818.15002
 21
339.45001
  0
LINE
  8
0
  6
CONTINUOUS
 62
     7
 10
820.40955
 20
303.09506
 11
830.15002
 21
303.09506
  0
LINE
  8
0
  6
CONTINUOUS
 62
     7
 10
786.15002
 20
298.95001
 11
786.15002
 21
339.45001
  0
LINE
  8
0
  6
CONTINUOUS
 62
     7
 10
830.15002
 20
288.03638
 11
830.15002
 21
339.45001
  0
LINE
  8
0
  6
CONTINUOUS
 62
     7
 10
789.03723
 20
296.06277
 11
789.03723
 21
339.45001
  0
LINE
  8
0
  6
CONTINUOUS
 62
     7
 10
787.5105
 20
297.58948
 11
787.5105
 21
339.45001
  0
LINE
  8
0
  6
CONTINUOUS
 62
     7
 10
818.15002
 20
293.44998
 11
814.73376
 21
296.73877
  0
LINE
  8
0
  6
CONTINUOUS
 62
     7
 10
786.14996
 20
298.95001
 11
789.03723
 21
296.06277
  0
LINE
  8
0
  6
CONTINUOUS
 62
     7
 10
787.5105
 20
297.58948
 11
814.7337
 21
296.73874
  0
LINE
  8
0
  6
CONTINUOUS
 62
     7
 10
820.40955
 20
339.45001
 11
830.15002
 21
339.45001
  0
LINE
  8
0
  6
CONTINUOUS
 62
     7
 10
901.28455
 20
392.08862
 11
911.02502
 21
392.08862
  0
LINE
  8
0
  6
CONTINUOUS
 62
     7
 10
901.28455
 20
377.02994
 11
911.02502
 21
377.02994
  0
LINE
  8
0
  6
CENTER
 62
     7
 10
861.66913
 20
340.67499
 11
917.30798
 21
340.67499
  0
LINE
  8
0
  6
CONTINUOUS
 62
     7
 10
911.02502
 20
392.08862
 11
911.02502
 21
340.67499
  0
LINE
  8
0
  6
CONTINUOUS
 62
     7
 10
867.02502
 20
381.17499
 11
867.02502
 21
340.67499
  0
LINE
  8
0
  6
CONTINUOUS
 62
     7
 10
899.02502
 20
388.17499
 11
899.02502
 21
340.67499
  0
LINE
  8
0
  6
CONTINUOUS
 62
     7
 10
899.02496
 20
388.17499
 11
901.28455
 21
392.08865
  0
LINE
  8
0
  6
CONTINUOUS
 62
     7
 10
901.28455
 20
392.08862
 11
901.28455
 21
340.67499
  0
LINE
  8
0
  6
CONTINUOUS
 62
     7
 10
867.02502
 20
381.17502
 11
869.91223
 21
384.06223
  0
LINE
  8
0
  6
CONTINUOUS
 62
     7
 10
869.91223
 20
384.06223
 11
897.19659
 21
384.91486
  0
LINE
  8
0
  6
CONTINUOUS
 62
     7
 10
868.3855
 20
382.53552
 11
895.60876
 21
383.38623
  0
LINE
  8
0
  6
CONTINUOUS
 62
     7
 10
869.91223
 20
384.06223
 11
869.91223
 21
340.67499
  0
LINE
  8
0
  6
CONTINUOUS
 62
     7
 10
899.02496
 20
386.67502
 11
895.6087
 21
383.38626
  0
LINE
  8
0
  6
CONTINUOUS
 62
     7
 10
868.3855
 20
382.53552
 11
868.3855
 21
340.67499
  0
LINE
  8
0
  6
CONTINUOUS
 62
     7
 10
895.6087
 20
384.86523
 11
895.6087
 21
340.67499
  0
LINE
  8
0
  6
CONTINUOUS
 62
     7
 10
901.28455
 20
289.26138
 11
901.28455
 21
340.67499
  0
LINE
  8
0
  6
CONTINUOUS
 62
     7
 10
901.28455
 20
289.26138
 11
911.02502
 21
289.26138
  0
LINE
  8
0
  6
CONTINUOUS
 62
     7
 10
895.6087
 20
296.48477
 11
895.6087
 21
340.67499
  0
LINE
  8
0
  6
CONTINUOUS
 62
     7
 10
869.91223
 20
297.28778
 11
897.19659
 21
296.43515
  0
LINE
  8
0
  6
CONTINUOUS
 62
     7
 10
899.02502
 20
293.17502
 11
901.28455
 21
289.26138
  0
LINE
  8
0
  6
CONTINUOUS
 62
     7
 10
899.02502
 20
293.17499
 11
899.02502
 21
340.67499
  0
LINE
  8
0
  6
CONTINUOUS
 62
     7
 10
901.28455
 20
304.32007
 11
911.02502
 21
304.32007
  0
LINE
  8
0
  6
CONTINUOUS
 62
     7
 10
867.02502
 20
300.17499
 11
867.02502
 21
340.67499
  0
LINE
  8
0
  6
CONTINUOUS
 62
     7
 10
911.02502
 20
289.26138
 11
911.02502
 21
340.67499
  0
LINE
  8
0
  6
CONTINUOUS
 62
     7
 10
869.91223
 20
297.28778
 11
869.91223
 21
340.67499
  0
LINE
  8
0
  6
CONTINUOUS
 62
     7
 10
868.3855
 20
298.81448
 11
868.3855
 21
340.67499
  0
LINE
  8
0
  6
CONTINUOUS
 62
     7
 10
899.02496
 20
294.67496
 11
895.6087
 21
297.96375
  0
LINE
  8
0
  6
CONTINUOUS
 62
     7
 10
867.02502
 20
300.17499
 11
869.91223
 21
297.28778
  0
LINE
  8
0
  6
CONTINUOUS
 62
     7
 10
868.3855
 20
298.81448
 11
895.60876
 21
297.96375
  0
LINE
  8
0
  6
CONTINUOUS
 62
     7
 10
901.28455
 20
340.67499
 11
911.02502
 21
340.67499
  0
LINE
  8
0
  6
CONTINUOUS
 62
     7
 10
421.80954
 20
201.56363
 11
431.54999
 21
201.56363
  0
LINE
  8
0
  6
CONTINUOUS
 62
     7
 10
421.80954
 20
186.50493
 11
431.54999
 21
186.50493
  0
LINE
  8
0
  6
CENTER
 62
     7
 10
382.19415
 20
150.14999
 11
437.83298
 21
150.14999
  0
LINE
  8
0
  6
CONTINUOUS
 62
     7
 10
431.54999
 20
201.56363
 11
431.54999
 21
150.14999
  0
LINE
  8
0
  6
CONTINUOUS
 62
     7
 10
387.54999
 20
190.64999
 11
387.54999
 21
150.14999
  0
LINE
  8
0
  6
CONTINUOUS
 62
     7
 10
419.54999
 20
197.64999
 11
419.54999
 21
150.14999
  0
LINE
  8
0
  6
CONTINUOUS
 62
     7
 10
419.54999
 20
197.64999
 11
421.80954
 21
201.56363
  0
LINE
  8
0
  6
CONTINUOUS
 62
     7
 10
421.80954
 20
201.56363
 11
421.80954
 21
150.14999
  0
LINE
  8
0
  6
CONTINUOUS
 62
     7
 10
387.55002
 20
190.65001
 11
390.43723
 21
193.53723
  0
LINE
  8
0
  6
CONTINUOUS
 62
     7
 10
390.43723
 20
193.53723
 11
417.72162
 21
194.38986
  0
LINE
  8
0
  6
CONTINUOUS
 62
     7
 10
388.91052
 20
192.01053
 11
416.13373
 21
192.86125
  0
LINE
  8
0
  6
CONTINUOUS
 62
     7
 10
390.43723
 20
193.53723
 11
390.43723
 21
150.14999
  0
LINE
  8
0
  6
CONTINUOUS
 62
     7
 10
419.55002
 20
196.15002
 11
416.13373
 21
192.86125
  0
LINE
  8
0
  6
CONTINUOUS
 62
     7
 10
388.91052
 20
192.01051
 11
388.91052
 21
150.14999
  0
LINE
  8
0
  6
CONTINUOUS
 62
     7
 10
416.13373
 20
194.34024
 11
416.13373
 21
150.14999
  0
LINE
  8
0
  6
CONTINUOUS
 62
     7
 10
421.80954
 20
98.736374
 11
421.80954
 21
150.14999
  0
LINE
  8
0
  6
CONTINUOUS
 62
     7
 10
421.80954
 20
98.736374
 11
431.54999
 21
98.736374
  0
LINE
  8
0
  6
CONTINUOUS
 62
     7
 10
416.13373
 20
105.95975
 11
416.13373
 21
150.14999
  0
LINE
  8
0
  6
CONTINUOUS
 62
     7
 10
390.43723
 20
106.76278
 11
417.72162
 21
105.91014
  0
LINE
  8
0
  6
CONTINUOUS
 62
     7
 10
419.54999
 20
102.65
 11
421.80954
 21
98.736374
  0
LINE
  8
0
  6
CONTINUOUS
 62
     7
 10
419.54999
 20
102.65
 11
419.54999
 21
150.14999
  0
LINE
  8
0
  6
CONTINUOUS
 62
     7
 10
421.80954
 20
113.79507
 11
431.54999
 21
113.79507
  0
LINE
  8
0
  6
CONTINUOUS
 62
     7
 10
387.54999
 20
109.65
 11
387.54999
 21
150.14999
  0
LINE
  8
0
  6
CONTINUOUS
 62
     7
 10
431.54999
 20
98.736374
 11
431.54999
 21
150.14999
  0
LINE
  8
0
  6
CONTINUOUS
 62
     7
 10
390.43723
 20
106.76277
 11
390.43723
 21
150.14999
  0
LINE
  8
0
  6
CONTINUOUS
 62
     7
 10
388.91052
 20
108.28948
 11
388.91052
 21
150.14999
  0
LINE
  8
0
  6
CONTINUOUS
 62
     7
 10
419.54999
 20
104.14999
 11
416.13373
 21
107.43876
  0
LINE
  8
0
  6
CONTINUOUS
 62
     7
 10
387.54999
 20
109.65
 11
390.43723
 21
106.76278
  0
LINE
  8
0
  6
CONTINUOUS
 62
     7
 10
388.91052
 20
108.28948
 11
416.13373
 21
107.43876
  0
LINE
  8
0
  6
CONTINUOUS
 62
     7
 10
421.80954
 20
150.14999
 11
431.54999
 21
150.14999
  0
LINE
  8
0
  6
CENTER
 62
     7
 10
462.32367
 20
150
 11
526.41052
 21
150
  0
LINE
  8
0
  6
CONTINUOUS
 62
     7
 10
508.85416
 20
214.94353
 11
520
 21
214.94353
  0
LINE
  8
0
  6
CONTINUOUS
 62
     7
 10
520
 20
214.94353
 11
520
 21
150
  0
LINE
  8
0
  6
CONTINUOUS
 62
     7
 10
469
 20
202.75
 11
469
 21
150
  0
LINE
  8
0
  6
CONTINUOUS
 62
     7
 10
506
 20
210
 11
506
 21
150
  0
LINE
  8
0
  6
CONTINUOUS
 62
     7
 10
506
 20
209.99998
 11
508.85416
 21
214.94353
  0
LINE
  8
0
  6
CONTINUOUS
 62
     7
 10
508.85416
 20
195.92201
 11
520
 21
195.92201
  0
LINE
  8
0
  6
CONTINUOUS
 62
     7
 10
469
 20
202.75
 11
472.06711
 21
205.81709
  0
LINE
  8
0
  6
CONTINUOUS
 62
     7
 10
472.06711
 20
205.81711
 11
504.13913
 21
206.81935
  0
LINE
  8
0
  6
CONTINUOUS
 62
     7
 10
505.99997
 20
208.39999
 11
502.33139
 21
205.28386
  0
LINE
  8
0
  6
CONTINUOUS
 62
     7
 10
470.54037
 20
204.29039
 11
470.54037
 21
150
  0
LINE
  8
0
  6
CONTINUOUS
 62
     7
 10
472.06711
 20
205.81709
 11
472.06711
 21
150
  0
LINE
  8
0
  6
CONTINUOUS
 62
     7
 10
502.33142
 20
206.76286
 11
502.33142
 21
150
  0
LINE
  8
0
  6
CONTINUOUS
 62
     7
 10
470.54041
 20
204.29039
 11
502.33139
 21
205.28386
  0
LINE
  8
0
  6
CENTER
 62
     7
 10
462.32367
 20
150
 11
526.41052
 21
150
  0
LINE
  8
0
  6
CONTINUOUS
 62
     7
 10
508.85416
 20
104.07799
 11
520
 21
104.07799
  0
LINE
  8
0
  6
CONTINUOUS
 62
     7
 10
502.33142
 20
93.237144
 11
502.33142
 21
150
  0
LINE
  8
0
  6
CONTINUOUS
 62
     7
 10
470.54037
 20
95.70961
 11
470.54037
 21
150
  0
LINE
  8
0
  6
CONTINUOUS
 62
     7
 10
470.54037
 20
95.709618
 11
502.33139
 21
94.716148
  0
LINE
  8
0
  6
CONTINUOUS
 62
     7
 10
506
 20
90.000015
 11
508.85416
 21
85.05648
  0
LINE
  8
0
  6
CONTINUOUS
 62
     7
 10
472.06711
 20
94.182899
 11
472.06711
 21
150
  0
LINE
  8
0
  6
CONTINUOUS
 62
     7
 10
508.85416
 20
85.056465
 11
520
 21
85.056465
  0
LINE
  8
0
  6
CONTINUOUS
 62
     7
 10
469
 20
97.249992
 11
472.06711
 21
94.182899
  0
LINE
  8
0
  6
CONTINUOUS
 62
     7
 10
506
 20
90
 11
506
 21
150
  0
LINE
  8
0
  6
CONTINUOUS
 62
     7
 10
472.06711
 20
94.182907
 11
504.13913
 21
93.180656
  0
LINE
  8
0
  6
CONTINUOUS
 62
     7
 10
469
 20
97.25
 11
469
 21
150
  0
LINE
  8
0
  6
CONTINUOUS
 62
     7
 10
506
 20
91.599998
 11
502.33139
 21
94.716141
  0
LINE
  8
0
  6
CONTINUOUS
 62
     7
 10
520
 20
85.056465
 11
520
 21
150
  0
LINE
  8
0
  6
CONTINUOUS
 62
     7
 10
508.85416
 20
150
 11
520
 21
150
  0
LINE
  8
0
  6
CENTER
 62
     7
 10
552.32367
 20
150
 11
616.41052
 21
150
  0
LINE
  8
0
  6
CONTINUOUS
 62
     7
 10
598.85413
 20
214.94353
 11
610
 21
214.94353
  0
LINE
  8
0
  6
CONTINUOUS
 62
     7
 10
610
 20
214.94353
 11
610
 21
150
  0
LINE
  8
0
  6
CONTINUOUS
 62
     7
 10
559
 20
202.75
 11
559
 21
150
  0
LINE
  8
0
  6
CONTINUOUS
 62
     7
 10
596
 20
210
 11
596
 21
150
  0
LINE
  8
0
  6
CONTINUOUS
 62
     7
 10
596
 20
209.99998
 11
598.85419
 21
214.94353
  0
LINE
  8
0
  6
CONTINUOUS
 62
     7
 10
598.85413
 20
195.92201
 11
610
 21
195.92201
  0
LINE
  8
0
  6
CONTINUOUS
 62
     7
 10
559
 20
202.75
 11
562.06708
 21
205.81709
  0
LINE
  8
0
  6
CONTINUOUS
 62
     7
 10
562.06708
 20
205.81711
 11
594.1391
 21
206.81935
  0
LINE
  8
0
  6
CONTINUOUS
 62
     7
 10
596
 20
208.40001
 11
592.33142
 21
205.28386
  0
LINE
  8
0
  6
CONTINUOUS
 62
     7
 10
560.54041
 20
204.29039
 11
560.54041
 21
150
  0
LINE
  8
0
  6
CONTINUOUS
 62
     7
 10
562.06708
 20
205.81709
 11
562.06708
 21
150
  0
LINE
  8
0
  6
CONTINUOUS
 62
     7
 10
592.33142
 20
206.76286
 11
592.33142
 21
150
  0
LINE
  8
0
  6
CONTINUOUS
 62
     7
 10
560.54034
 20
204.29039
 11
592.33142
 21
205.28386
  0
LINE
  8
0
  6
CENTER
 62
     7
 10
552.32367
 20
150
 11
616.41052
 21
150
  0
LINE
  8
0
  6
CONTINUOUS
 62
     7
 10
598.85413
 20
104.07799
 11
610
 21
104.07799
  0
LINE
  8
0
  6
CONTINUOUS
 62
     7
 10
592.33142
 20
93.237144
 11
592.33142
 21
150
  0
LINE
  8
0
  6
CONTINUOUS
 62
     7
 10
560.54041
 20
95.70961
 11
560.54041
 21
150
  0
LINE
  8
0
  6
CONTINUOUS
 62
     7
 10
560.54034
 20
95.709618
 11
592.33142
 21
94.716148
  0
LINE
  8
0
  6
CONTINUOUS
 62
     7
 10
596
 20
90
 11
598.85413
 21
85.056473
  0
LINE
  8
0
  6
CONTINUOUS
 62
     7
 10
562.06708
 20
94.182899
 11
562.06708
 21
150
  0
LINE
  8
0
  6
CONTINUOUS
 62
     7
 10
598.85413
 20
85.056465
 11
610
 21
85.056465
  0
LINE
  8
0
  6
CONTINUOUS
 62
     7
 10
559
 20
97.250015
 11
562.06714
 21
94.182899
  0
LINE
  8
0
  6
CONTINUOUS
 62
     7
 10
596
 20
90
 11
596
 21
150
  0
LINE
  8
0
  6
CONTINUOUS
 62
     7
 10
562.06708
 20
94.182907
 11
594.1391
 21
93.180656
  0
LINE
  8
0
  6
CONTINUOUS
 62
     7
 10
559
 20
97.25
 11
559
 21
150
  0
LINE
  8
0
  6
CONTINUOUS
 62
     7
 10
596
 20
91.599991
 11
592.33142
 21
94.716133
  0
LINE
  8
0
  6
CONTINUOUS
 62
     7
 10
610
 20
85.056465
 11
610
 21
150
  0
LINE
  8
0
  6
CONTINUOUS
 62
     7
 10
598.85413
 20
150
 11
610
 21
150
  0
LINE
  8
0
  6
CENTER
 62
     7
 10
642.32367
 20
150
 11
706.41052
 21
150
  0
LINE
  8
0
  6
CONTINUOUS
 62
     7
 10
688.85413
 20
214.94353
 11
700
 21
214.94353
  0
LINE
  8
0
  6
CONTINUOUS
 62
     7
 10
700
 20
214.94353
 11
700
 21
150
  0
LINE
  8
0
  6
CONTINUOUS
 62
     7
 10
649
 20
202.75
 11
649
 21
150
  0
LINE
  8
0
  6
CONTINUOUS
 62
     7
 10
686
 20
210
 11
686
 21
150
  0
LINE
  8
0
  6
CONTINUOUS
 62
     7
 10
686
 20
210.00002
 11
688.85413
 21
214.94351
  0
LINE
  8
0
  6
CONTINUOUS
 62
     7
 10
688.85413
 20
195.92201
 11
700
 21
195.92201
  0
LINE
  8
0
  6
CONTINUOUS
 62
     7
 10
649
 20
202.74998
 11
652.06708
 21
205.81708
  0
LINE
  8
0
  6
CONTINUOUS
 62
     7
 10
652.06714
 20
205.81711
 11
684.1391
 21
206.81935
  0
LINE
  8
0
  6
CONTINUOUS
 62
     7
 10
686
 20
208.40001
 11
682.33142
 21
205.28387
  0
LINE
  8
0
  6
CONTINUOUS
 62
     7
 10
650.54041
 20
204.29039
 11
650.54041
 21
150
  0
LINE
  8
0
  6
CONTINUOUS
 62
     7
 10
652.06708
 20
205.81709
 11
652.06708
 21
150
  0
LINE
  8
0
  6
CONTINUOUS
 62
     7
 10
682.33142
 20
206.76286
 11
682.33142
 21
150
  0
LINE
  8
0
  6
CONTINUOUS
 62
     7
 10
650.54041
 20
204.29039
 11
682.33142
 21
205.28386
  0
LINE
  8
0
  6
CENTER
 62
     7
 10
642.32367
 20
150
 11
706.41052
 21
150
  0
LINE
  8
0
  6
CONTINUOUS
 62
     7
 10
688.85413
 20
104.07799
 11
700
 21
104.07799
  0
LINE
  8
0
  6
CONTINUOUS
 62
     7
 10
682.33142
 20
93.237144
 11
682.33142
 21
150
  0
LINE
  8
0
  6
CONTINUOUS
 62
     7
 10
650.54041
 20
95.70961
 11
650.54041
 21
150
  0
LINE
  8
0
  6
CONTINUOUS
 62
     7
 10
650.54041
 20
95.709618
 11
682.33142
 21
94.716148
  0
LINE
  8
0
  6
CONTINUOUS
 62
     7
 10
686
 20
90.000015
 11
688.85419
 21
85.056473
  0
LINE
  8
0
  6
CONTINUOUS
 62
     7
 10
652.06708
 20
94.182899
 11
652.06708
 21
150
  0
LINE
  8
0
  6
CONTINUOUS
 62
     7
 10
688.85413
 20
85.056465
 11
700
 21
85.056465
  0
LINE
  8
0
  6
CONTINUOUS
 62
     7
 10
649
 20
97.25
 11
652.06708
 21
94.182907
  0
LINE
  8
0
  6
CONTINUOUS
 62
     7
 10
686
 20
90
 11
686
 21
150
  0
LINE
  8
0
  6
CONTINUOUS
 62
     7
 10
652.06714
 20
94.182899
 11
684.1391
 21
93.180656
  0
LINE
  8
0
  6
CONTINUOUS
 62
     7
 10
649
 20
97.25
 11
649
 21
150
  0
LINE
  8
0
  6
CONTINUOUS
 62
     7
 10
686
 20
91.600006
 11
682.33142
 21
94.716148
  0
LINE
  8
0
  6
CONTINUOUS
 62
     7
 10
700
 20
85.056465
 11
700
 21
150
  0
LINE
  8
0
  6
CONTINUOUS
 62
     7
 10
688.85413
 20
150
 11
700
 21
150
  0
LINE
  8
0
  6
CENTER
 62
     7
 10
732.32367
 20
150
 11
796.41052
 21
150
  0
LINE
  8
0
  6
CONTINUOUS
 62
     7
 10
778.85413
 20
214.94353
 11
790
 21
214.94353
  0
LINE
  8
0
  6
CONTINUOUS
 62
     7
 10
790
 20
214.94353
 11
790
 21
150
  0
LINE
  8
0
  6
CONTINUOUS
 62
     7
 10
739
 20
202.75
 11
739
 21
150
  0
LINE
  8
0
  6
CONTINUOUS
 62
     7
 10
776
 20
210
 11
776
 21
150
  0
LINE
  8
0
  6
CONTINUOUS
 62
     7
 10
776
 20
210.00002
 11
778.85413
 21
214.94351
  0
LINE
  8
0
  6
CONTINUOUS
 62
     7
 10
778.85413
 20
195.92201
 11
790
 21
195.92201
  0
LINE
  8
0
  6
CONTINUOUS
 62
     7
 10
739
 20
202.75002
 11
742.06708
 21
205.81711
  0
LINE
  8
0
  6
CONTINUOUS
 62
     7
 10
742.06708
 20
205.81711
 11
774.13916
 21
206.81935
  0
LINE
  8
0
  6
CONTINUOUS
 62
     7
 10
776
 20
208.40002
 11
772.33142
 21
205.28387
  0
LINE
  8
0
  6
CONTINUOUS
 62
     7
 10
740.54041
 20
204.29039
 11
740.54041
 21
150
  0
LINE
  8
0
  6
CONTINUOUS
 62
     7
 10
742.06708
 20
205.81709
 11
742.06708
 21
150
  0
LINE
  8
0
  6
CONTINUOUS
 62
     7
 10
772.33142
 20
206.76286
 11
772.33142
 21
150
  0
LINE
  8
0
  6
CONTINUOUS
 62
     7
 10
740.54034
 20
204.29039
 11
772.33142
 21
205.28386
  0
LINE
  8
0
  6
CENTER
 62
     7
 10
732.32367
 20
150
 11
796.41052
 21
150
  0
LINE
  8
0
  6
CONTINUOUS
 62
     7
 10
778.85413
 20
104.07799
 11
790
 21
104.07799
  0
LINE
  8
0
  6
CONTINUOUS
 62
     7
 10
772.33142
 20
93.237144
 11
772.33142
 21
150
  0
LINE
  8
0
  6
CONTINUOUS
 62
     7
 10
740.54041
 20
95.70961
 11
740.54041
 21
150
  0
LINE
  8
0
  6
CONTINUOUS
 62
     7
 10
740.54034
 20
95.709618
 11
772.33142
 21
94.716148
  0
LINE
  8
0
  6
CONTINUOUS
 62
     7
 10
776
 20
90.000008
 11
778.85413
 21
85.056465
  0
LINE
  8
0
  6
CONTINUOUS
 62
     7
 10
742.06708
 20
94.182899
 11
742.06708
 21
150
  0
LINE
  8
0
  6
CONTINUOUS
 62
     7
 10
778.85413
 20
85.056465
 11
790
 21
85.056465
  0
LINE
  8
0
  6
CONTINUOUS
 62
     7
 10
739
 20
97.250023
 11
742.06714
 21
94.18293
  0
LINE
  8
0
  6
CONTINUOUS
 62
     7
 10
776
 20
90
 11
776
 21
150
  0
LINE
  8
0
  6
CONTINUOUS
 62
     7
 10
742.06708
 20
94.182907
 11
774.13916
 21
93.180656
  0
LINE
  8
0
  6
CONTINUOUS
 62
     7
 10
739
 20
97.25
 11
739
 21
150
  0
LINE
  8
0
  6
CONTINUOUS
 62
     7
 10
776
 20
91.599998
 11
772.33142
 21
94.716141
  0
LINE
  8
0
  6
CONTINUOUS
 62
     7
 10
790
 20
85.056465
 11
790
 21
150
  0
LINE
  8
0
  6
CONTINUOUS
 62
     7
 10
778.85413
 20
150
 11
790
 21
150
  0
LINE
  8
0
  6
CENTER
 62
     7
 10
818.42371
 20
149.8
 11
882.5105
 21
149.8
  0
LINE
  8
0
  6
CONTINUOUS
 62
     7
 10
864.95416
 20
214.74353
 11
876.09998
 21
214.74353
  0
LINE
  8
0
  6
CONTINUOUS
 62
     7
 10
876.09998
 20
214.74353
 11
876.09998
 21
149.8
  0
LINE
  8
0
  6
CONTINUOUS
 62
     7
 10
825.09998
 20
202.55
 11
825.09998
 21
149.8
  0
LINE
  8
0
  6
CONTINUOUS
 62
     7
 10
862.09998
 20
209.8
 11
862.09998
 21
149.8
  0
LINE
  8
0
  6
CONTINUOUS
 62
     7
 10
862.09998
 20
209.79999
 11
864.95416
 21
214.74353
  0
LINE
  8
0
  6
CONTINUOUS
 62
     7
 10
864.95416
 20
195.72202
 11
876.09998
 21
195.72202
  0
LINE
  8
0
  6
CONTINUOUS
 62
     7
 10
825.10004
 20
202.55002
 11
828.16711
 21
205.61711
  0
LINE
  8
0
  6
CONTINUOUS
 62
     7
 10
828.16711
 20
205.6171
 11
860.23907
 21
206.61934
  0
LINE
  8
0
  6
CONTINUOUS
 62
     7
 10
862.09998
 20
208.20001
 11
858.4314
 21
205.08386
  0
LINE
  8
0
  6
CONTINUOUS
 62
     7
 10
826.64038
 20
204.09039
 11
826.64038
 21
149.8
  0
LINE
  8
0
  6
CONTINUOUS
 62
     7
 10
828.16711
 20
205.6171
 11
828.16711
 21
149.8
  0
LINE
  8
0
  6
CONTINUOUS
 62
     7
 10
858.4314
 20
206.56285
 11
858.4314
 21
149.8
  0
LINE
  8
0
  6
CONTINUOUS
 62
     7
 10
826.64038
 20
204.09039
 11
858.4314
 21
205.08386
  0
LINE
  8
0
  6
CENTER
 62
     7
 10
818.42371
 20
149.8
 11
882.5105
 21
149.8
  0
LINE
  8
0
  6
CONTINUOUS
 62
     7
 10
864.95416
 20
103.87799
 11
876.09998
 21
103.87799
  0
LINE
  8
0
  6
CONTINUOUS
 62
     7
 10
858.4314
 20
93.03714
 11
858.4314
 21
149.8
  0
LINE
  8
0
  6
CONTINUOUS
 62
     7
 10
826.64038
 20
95.509613
 11
826.64038
 21
149.8
  0
LINE
  8
0
  6
CONTINUOUS
 62
     7
 10
826.64038
 20
95.509613
 11
858.4314
 21
94.516144
  0
LINE
  8
0
  6
CONTINUOUS
 62
     7
 10
862.09998
 20
89.800003
 11
864.95416
 21
84.856461
  0
LINE
  8
0
  6
CONTINUOUS
 62
     7
 10
828.16711
 20
93.982903
 11
828.16711
 21
149.8
  0
LINE
  8
0
  6
CONTINUOUS
 62
     7
 10
864.95416
 20
84.856468
 11
876.09998
 21
84.856468
  0
LINE
  8
0
  6
CONTINUOUS
 62
     7
 10
825.09998
 20
97.049965
 11
828.16711
 21
93.982872
  0
LINE
  8
0
  6
CONTINUOUS
 62
     7
 10
862.09998
 20
89.800003
 11
862.09998
 21
149.8
  0
LINE
  8
0
  6
CONTINUOUS
 62
     7
 10
828.16705
 20
93.98291
 11
860.23914
 21
92.980652
  0
LINE
  8
0
  6
CONTINUOUS
 62
     7
 10
825.09998
 20
97.050003
 11
825.09998
 21
149.8
  0
LINE
  8
0
  6
CONTINUOUS
 62
     7
 10
862.10004
 20
91.399994
 11
858.43146
 21
94.516136
  0
LINE
  8
0
  6
CONTINUOUS
 62
     7
 10
876.09998
 20
84.856468
 11
876.09998
 21
149.8
  0
LINE
  8
0
  6
CONTINUOUS
 62
     7
 10
864.95416
 20
149.8
 11
876.09998
 21
149.8
  0
LINE
  8
0
  6
CENTER
 62
     7
 10
-57.676315
 20
-150
 11
6.4105263
 21
-150
  0
LINE
  8
0
  6
CONTINUOUS
 62
     7
 10
-11.14585
 20
-85.056465
 11
0
 21
-85.056465
  0
LINE
  8
0
  6
CONTINUOUS
 62
     7
 10
0
 20
-85.056465
 11
0
 21
-150
  0
LINE
  8
0
  6
CONTINUOUS
 62
     7
 10
-51
 20
-97.25
 11
-51
 21
-150
  0
LINE
  8
0
  6
CONTINUOUS
 62
     7
 10
-14
 20
-90
 11
-14
 21
-150
  0
LINE
  8
0
  6
CONTINUOUS
 62
     7
 10
-13.999999
 20
-90
 11
-11.14585
 21
-85.056465
  0
LINE
  8
0
  6
CONTINUOUS
 62
     7
 10
-11.14585
 20
-104.07799
 11
0
 21
-104.07799
  0
LINE
  8
0
  6
CONTINUOUS
 62
     7
 10
-51.000004
 20
-97.25
 11
-47.932903
 21
-94.182907
  0
LINE
  8
0
  6
CONTINUOUS
 62
     7
 10
-47.932903
 20
-94.182907
 11
-15.860882
 21
-93.180656
  0
LINE
  8
0
  6
CONTINUOUS
 62
     7
 10
-14.000002
 20
-91.599998
 11
-17.668592
 21
-94.716141
  0
LINE
  8
0
  6
CONTINUOUS
 62
     7
 10
-49.459614
 20
-95.70961
 11
-49.459614
 21
-150
  0
LINE
  8
0
  6
CONTINUOUS
 62
     7
 10
-47.932903
 20
-94.182899
 11
-47.932903
 21
-150
  0
LINE
  8
0
  6
CONTINUOUS
 62
     7
 10
-17.668594
 20
-93.237144
 11
-17.668594
 21
-150
  0
LINE
  8
0
  6
CONTINUOUS
 62
     7
 10
-49.459614
 20
-95.709618
 11
-17.668594
 21
-94.716148
  0
LINE
  8
0
  6
CENTER
 62
     7
 10
-57.676315
 20
-150
 11
6.4105263
 21
-150
  0
LINE
  8
0
  6
CONTINUOUS
 62
     7
 10
-11.14585
 20
-195.92201
 11
0
 21
-195.92201
  0
LINE
  8
0
  6
CONTINUOUS
 62
     7
 10
-17.668594
 20
-206.76286
 11
-17.668594
 21
-150
  0
LINE
  8
0
  6
CONTINUOUS
 62
     7
 10
-49.459614
 20
-204.29039
 11
-49.459614
 21
-150
  0
LINE
  8
0
  6
CONTINUOUS
 62
     7
 10
-49.459614
 20
-204.29039
 11
-17.668594
 21
-205.28386
  0
LINE
  8
0
  6
CONTINUOUS
 62
     7
 10
-13.999998
 20
-210
 11
-11.145849
 21
-214.94354
  0
LINE
  8
0
  6
CONTINUOUS
 62
     7
 10
-47.932903
 20
-205.81709
 11
-47.932903
 21
-150
  0
LINE
  8
0
  6
CONTINUOUS
 62
     7
 10
-11.14585
 20
-214.94353
 11
0
 21
-214.94353
  0
LINE
  8
0
  6
CONTINUOUS
 62
     7
 10
-50.999996
 20
-202.75
 11
-47.932899
 21
-205.81709
  0
LINE
  8
0
  6
CONTINUOUS
 62
     7
 10
-14
 20
-210
 11
-14
 21
-150
  0
LINE
  8
0
  6
CONTINUOUS
 62
     7
 10
-47.932903
 20
-205.81711
 11
-15.860881
 21
-206.81935
  0
LINE
  8
0
  6
CONTINUOUS
 62
     7
 10
-51
 20
-202.75
 11
-51
 21
-150
  0
LINE
  8
0
  6
CONTINUOUS
 62
     7
 10
-14.000009
 20
-208.39999
 11
-17.6686
 21
-205.28386
  0
LINE
  8
0
  6
CONTINUOUS
 62
     7
 10
0
 20
-214.94353
 11
0
 21
-150
  0
LINE
  8
0
  6
CONTINUOUS
 62
     7
 10
-11.14585
 20
-150
 11
0
 21
-150
  0
LINE
  8
0
  6
CENTER
 62
     7
 10
-157.67632
 20
-150
 11
-93.58947
 21
-150
  0
LINE
  8
0
  6
CONTINUOUS
 62
     7
 10
-111.14585
 20
-85.056465
 11
-100
 21
-85.056465
  0
LINE
  8
0
  6
CONTINUOUS
 62
     7
 10
-100
 20
-85.056465
 11
-100
 21
-150
  0
LINE
  8
0
  6
CONTINUOUS
 62
     7
 10
-151
 20
-97.25
 11
-151
 21
-150
  0
LINE
  8
0
  6
CONTINUOUS
 62
     7
 10
-114
 20
-90
 11
-114
 21
-150
  0
LINE
  8
0
  6
CONTINUOUS
 62
     7
 10
-114
 20
-90.000008
 11
-111.14585
 21
-85.056473
  0
LINE
  8
0
  6
CONTINUOUS
 62
     7
 10
-111.14585
 20
-104.07799
 11
-100
 21
-104.07799
  0
LINE
  8
0
  6
CONTINUOUS
 62
     7
 10
-151
 20
-97.25
 11
-147.93291
 21
-94.182907
  0
LINE
  8
0
  6
CONTINUOUS
 62
     7
 10
-147.93291
 20
-94.182907
 11
-115.86088
 21
-93.180656
  0
LINE
  8
0
  6
CONTINUOUS
 62
     7
 10
-114.00001
 20
-91.600006
 11
-117.66859
 21
-94.716141
  0
LINE
  8
0
  6
CONTINUOUS
 62
     7
 10
-149.45961
 20
-95.70961
 11
-149.45961
 21
-150
  0
LINE
  8
0
  6
CONTINUOUS
 62
     7
 10
-147.93291
 20
-94.182899
 11
-147.93291
 21
-150
  0
LINE
  8
0
  6
CONTINUOUS
 62
     7
 10
-117.66859
 20
-93.237144
 11
-117.66859
 21
-150
  0
LINE
  8
0
  6
CONTINUOUS
 62
     7
 10
-149.45963
 20
-95.709618
 11
-117.66859
 21
-94.716148
  0
LINE
  8
0
  6
CENTER
 62
     7
 10
-157.67632
 20
-150
 11
-93.58947
 21
-150
  0
LINE
  8
0
  6
CONTINUOUS
 62
     7
 10
-111.14585
 20
-195.92201
 11
-100
 21
-195.92201
  0
LINE
  8
0
  6
CONTINUOUS
 62
     7
 10
-117.66859
 20
-206.76286
 11
-117.66859
 21
-150
  0
LINE
  8
0
  6
CONTINUOUS
 62
     7
 10
-149.45961
 20
-204.29039
 11
-149.45961
 21
-150
  0
LINE
  8
0
  6
CONTINUOUS
 62
     7
 10
-149.45963
 20
-204.29039
 11
-117.66859
 21
-205.28386
  0
LINE
  8
0
  6
CONTINUOUS
 62
     7
 10
-114
 20
-210
 11
-111.14585
 21
-214.94354
  0
LINE
  8
0
  6
CONTINUOUS
 62
     7
 10
-147.93291
 20
-205.81709
 11
-147.93291
 21
-150
  0
LINE
  8
0
  6
CONTINUOUS
 62
     7
 10
-111.14585
 20
-214.94353
 11
-100
 21
-214.94353
  0
LINE
  8
0
  6
CONTINUOUS
 62
     7
 10
-151
 20
-202.75
 11
-147.93289
 21
-205.81709
  0
LINE
  8
0
  6
CONTINUOUS
 62
     7
 10
-114
 20
-210
 11
-114
 21
-150
  0
LINE
  8
0
  6
CONTINUOUS
 62
     7
 10
-147.93291
 20
-205.81711
 11
-115.86088
 21
-206.81935
  0
LINE
  8
0
  6
CONTINUOUS
 62
     7
 10
-151
 20
-202.75
 11
-151
 21
-150
  0
LINE
  8
0
  6
CONTINUOUS
 62
     7
 10
-114.00001
 20
-208.39999
 11
-117.66859
 21
-205.28386
  0
LINE
  8
0
  6
CONTINUOUS
 62
     7
 10
-100
 20
-214.94353
 11
-100
 21
-150
  0
LINE
  8
0
  6
CONTINUOUS
 62
     7
 10
-111.14585
 20
-150
 11
-100
 21
-150
  0
LINE
  8
0
  6
CENTER
 62
     7
 10
-257.67633
 20
-150
 11
-193.58948
 21
-150
  0
LINE
  8
0
  6
CONTINUOUS
 62
     7
 10
-211.14584
 20
-85.056465
 11
-200
 21
-85.056465
  0
LINE
  8
0
  6
CONTINUOUS
 62
     7
 10
-200
 20
-85.056465
 11
-200
 21
-150
  0
LINE
  8
0
  6
CONTINUOUS
 62
     7
 10
-251
 20
-97.25
 11
-251
 21
-150
  0
LINE
  8
0
  6
CONTINUOUS
 62
     7
 10
-214
 20
-90
 11
-214
 21
-150
  0
LINE
  8
0
  6
CONTINUOUS
 62
     7
 10
-214
 20
-90
 11
-211.14586
 21
-85.056473
  0
LINE
  8
0
  6
CONTINUOUS
 62
     7
 10
-211.14584
 20
-104.07799
 11
-200
 21
-104.07799
  0
LINE
  8
0
  6
CONTINUOUS
 62
     7
 10
-251
 20
-97.25
 11
-247.93291
 21
-94.182907
  0
LINE
  8
0
  6
CONTINUOUS
 62
     7
 10
-247.93291
 20
-94.182907
 11
-215.86089
 21
-93.180656
  0
LINE
  8
0
  6
CONTINUOUS
 62
     7
 10
-214
 20
-91.600006
 11
-217.66859
 21
-94.716148
  0
LINE
  8
0
  6
CONTINUOUS
 62
     7
 10
-249.45961
 20
-95.70961
 11
-249.45961
 21
-150
  0
LINE
  8
0
  6
CONTINUOUS
 62
     7
 10
-247.93291
 20
-94.182899
 11
-247.93291
 21
-150
  0
LINE
  8
0
  6
CONTINUOUS
 62
     7
 10
-217.66859
 20
-93.237144
 11
-217.66859
 21
-150
  0
LINE
  8
0
  6
CONTINUOUS
 62
     7
 10
-249.45961
 20
-95.709618
 11
-217.66859
 21
-94.716148
  0
LINE
  8
0
  6
CENTER
 62
     7
 10
-257.67633
 20
-150
 11
-193.58948
 21
-150
  0
LINE
  8
0
  6
CONTINUOUS
 62
     7
 10
-211.14584
 20
-195.92201
 11
-200
 21
-195.92201
  0
LINE
  8
0
  6
CONTINUOUS
 62
     7
 10
-217.66859
 20
-206.76286
 11
-217.66859
 21
-150
  0
LINE
  8
0
  6
CONTINUOUS
 62
     7
 10
-249.45961
 20
-204.29039
 11
-249.45961
 21
-150
  0
LINE
  8
0
  6
CONTINUOUS
 62
     7
 10
-249.45961
 20
-204.29039
 11
-217.66859
 21
-205.28386
  0
LINE
  8
0
  6
CONTINUOUS
 62
     7
 10
-214
 20
-210
 11
-211.14584
 21
-214.94353
  0
LINE
  8
0
  6
CONTINUOUS
 62
     7
 10
-247.93291
 20
-205.81709
 11
-247.93291
 21
-150
  0
LINE
  8
0
  6
CONTINUOUS
 62
     7
 10
-211.14584
 20
-214.94353
 11
-200
 21
-214.94353
  0
LINE
  8
0
  6
CONTINUOUS
 62
     7
 10
-251
 20
-202.75
 11
-247.93291
 21
-205.81709
  0
LINE
  8
0
  6
CONTINUOUS
 62
     7
 10
-214
 20
-210
 11
-214
 21
-150
  0
LINE
  8
0
  6
CONTINUOUS
 62
     7
 10
-247.93291
 20
-205.81711
 11
-215.86089
 21
-206.81935
  0
LINE
  8
0
  6
CONTINUOUS
 62
     7
 10
-251
 20
-202.75
 11
-251
 21
-150
  0
LINE
  8
0
  6
CONTINUOUS
 62
     7
 10
-214.00002
 20
-208.40001
 11
-217.66861
 21
-205.28386
  0
LINE
  8
0
  6
CONTINUOUS
 62
     7
 10
-200
 20
-214.94353
 11
-200
 21
-150
  0
LINE
  8
0
  6
CONTINUOUS
 62
     7
 10
-211.14584
 20
-150
 11
-200
 21
-150
  0
LINE
  8
0
  6
CENTER
 62
     7
 10
48.55983
 20
-150
 11
115.11604
 21
-150
  0
LINE
  8
0
  6
CONTINUOUS
 62
     7
 10
98.448761
 20
-71.526566
 11
110
 21
-71.526566
  0
LINE
  8
0
  6
CONTINUOUS
 62
     7
 10
98.448761
 20
-94.510902
 11
110
 21
-94.510902
  0
LINE
  8
0
  6
CONTINUOUS
 62
     7
 10
110
 20
-71.526566
 11
110
 21
-150
  0
LINE
  8
0
  6
CONTINUOUS
 62
     7
 10
53
 20
-84.5
 11
53
 21
-150
  0
LINE
  8
0
  6
CONTINUOUS
 62
     7
 10
95
 20
-77.5
 11
95
 21
-150
  0
LINE
  8
0
  6
CONTINUOUS
 62
     7
 10
95
 20
-77.5
 11
98.448769
 21
-71.526566
  0
LINE
  8
0
  6
CONTINUOUS
 62
     7
 10
52.999996
 20
-84.5
 11
55.912903
 21
-81.587097
  0
LINE
  8
0
  6
CONTINUOUS
 62
     7
 10
54.386192
 20
-83.1138
 11
92.017059
 21
-81.937836
  0
LINE
  8
0
  6
CONTINUOUS
 62
     7
 10
55.912903
 20
-81.587097
 11
93.567978
 21
-80.410378
  0
LINE
  8
0
  6
CONTINUOUS
 62
     7
 10
95
 20
-79
 11
92.017059
 21
-81.937843
  0
LINE
  8
0
  6
CONTINUOUS
 62
     7
 10
54.386192
 20
-83.113808
 11
54.386192
 21
-150
  0
LINE
  8
0
  6
CONTINUOUS
 62
     7
 10
55.912903
 20
-81.587097
 11
55.912903
 21
-150
  0
LINE
  8
0
  6
CONTINUOUS
 62
     7
 10
92.017067
 20
-80.458839
 11
92.017067
 21
-150
  0
LINE
  8
0
  6
CENTER
 62
     7
 10
48.55983
 20
-150
 11
115.11604
 21
-150
  0
LINE
  8
0
  6
CONTINUOUS
 62
     7
 10
55.912903
 20
-218.4129
 11
55.912903
 21
-150
  0
LINE
  8
0
  6
CONTINUOUS
 62
     7
 10
92.017067
 20
-219.54115
 11
92.017067
 21
-150
  0
LINE
  8
0
  6
CONTINUOUS
 62
     7
 10
53
 20
-215.5
 11
55.912899
 21
-218.4129
  0
LINE
  8
0
  6
CONTINUOUS
 62
     7
 10
95.000008
 20
-222.5
 11
98.448769
 21
-228.47343
  0
LINE
  8
0
  6
CONTINUOUS
 62
     7
 10
98.448761
 20
-228.47343
 11
110
 21
-228.47343
  0
LINE
  8
0
  6
CONTINUOUS
 62
     7
 10
55.912907
 20
-218.4129
 11
93.567978
 21
-219.58961
  0
LINE
  8
0
  6
CONTINUOUS
 62
     7
 10
54.386192
 20
-216.8862
 11
54.386192
 21
-150
  0
LINE
  8
0
  6
CONTINUOUS
 62
     7
 10
95
 20
-222.5
 11
95
 21
-150
  0
LINE
  8
0
  6
CONTINUOUS
 62
     7
 10
54.386192
 20
-216.8862
 11
92.017059
 21
-218.06216
  0
LINE
  8
0
  6
CONTINUOUS
 62
     7
 10
98.448761
 20
-205.48911
 11
110
 21
-205.48911
  0
LINE
  8
0
  6
CONTINUOUS
 62
     7
 10
53
 20
-215.5
 11
53
 21
-150
  0
LINE
  8
0
  6
CONTINUOUS
 62
     7
 10
95
 20
-221
 11
92.017067
 21
-218.06216
  0
LINE
  8
0
  6
CONTINUOUS
 62
     7
 10
110
 20
-228.47343
 11
110
 21
-150
  0
LINE
  8
0
  6
CONTINUOUS
 62
     7
 10
98.448761
 20
-150
 11
110
 21
-150
  0
LINE
  8
0
  6
CENTER
 62
     7
 10
158.55983
 20
-150
 11
225.11604
 21
-150
  0
LINE
  8
0
  6
CONTINUOUS
 62
     7
 10
208.44876
 20
-71.526566
 11
220
 21
-71.526566
  0
LINE
  8
0
  6
CONTINUOUS
 62
     7
 10
208.44876
 20
-94.510902
 11
220
 21
-94.510902
  0
LINE
  8
0
  6
CONTINUOUS
 62
     7
 10
220
 20
-71.526566
 11
220
 21
-150
  0
LINE
  8
0
  6
CONTINUOUS
 62
     7
 10
163
 20
-84.5
 11
163
 21
-150
  0
LINE
  8
0
  6
CONTINUOUS
 62
     7
 10
205
 20
-77.5
 11
205
 21
-150
  0
LINE
  8
0
  6
CONTINUOUS
 62
     7
 10
205
 20
-77.5
 11
208.44876
 21
-71.526566
  0
LINE
  8
0
  6
CONTINUOUS
 62
     7
 10
163
 20
-84.5
 11
165.9129
 21
-81.587097
  0
LINE
  8
0
  6
CONTINUOUS
 62
     7
 10
164.38618
 20
-83.113808
 11
202.01707
 21
-81.937843
  0
LINE
  8
0
  6
CONTINUOUS
 62
     7
 10
165.9129
 20
-81.587097
 11
203.56796
 21
-80.410378
  0
LINE
  8
0
  6
CONTINUOUS
 62
     7
 10
205
 20
-79
 11
202.01706
 21
-81.937843
  0
LINE
  8
0
  6
CONTINUOUS
 62
     7
 10
164.3862
 20
-83.113808
 11
164.3862
 21
-150
  0
LINE
  8
0
  6
CONTINUOUS
 62
     7
 10
165.9129
 20
-81.587097
 11
165.9129
 21
-150
  0
LINE
  8
0
  6
CONTINUOUS
 62
     7
 10
202.01706
 20
-80.458839
 11
202.01706
 21
-150
  0
LINE
  8
0
  6
CENTER
 62
     7
 10
158.55983
 20
-150
 11
225.11604
 21
-150
  0
LINE
  8
0
  6
CONTINUOUS
 62
     7
 10
165.9129
 20
-218.4129
 11
165.9129
 21
-150
  0
LINE
  8
0
  6
CONTINUOUS
 62
     7
 10
202.01706
 20
-219.54115
 11
202.01706
 21
-150
  0
LINE
  8
0
  6
CONTINUOUS
 62
     7
 10
163
 20
-215.5
 11
165.91289
 21
-218.41289
  0
LINE
  8
0
  6
CONTINUOUS
 62
     7
 10
205
 20
-222.49998
 11
208.44876
 21
-228.47342
  0
LINE
  8
0
  6
CONTINUOUS
 62
     7
 10
208.44876
 20
-228.47343
 11
220
 21
-228.47343
  0
LINE
  8
0
  6
CONTINUOUS
 62
     7
 10
165.9129
 20
-218.4129
 11
203.56796
 21
-219.58961
  0
LINE
  8
0
  6
CONTINUOUS
 62
     7
 10
164.3862
 20
-216.8862
 11
164.3862
 21
-150
  0
LINE
  8
0
  6
CONTINUOUS
 62
     7
 10
205
 20
-222.5
 11
205
 21
-150
  0
LINE
  8
0
  6
CONTINUOUS
 62
     7
 10
164.38618
 20
-216.8862
 11
202.01707
 21
-218.06216
  0
LINE
  8
0
  6
CONTINUOUS
 62
     7
 10
208.44876
 20
-205.48911
 11
220
 21
-205.48911
  0
LINE
  8
0
  6
CONTINUOUS
 62
     7
 10
163
 20
-215.5
 11
163
 21
-150
  0
LINE
  8
0
  6
CONTINUOUS
 62
     7
 10
205.00002
 20
-221
 11
202.01706
 21
-218.06215
  0
LINE
  8
0
  6
CONTINUOUS
 62
     7
 10
220
 20
-228.47343
 11
220
 21
-150
  0
LINE
  8
0
  6
CONTINUOUS
 62
     7
 10
208.44876
 20
-150
 11
220
 21
-150
  0
LINE
  8
0
  6
CENTER
 62
     7
 10
-261.44016
 20
-350
 11
-194.88396
 21
-350
  0
LINE
  8
0
  6
CONTINUOUS
 62
     7
 10
-211.55124
 20
-271.52655
 11
-200
 21
-271.52655
  0
LINE
  8
0
  6
CONTINUOUS
 62
     7
 10
-211.55124
 20
-294.51089
 11
-200
 21
-294.51089
  0
LINE
  8
0
  6
CONTINUOUS
 62
     7
 10
-200
 20
-271.52655
 11
-200
 21
-350
  0
LINE
  8
0
  6
CONTINUOUS
 62
     7
 10
-257
 20
-284.5
 11
-257
 21
-350
  0
LINE
  8
0
  6
CONTINUOUS
 62
     7
 10
-215
 20
-277.5
 11
-215
 21
-350
  0
LINE
  8
0
  6
CONTINUOUS
 62
     7
 10
-215
 20
-277.5
 11
-211.55124
 21
-271.52658
  0
LINE
  8
0
  6
CONTINUOUS
 62
     7
 10
-257
 20
-284.5
 11
-254.08708
 21
-281.5871
  0
LINE
  8
0
  6
CONTINUOUS
 62
     7
 10
-255.6138
 20
-283.1138
 11
-217.98294
 21
-281.93784
  0
LINE
  8
0
  6
CONTINUOUS
 62
     7
 10
-254.0871
 20
-281.5871
 11
-216.43202
 21
-280.41037
  0
LINE
  8
0
  6
CONTINUOUS
 62
     7
 10
-215
 20
-279
 11
-217.98293
 21
-281.93784
  0
LINE
  8
0
  6
CONTINUOUS
 62
     7
 10
-255.6138
 20
-283.1138
 11
-255.6138
 21
-350
  0
LINE
  8
0
  6
CONTINUOUS
 62
     7
 10
-254.0871
 20
-281.5871
 11
-254.0871
 21
-350
  0
LINE
  8
0
  6
CONTINUOUS
 62
     7
 10
-217.98294
 20
-280.45883
 11
-217.98294
 21
-350
  0
LINE
  8
0
  6
CENTER
 62
     7
 10
-261.44016
 20
-350
 11
-194.88396
 21
-350
  0
LINE
  8
0
  6
CONTINUOUS
 62
     7
 10
-254.0871
 20
-418.4129
 11
-254.0871
 21
-350
  0
LINE
  8
0
  6
CONTINUOUS
 62
     7
 10
-217.98294
 20
-419.54117
 11
-217.98294
 21
-350
  0
LINE
  8
0
  6
CONTINUOUS
 62
     7
 10
-257
 20
-415.5
 11
-254.0871
 21
-418.4129
  0
LINE
  8
0
  6
CONTINUOUS
 62
     7
 10
-215
 20
-422.5
 11
-211.55122
 21
-428.47345
  0
LINE
  8
0
  6
CONTINUOUS
 62
     7
 10
-211.55124
 20
-428.47345
 11
-200
 21
-428.47345
  0
LINE
  8
0
  6
CONTINUOUS
 62
     7
 10
-254.0871
 20
-418.4129
 11
-216.43202
 21
-419.5896
  0
LINE
  8
0
  6
CONTINUOUS
 62
     7
 10
-255.6138
 20
-416.8862
 11
-255.6138
 21
-350
  0
LINE
  8
0
  6
CONTINUOUS
 62
     7
 10
-215
 20
-422.5
 11
-215
 21
-350
  0
LINE
  8
0
  6
CONTINUOUS
 62
     7
 10
-255.61382
 20
-416.8862
 11
-217.98294
 21
-418.06216
  0
LINE
  8
0
  6
CONTINUOUS
 62
     7
 10
-211.55124
 20
-405.48911
 11
-200
 21
-405.48911
  0
LINE
  8
0
  6
CONTINUOUS
 62
     7
 10
-257
 20
-415.5
 11
-257
 21
-350
  0
LINE
  8
0
  6
CONTINUOUS
 62
     7
 10
-214.99998
 20
-421
 11
-217.98293
 21
-418.06213
  0
LINE
  8
0
  6
CONTINUOUS
 62
     7
 10
-200
 20
-428.47345
 11
-200
 21
-350
  0
LINE
  8
0
  6
CONTINUOUS
 62
     7
 10
-211.55124
 20
-350
 11
-200
 21
-350
  0
LINE
  8
0
  6
CENTER
 62
     7
 10
-155.86517
 20
-349.82501
 11
-89.30896
 21
-349.82501
  0
LINE
  8
0
  6
CONTINUOUS
 62
     7
 10
-105.97623
 20
-271.35156
 11
-94.425003
 21
-271.35156
  0
LINE
  8
0
  6
CONTINUOUS
 62
     7
 10
-105.97623
 20
-294.33591
 11
-94.425003
 21
-294.33591
  0
LINE
  8
0
  6
CONTINUOUS
 62
     7
 10
-94.425003
 20
-271.35156
 11
-94.425003
 21
-349.82501
  0
LINE
  8
0
  6
CONTINUOUS
 62
     7
 10
-151.425
 20
-284.32501
 11
-151.425
 21
-349.82501
  0
LINE
  8
0
  6
CONTINUOUS
 62
     7
 10
-109.425
 20
-277.32501
 11
-109.425
 21
-349.82501
  0
LINE
  8
0
  6
CONTINUOUS
 62
     7
 10
-109.425
 20
-277.32501
 11
-105.97624
 21
-271.35156
  0
LINE
  8
0
  6
CONTINUOUS
 62
     7
 10
-151.42499
 20
-284.32498
 11
-148.5121
 21
-281.41211
  0
LINE
  8
0
  6
CONTINUOUS
 62
     7
 10
-150.0388
 20
-282.93878
 11
-112.40794
 21
-281.76282
  0
LINE
  8
0
  6
CONTINUOUS
 62
     7
 10
-148.51208
 20
-281.41208
 11
-110.85703
 21
-280.23538
  0
LINE
  8
0
  6
CONTINUOUS
 62
     7
 10
-109.425
 20
-278.82501
 11
-112.40794
 21
-281.76285
  0
LINE
  8
0
  6
CONTINUOUS
 62
     7
 10
-150.0388
 20
-282.93881
 11
-150.0388
 21
-349.82501
  0
LINE
  8
0
  6
CONTINUOUS
 62
     7
 10
-148.5121
 20
-281.41211
 11
-148.5121
 21
-349.82501
  0
LINE
  8
0
  6
CONTINUOUS
 62
     7
 10
-112.40794
 20
-280.28384
 11
-112.40794
 21
-349.82501
  0
LINE
  8
0
  6
CENTER
 62
     7
 10
-155.86517
 20
-349.82501
 11
-89.30896
 21
-349.82501
  0
LINE
  8
0
  6
CONTINUOUS
 62
     7
 10
-148.5121
 20
-418.23792
 11
-148.5121
 21
-349.82501
  0
LINE
  8
0
  6
CONTINUOUS
 62
     7
 10
-112.40794
 20
-419.36615
 11
-112.40794
 21
-349.82501
  0
LINE
  8
0
  6
CONTINUOUS
 62
     7
 10
-151.425
 20
-415.32501
 11
-148.5121
 21
-418.23792
  0
LINE
  8
0
  6
CONTINUOUS
 62
     7
 10
-109.425
 20
-422.32501
 11
-105.97624
 21
-428.29843
  0
LINE
  8
0
  6
CONTINUOUS
 62
     7
 10
-105.97623
 20
-428.29843
 11
-94.425003
 21
-428.29843
  0
LINE
  8
0
  6
CONTINUOUS
 62
     7
 10
-148.5121
 20
-418.23792
 11
-110.85703
 21
-419.41464
  0
LINE
  8
0
  6
CONTINUOUS
 62
     7
 10
-150.0388
 20
-416.71118
 11
-150.0388
 21
-349.82501
  0
LINE
  8
0
  6
CONTINUOUS
 62
     7
 10
-109.425
 20
-422.32501
 11
-109.425
 21
-349.82501
  0
LINE
  8
0
  6
CONTINUOUS
 62
     7
 10
-150.03882
 20
-416.71121
 11
-112.40794
 21
-417.88718
  0
LINE
  8
0
  6
CONTINUOUS
 62
     7
 10
-105.97623
 20
-405.31409
 11
-94.425003
 21
-405.31409
  0
LINE
  8
0
  6
CONTINUOUS
 62
     7
 10
-151.425
 20
-415.32501
 11
-151.425
 21
-349.82501
  0
LINE
  8
0
  6
CONTINUOUS
 62
     7
 10
-109.425
 20
-420.82498
 11
-112.40793
 21
-417.88715
  0
LINE
  8
0
  6
CONTINUOUS
 62
     7
 10
-94.425003
 20
-428.29843
 11
-94.425003
 21
-349.82501
  0
LINE
  8
0
  6
CONTINUOUS
 62
     7
 10
-105.97623
 20
-349.82501
 11
-94.425003
 21
-349.82501
  0
LINE
  8
0
  6
CENTER
 62
     7
 10
-63.761902
 20
-350
 11
18.676929
 21
-350
  0
LINE
  8
0
  6
CONTINUOUS
 62
     7
 10
-3.9566214
 20
-257.99667
 11
10
 21
-257.99667
  0
LINE
  8
0
  6
CONTINUOUS
 62
     7
 10
-3.9566214
 20
-284.94382
 11
10
 21
-284.94382
  0
LINE
  8
0
  6
CONTINUOUS
 62
     7
 10
10
 20
-257.99667
 11
10
 21
-350
  0
LINE
  8
0
  6
CONTINUOUS
 62
     7
 10
-54
 20
-272.5
 11
-54
 21
-350
  0
LINE
  8
0
  6
CONTINUOUS
 62
     7
 10
-8
 20
-265
 11
-8
 21
-350
  0
LINE
  8
0
  6
CONTINUOUS
 62
     7
 10
-8
 20
-265
 11
-3.9566195
 21
-257.99667
  0
LINE
  8
0
  6
CONTINUOUS
 62
     7
 10
-54.000004
 20
-272.5
 11
-50.364517
 21
-268.8645
  0
LINE
  8
0
  6
CONTINUOUS
 62
     7
 10
-50.364513
 20
-268.86453
 11
-9.8077517
 21
-267.59714
  0
LINE
  8
0
  6
CONTINUOUS
 62
     7
 10
-51.891228
 20
-270.39124
 11
-11.543194
 21
-269.13034
  0
LINE
  8
0
  6
CONTINUOUS
 62
     7
 10
-7.9999981
 20
-266
 11
-11.543198
 21
-269.13034
  0
LINE
  8
0
  6
CONTINUOUS
 62
     7
 10
-11.543195
 20
-267.65134
 11
-11.543195
 21
-350
  0
LINE
  8
0
  6
CONTINUOUS
 62
     7
 10
-50.364517
 20
-268.8645
 11
-50.364517
 21
-350
  0
LINE
  8
0
  6
CONTINUOUS
 62
     7
 10
-51.891224
 20
-270.39124
 11
-51.891224
 21
-350
  0
LINE
  8
0
  6
CENTER
 62
     7
 10
-63.761902
 20
-350
 11
18.676929
 21
-350
  0
LINE
  8
0
  6
CONTINUOUS
 62
     7
 10
-8.0000067
 20
-434
 11
-11.543205
 21
-430.86963
  0
LINE
  8
0
  6
CONTINUOUS
 62
     7
 10
-11.543195
 20
-432.34866
 11
-11.543195
 21
-350
  0
LINE
  8
0
  6
CONTINUOUS
 62
     7
 10
-50.364517
 20
-431.1355
 11
-50.364517
 21
-350
  0
LINE
  8
0
  6
CONTINUOUS
 62
     7
 10
-3.9566214
 20
-442.00333
 11
10
 21
-442.00333
  0
LINE
  8
0
  6
CONTINUOUS
 62
     7
 10
-8
 20
-435
 11
-8
 21
-350
  0
LINE
  8
0
  6
CONTINUOUS
 62
     7
 10
-54
 20
-427.5
 11
-54
 21
-350
  0
LINE
  8
0
  6
CONTINUOUS
 62
     7
 10
-3.9566214
 20
-415.05618
 11
10
 21
-415.05618
  0
LINE
  8
0
  6
CONTINUOUS
 62
     7
 10
10
 20
-442.00333
 11
10
 21
-350
  0
LINE
  8
0
  6
CONTINUOUS
 62
     7
 10
-50.364513
 20
-431.1355
 11
-9.8077526
 21
-432.40289
  0
LINE
  8
0
  6
CONTINUOUS
 62
     7
 10
-8.0000057
 20
-435
 11
-3.9566255
 21
-442.00333
  0
LINE
  8
0
  6
CONTINUOUS
 62
     7
 10
-51.891224
 20
-429.60876
 11
-11.543194
 21
-430.86963
  0
LINE
  8
0
  6
CONTINUOUS
 62
     7
 10
-53.999996
 20
-427.5
 11
-50.36451
 21
-431.1355
  0
LINE
  8
0
  6
CONTINUOUS
 62
     7
 10
-51.891224
 20
-429.60876
 11
-51.891224
 21
-350
  0
LINE
  8
0
  6
CONTINUOUS
 62
     7
 10
-3.9566214
 20
-350
 11
10
 21
-350
  0
LINE
  8
0
  6
CENTER
 62
     7
 10
46.238098
 20
-350
 11
128.67693
 21
-350
  0
LINE
  8
0
  6
CONTINUOUS
 62
     7
 10
106.04338
 20
-257.99667
 11
120
 21
-257.99667
  0
LINE
  8
0
  6
CONTINUOUS
 62
     7
 10
106.04338
 20
-284.94382
 11
120
 21
-284.94382
  0
LINE
  8
0
  6
CONTINUOUS
 62
     7
 10
120
 20
-257.99667
 11
120
 21
-350
  0
LINE
  8
0
  6
CONTINUOUS
 62
     7
 10
56
 20
-272.5
 11
56
 21
-350
  0
LINE
  8
0
  6
CONTINUOUS
 62
     7
 10
102
 20
-265
 11
102
 21
-350
  0
LINE
  8
0
  6
CONTINUOUS
 62
     7
 10
102
 20
-265
 11
106.04338
 21
-257.99667
  0
LINE
  8
0
  6
CONTINUOUS
 62
     7
 10
55.999996
 20
-272.5
 11
59.635471
 21
-268.8645
  0
LINE
  8
0
  6
CONTINUOUS
 62
     7
 10
59.635483
 20
-268.86453
 11
100.19225
 21
-267.59714
  0
LINE
  8
0
  6
CONTINUOUS
 62
     7
 10
58.108776
 20
-270.39124
 11
98.456802
 21
-269.13034
  0
LINE
  8
0
  6
CONTINUOUS
 62
     7
 10
101.99999
 20
-266
 11
98.456802
 21
-269.13034
  0
LINE
  8
0
  6
CONTINUOUS
 62
     7
 10
98.456802
 20
-267.65134
 11
98.456802
 21
-350
  0
LINE
  8
0
  6
CONTINUOUS
 62
     7
 10
59.635483
 20
-268.8645
 11
59.635483
 21
-350
  0
LINE
  8
0
  6
CONTINUOUS
 62
     7
 10
58.108776
 20
-270.39124
 11
58.108776
 21
-350
  0
LINE
  8
0
  6
CENTER
 62
     7
 10
46.238098
 20
-350
 11
128.67693
 21
-350
  0
LINE
  8
0
  6
CONTINUOUS
 62
     7
 10
102.00001
 20
-434
 11
98.45681
 21
-430.86963
  0
LINE
  8
0
  6
CONTINUOUS
 62
     7
 10
98.456802
 20
-432.34866
 11
98.456802
 21
-350
  0
LINE
  8
0
  6
CONTINUOUS
 62
     7
 10
59.635483
 20
-431.1355
 11
59.635483
 21
-350
  0
LINE
  8
0
  6
CONTINUOUS
 62
     7
 10
106.04338
 20
-442.00333
 11
120
 21
-442.00333
  0
LINE
  8
0
  6
CONTINUOUS
 62
     7
 10
102
 20
-435
 11
102
 21
-350
  0
LINE
  8
0
  6
CONTINUOUS
 62
     7
 10
56
 20
-427.5
 11
56
 21
-350
  0
LINE
  8
0
  6
CONTINUOUS
 62
     7
 10
106.04338
 20
-415.05618
 11
120
 21
-415.05618
  0
LINE
  8
0
  6
CONTINUOUS
 62
     7
 10
120
 20
-442.00333
 11
120
 21
-350
  0
LINE
  8
0
  6
CONTINUOUS
 62
     7
 10
59.635483
 20
-431.1355
 11
100.19225
 21
-432.40289
  0
LINE
  8
0
  6
CONTINUOUS
 62
     7
 10
102
 20
-435
 11
106.04338
 21
-442.00333
  0
LINE
  8
0
  6
CONTINUOUS
 62
     7
 10
58.108772
 20
-429.60876
 11
98.456802
 21
-430.86963
  0
LINE
  8
0
  6
CONTINUOUS
 62
     7
 10
55.999992
 20
-427.5
 11
59.635483
 21
-431.1355
  0
LINE
  8
0
  6
CONTINUOUS
 62
     7
 10
58.108776
 20
-429.60876
 11
58.108776
 21
-350
  0
LINE
  8
0
  6
CONTINUOUS
 62
     7
 10
106.04338
 20
-350
 11
120
 21
-350
  0
LINE
  8
0
  6
CENTER
 62
     7
 10
156.2381
 20
-350
 11
238.67693
 21
-350
  0
LINE
  8
0
  6
CONTINUOUS
 62
     7
 10
216.04338
 20
-257.99667
 11
230
 21
-257.99667
  0
LINE
  8
0
  6
CONTINUOUS
 62
     7
 10
216.04338
 20
-284.94382
 11
230
 21
-284.94382
  0
LINE
  8
0
  6
CONTINUOUS
 62
     7
 10
230
 20
-257.99667
 11
230
 21
-350
  0
LINE
  8
0
  6
CONTINUOUS
 62
     7
 10
166
 20
-272.5
 11
166
 21
-350
  0
LINE
  8
0
  6
CONTINUOUS
 62
     7
 10
212
 20
-265
 11
212
 21
-350
  0
LINE
  8
0
  6
CONTINUOUS
 62
     7
 10
212
 20
-265
 11
216.04338
 21
-257.99667
  0
LINE
  8
0
  6
CONTINUOUS
 62
     7
 10
165.99998
 20
-272.5
 11
169.63547
 21
-268.8645
  0
LINE
  8
0
  6
CONTINUOUS
 62
     7
 10
169.63548
 20
-268.86453
 11
210.19226
 21
-267.59714
  0
LINE
  8
0
  6
CONTINUOUS
 62
     7
 10
168.10876
 20
-270.39124
 11
208.45682
 21
-269.13034
  0
LINE
  8
0
  6
CONTINUOUS
 62
     7
 10
212
 20
-266
 11
208.4568
 21
-269.13034
  0
LINE
  8
0
  6
CONTINUOUS
 62
     7
 10
208.4568
 20
-267.65134
 11
208.4568
 21
-350
  0
LINE
  8
0
  6
CONTINUOUS
 62
     7
 10
169.63548
 20
-268.8645
 11
169.63548
 21
-350
  0
LINE
  8
0
  6
CONTINUOUS
 62
     7
 10
168.10878
 20
-270.39124
 11
168.10878
 21
-350
  0
LINE
  8
0
  6
CENTER
 62
     7
 10
156.2381
 20
-350
 11
238.67693
 21
-350
  0
LINE
  8
0
  6
CONTINUOUS
 62
     7
 10
211.99998
 20
-434
 11
208.45679
 21
-430.86963
  0
LINE
  8
0
  6
CONTINUOUS
 62
     7
 10
208.4568
 20
-432.34866
 11
208.4568
 21
-350
  0
LINE
  8
0
  6
CONTINUOUS
 62
     7
 10
169.63548
 20
-431.1355
 11
169.63548
 21
-350
  0
LINE
  8
0
  6
CONTINUOUS
 62
     7
 10
216.04338
 20
-442.00333
 11
230
 21
-442.00333
  0
LINE
  8
0
  6
CONTINUOUS
 62
     7
 10
212
 20
-435
 11
212
 21
-350
  0
LINE
  8
0
  6
CONTINUOUS
 62
     7
 10
166
 20
-427.5
 11
166
 21
-350
  0
LINE
  8
0
  6
CONTINUOUS
 62
     7
 10
216.04338
 20
-415.05618
 11
230
 21
-415.05618
  0
LINE
  8
0
  6
CONTINUOUS
 62
     7
 10
230
 20
-442.00333
 11
230
 21
-350
  0
LINE
  8
0
  6
CONTINUOUS
 62
     7
 10
169.63548
 20
-431.1355
 11
210.19225
 21
-432.40289
  0
LINE
  8
0
  6
CONTINUOUS
 62
     7
 10
212
 20
-435
 11
216.04338
 21
-442.00333
  0
LINE
  8
0
  6
CONTINUOUS
 62
     7
 10
168.10876
 20
-429.60876
 11
208.45682
 21
-430.86963
  0
LINE
  8
0
  6
CONTINUOUS
 62
     7
 10
166.00002
 20
-427.5
 11
169.63548
 21
-431.13547
  0
LINE
  8
0
  6
CONTINUOUS
 62
     7
 10
168.10878
 20
-429.60876
 11
168.10878
 21
-350
  0
LINE
  8
0
  6
CONTINUOUS
 62
     7
 10
216.04338
 20
-350
 11
230
 21
-350
  0
LINE
  8
0
  6
CENTER
 62
     7
 10
416.2381
 20
-260
 11
498.67694
 21
-260
  0
LINE
  8
0
  6
CONTINUOUS
 62
     7
 10
476.04337
 20
-167.99666
 11
490
 21
-167.99666
  0
LINE
  8
0
  6
CONTINUOUS
 62
     7
 10
476.04337
 20
-194.94382
 11
490
 21
-194.94382
  0
LINE
  8
0
  6
CONTINUOUS
 62
     7
 10
490
 20
-167.99666
 11
490
 21
-260
  0
LINE
  8
0
  6
CONTINUOUS
 62
     7
 10
426
 20
-182.5
 11
426
 21
-260
  0
LINE
  8
0
  6
CONTINUOUS
 62
     7
 10
472
 20
-175
 11
472
 21
-260
  0
LINE
  8
0
  6
CONTINUOUS
 62
     7
 10
472
 20
-175
 11
476.04337
 21
-167.99666
  0
LINE
  8
0
  6
CONTINUOUS
 62
     7
 10
426
 20
-182.50002
 11
429.6355
 21
-178.86452
  0
LINE
  8
0
  6
CONTINUOUS
 62
     7
 10
429.6355
 20
-178.86452
 11
470.19223
 21
-177.59711
  0
LINE
  8
0
  6
CONTINUOUS
 62
     7
 10
428.10876
 20
-180.39124
 11
468.45682
 21
-179.13036
  0
LINE
  8
0
  6
CONTINUOUS
 62
     7
 10
472
 20
-176
 11
468.45679
 21
-179.13034
  0
LINE
  8
0
  6
CONTINUOUS
 62
     7
 10
468.45682
 20
-177.65135
 11
468.45682
 21
-260
  0
LINE
  8
0
  6
CONTINUOUS
 62
     7
 10
429.6355
 20
-178.86452
 11
429.6355
 21
-260
  0
LINE
  8
0
  6
CONTINUOUS
 62
     7
 10
428.10876
 20
-180.39122
 11
428.10876
 21
-260
  0
LINE
  8
0
  6
CENTER
 62
     7
 10
416.2381
 20
-260
 11
498.67694
 21
-260
  0
LINE
  8
0
  6
CONTINUOUS
 62
     7
 10
472
 20
-344
 11
468.45682
 21
-340.86966
  0
LINE
  8
0
  6
CONTINUOUS
 62
     7
 10
468.45682
 20
-342.34866
 11
468.45682
 21
-260
  0
LINE
  8
0
  6
CONTINUOUS
 62
     7
 10
429.6355
 20
-341.1355
 11
429.6355
 21
-260
  0
LINE
  8
0
  6
CONTINUOUS
 62
     7
 10
476.04337
 20
-352.00333
 11
490
 21
-352.00333
  0
LINE
  8
0
  6
CONTINUOUS
 62
     7
 10
472
 20
-345
 11
472
 21
-260
  0
LINE
  8
0
  6
CONTINUOUS
 62
     7
 10
426
 20
-337.5
 11
426
 21
-260
  0
LINE
  8
0
  6
CONTINUOUS
 62
     7
 10
476.04337
 20
-325.05618
 11
490
 21
-325.05618
  0
LINE
  8
0
  6
CONTINUOUS
 62
     7
 10
490
 20
-352.00333
 11
490
 21
-260
  0
LINE
  8
0
  6
CONTINUOUS
 62
     7
 10
429.6355
 20
-341.13547
 11
470.19223
 21
-342.40286
  0
LINE
  8
0
  6
CONTINUOUS
 62
     7
 10
472
 20
-344.99997
 11
476.0434
 21
-352.00336
  0
LINE
  8
0
  6
CONTINUOUS
 62
     7
 10
428.10876
 20
-339.60876
 11
468.45682
 21
-340.86963
  0
LINE
  8
0
  6
CONTINUOUS
 62
     7
 10
426
 20
-337.5
 11
429.6355
 21
-341.1355
  0
LINE
  8
0
  6
CONTINUOUS
 62
     7
 10
428.10876
 20
-339.60876
 11
428.10876
 21
-260
  0
LINE
  8
0
  6
CONTINUOUS
 62
     7
 10
476.04337
 20
-260
 11
490
 21
-260
  0
LINE
  8
0
  6
CENTER
 62
     7
 10
536.2381
 20
-260
 11
618.67694
 21
-260
  0
LINE
  8
0
  6
CONTINUOUS
 62
     7
 10
596.0434
 20
-167.99666
 11
610
 21
-167.99666
  0
LINE
  8
0
  6
CONTINUOUS
 62
     7
 10
596.0434
 20
-194.94382
 11
610
 21
-194.94382
  0
LINE
  8
0
  6
CONTINUOUS
 62
     7
 10
610
 20
-167.99666
 11
610
 21
-260
  0
LINE
  8
0
  6
CONTINUOUS
 62
     7
 10
546
 20
-182.5
 11
546
 21
-260
  0
LINE
  8
0
  6
CONTINUOUS
 62
     7
 10
592
 20
-175
 11
592
 21
-260
  0
LINE
  8
0
  6
CONTINUOUS
 62
     7
 10
592
 20
-174.99998
 11
596.04333
 21
-167.99664
  0
LINE
  8
0
  6
CONTINUOUS
 62
     7
 10
546
 20
-182.5
 11
549.63544
 21
-178.8645
  0
LINE
  8
0
  6
CONTINUOUS
 62
     7
 10
549.6355
 20
-178.86452
 11
590.1922
 21
-177.59711
  0
LINE
  8
0
  6
CONTINUOUS
 62
     7
 10
548.10876
 20
-180.39124
 11
588.45679
 21
-179.13036
  0
LINE
  8
0
  6
CONTINUOUS
 62
     7
 10
592
 20
-176
 11
588.45679
 21
-179.13036
  0
LINE
  8
0
  6
CONTINUOUS
 62
     7
 10
588.45679
 20
-177.65135
 11
588.45679
 21
-260
  0
LINE
  8
0
  6
CONTINUOUS
 62
     7
 10
549.6355
 20
-178.86452
 11
549.6355
 21
-260
  0
LINE
  8
0
  6
CONTINUOUS
 62
     7
 10
548.10876
 20
-180.39122
 11
548.10876
 21
-260
  0
LINE
  8
0
  6
CENTER
 62
     7
 10
536.2381
 20
-260
 11
618.67694
 21
-260
  0
LINE
  8
0
  6
CONTINUOUS
 62
     7
 10
592
 20
-344.00003
 11
588.45679
 21
-340.86966
  0
LINE
  8
0
  6
CONTINUOUS
 62
     7
 10
588.45679
 20
-342.34866
 11
588.45679
 21
-260
  0
LINE
  8
0
  6
CONTINUOUS
 62
     7
 10
549.6355
 20
-341.1355
 11
549.6355
 21
-260
  0
LINE
  8
0
  6
CONTINUOUS
 62
     7
 10
596.0434
 20
-352.00333
 11
610
 21
-352.00333
  0
LINE
  8
0
  6
CONTINUOUS
 62
     7
 10
592
 20
-345
 11
592
 21
-260
  0
LINE
  8
0
  6
CONTINUOUS
 62
     7
 10
546
 20
-337.5
 11
546
 21
-260
  0
LINE
  8
0
  6
CONTINUOUS
 62
     7
 10
596.0434
 20
-325.05618
 11
610
 21
-325.05618
  0
LINE
  8
0
  6
CONTINUOUS
 62
     7
 10
610
 20
-352.00333
 11
610
 21
-260
  0
LINE
  8
0
  6
CONTINUOUS
 62
     7
 10
549.6355
 20
-341.13547
 11
590.1922
 21
-342.40286
  0
LINE
  8
0
  6
CONTINUOUS
 62
     7
 10
592
 20
-344.99997
 11
596.0434
 21
-352.00336
  0
LINE
  8
0
  6
CONTINUOUS
 62
     7
 10
548.10876
 20
-339.60876
 11
588.45679
 21
-340.86963
  0
LINE
  8
0
  6
CONTINUOUS
 62
     7
 10
546
 20
-337.49997
 11
549.6355
 21
-341.13547
  0
LINE
  8
0
  6
CONTINUOUS
 62
     7
 10
548.10876
 20
-339.60876
 11
548.10876
 21
-260
  0
LINE
  8
0
  6
CONTINUOUS
 62
     7
 10
596.0434
 20
-260
 11
610
 21
-260
  0
LINE
  8
0
  6
CENTER
 62
     7
 10
656.2381
 20
-260
 11
738.67694
 21
-260
  0
LINE
  8
0
  6
CONTINUOUS
 62
     7
 10
716.0434
 20
-167.99666
 11
730
 21
-167.99666
  0
LINE
  8
0
  6
CONTINUOUS
 62
     7
 10
716.0434
 20
-194.94382
 11
730
 21
-194.94382
  0
LINE
  8
0
  6
CONTINUOUS
 62
     7
 10
730
 20
-167.99666
 11
730
 21
-260
  0
LINE
  8
0
  6
CONTINUOUS
 62
     7
 10
666
 20
-182.5
 11
666
 21
-260
  0
LINE
  8
0
  6
CONTINUOUS
 62
     7
 10
712
 20
-175
 11
712
 21
-260
  0
LINE
  8
0
  6
CONTINUOUS
 62
     7
 10
712
 20
-175.00002
 11
716.0434
 21
-167.99667
  0
LINE
  8
0
  6
CONTINUOUS
 62
     7
 10
666
 20
-182.50002
 11
669.6355
 21
-178.86453
  0
LINE
  8
0
  6
CONTINUOUS
 62
     7
 10
669.6355
 20
-178.86452
 11
710.19226
 21
-177.59711
  0
LINE
  8
0
  6
CONTINUOUS
 62
     7
 10
668.10876
 20
-180.39124
 11
708.45679
 21
-179.13036
  0
LINE
  8
0
  6
CONTINUOUS
 62
     7
 10
712
 20
-175.99997
 11
708.45679
 21
-179.13033
  0
LINE
  8
0
  6
CONTINUOUS
 62
     7
 10
708.45679
 20
-177.65135
 11
708.45679
 21
-260
  0
LINE
  8
0
  6
CONTINUOUS
 62
     7
 10
669.6355
 20
-178.86452
 11
669.6355
 21
-260
  0
LINE
  8
0
  6
CONTINUOUS
 62
     7
 10
668.10876
 20
-180.39122
 11
668.10876
 21
-260
  0
LINE
  8
0
  6
CENTER
 62
     7
 10
656.2381
 20
-260
 11
738.67694
 21
-260
  0
LINE
  8
0
  6
CONTINUOUS
 62
     7
 10
712
 20
-344.00003
 11
708.45679
 21
-340.86963
  0
LINE
  8
0
  6
CONTINUOUS
 62
     7
 10
708.45679
 20
-342.34866
 11
708.45679
 21
-260
  0
LINE
  8
0
  6
CONTINUOUS
 62
     7
 10
669.6355
 20
-341.1355
 11
669.6355
 21
-260
  0
LINE
  8
0
  6
CONTINUOUS
 62
     7
 10
716.0434
 20
-352.00333
 11
730
 21
-352.00333
  0
LINE
  8
0
  6
CONTINUOUS
 62
     7
 10
712
 20
-345
 11
712
 21
-260
  0
LINE
  8
0
  6
CONTINUOUS
 62
     7
 10
666
 20
-337.5
 11
666
 21
-260
  0
LINE
  8
0
  6
CONTINUOUS
 62
     7
 10
716.0434
 20
-325.05618
 11
730
 21
-325.05618
  0
LINE
  8
0
  6
CONTINUOUS
 62
     7
 10
730
 20
-352.00333
 11
730
 21
-260
  0
LINE
  8
0
  6
CONTINUOUS
 62
     7
 10
669.6355
 20
-341.13547
 11
710.19226
 21
-342.40286
  0
LINE
  8
0
  6
CONTINUOUS
 62
     7
 10
712
 20
-345
 11
716.0434
 21
-352.00336
  0
LINE
  8
0
  6
CONTINUOUS
 62
     7
 10
668.10876
 20
-339.60876
 11
708.45679
 21
-340.86963
  0
LINE
  8
0
  6
CONTINUOUS
 62
     7
 10
666
 20
-337.5
 11
669.6355
 21
-341.1355
  0
LINE
  8
0
  6
CONTINUOUS
 62
     7
 10
668.10876
 20
-339.60876
 11
668.10876
 21
-260
  0
LINE
  8
0
  6
CONTINUOUS
 62
     7
 10
716.0434
 20
-260
 11
730
 21
-260
  0
LINE
  8
0
  6
CENTER
 62
     7
 10
766.2381
 20
-260
 11
848.67694
 21
-260
  0
LINE
  8
0
  6
CONTINUOUS
 62
     7
 10
826.0434
 20
-167.99666
 11
840
 21
-167.99666
  0
LINE
  8
0
  6
CONTINUOUS
 62
     7
 10
826.0434
 20
-194.94382
 11
840
 21
-194.94382
  0
LINE
  8
0
  6
CONTINUOUS
 62
     7
 10
840
 20
-167.99666
 11
840
 21
-260
  0
LINE
  8
0
  6
CONTINUOUS
 62
     7
 10
776
 20
-182.5
 11
776
 21
-260
  0
LINE
  8
0
  6
CONTINUOUS
 62
     7
 10
822
 20
-175
 11
822
 21
-260
  0
LINE
  8
0
  6
CONTINUOUS
 62
     7
 10
822
 20
-175
 11
826.04333
 21
-167.99666
  0
LINE
  8
0
  6
CONTINUOUS
 62
     7
 10
776
 20
-182.5
 11
779.6355
 21
-178.86452
  0
LINE
  8
0
  6
CONTINUOUS
 62
     7
 10
779.63544
 20
-178.86452
 11
820.19226
 21
-177.59711
  0
LINE
  8
0
  6
CONTINUOUS
 62
     7
 10
778.10883
 20
-180.39124
 11
818.45679
 21
-179.13036
  0
LINE
  8
0
  6
CONTINUOUS
 62
     7
 10
822
 20
-176
 11
818.45685
 21
-179.13034
  0
LINE
  8
0
  6
CONTINUOUS
 62
     7
 10
818.45679
 20
-177.65135
 11
818.45679
 21
-260
  0
LINE
  8
0
  6
CONTINUOUS
 62
     7
 10
779.6355
 20
-178.86452
 11
779.6355
 21
-260
  0
LINE
  8
0
  6
CONTINUOUS
 62
     7
 10
778.10876
 20
-180.39122
 11
778.10876
 21
-260
  0
LINE
  8
0
  6
CENTER
 62
     7
 10
766.2381
 20
-260
 11
848.67694
 21
-260
  0
LINE
  8
0
  6
CONTINUOUS
 62
     7
 10
822
 20
-344.00003
 11
818.45679
 21
-340.86966
  0
LINE
  8
0
  6
CONTINUOUS
 62
     7
 10
818.45679
 20
-342.34866
 11
818.45679
 21
-260
  0
LINE
  8
0
  6
CONTINUOUS
 62
     7
 10
779.6355
 20
-341.1355
 11
779.6355
 21
-260
  0
LINE
  8
0
  6
CONTINUOUS
 62
     7
 10
826.0434
 20
-352.00333
 11
840
 21
-352.00333
  0
LINE
  8
0
  6
CONTINUOUS
 62
     7
 10
822
 20
-345
 11
822
 21
-260
  0
LINE
  8
0
  6
CONTINUOUS
 62
     7
 10
776
 20
-337.5
 11
776
 21
-260
  0
LINE
  8
0
  6
CONTINUOUS
 62
     7
 10
826.0434
 20
-325.05618
 11
840
 21
-325.05618
  0
LINE
  8
0
  6
CONTINUOUS
 62
     7
 10
840
 20
-352.00333
 11
840
 21
-260
  0
LINE
  8
0
  6
CONTINUOUS
 62
     7
 10
779.63544
 20
-341.13547
 11
820.19226
 21
-342.40286
  0
LINE
  8
0
  6
CONTINUOUS
 62
     7
 10
822
 20
-345
 11
826.0434
 21
-352.00336
  0
LINE
  8
0
  6
CONTINUOUS
 62
     7
 10
778.10883
 20
-339.60876
 11
818.45679
 21
-340.86963
  0
LINE
  8
0
  6
CONTINUOUS
 62
     7
 10
776
 20
-337.5
 11
779.6355
 21
-341.1355
  0
LINE
  8
0
  6
CONTINUOUS
 62
     7
 10
778.10876
 20
-339.60876
 11
778.10876
 21
-260
  0
LINE
  8
0
  6
CONTINUOUS
 62
     7
 10
826.0434
 20
-260
 11
840
 21
-260
  0
ARC
  8
0
  6
CONTINUOUS
 62
     7
 10
-118.35486
 20
401.08334
 40
6.6451392
 50
145.61575
 51
214.38424
  0
ARC
  8
0
  6
CONTINUOUS
 62
     7
 10
-100.1743
 20
389.82501
 40
24.826315
 50
162.40286
 51
197.59715
  0
ARC
  8
0
  6
CONTINUOUS
 62
     7
 10
-118.35486
 20
378.91666
 40
6.6451392
 50
145.61575
 51
214.38424
  0
ARC
  8
0
  6
CONTINUOUS
 62
     7
 10
202.71213
 20
406.45447
 40
9.7121267
 50
145.61575
 51
214.38424
  0
ARC
  8
0
  6
CONTINUOUS
 62
     7
 10
229.30299
 20
390
 40
36.30299
 50
162.41205
 51
197.58795
  0
ARC
  8
0
  6
CONTINUOUS
 62
     7
 10
202.71213
 20
373.54553
 40
9.7121267
 50
145.61575
 51
214.38424
  0
ARC
  8
0
  6
CONTINUOUS
 62
     7
 10
152.71213
 20
406.45447
 40
9.7121267
 50
145.61575
 51
214.38424
  0
ARC
  8
0
  6
CONTINUOUS
 62
     7
 10
179.30299
 20
390
 40
36.30299
 50
162.41205
 51
197.58795
  0
ARC
  8
0
  6
CONTINUOUS
 62
     7
 10
152.71213
 20
373.54553
 40
9.7121267
 50
145.61575
 51
214.38424
  0
ARC
  8
0
  6
CONTINUOUS
 62
     7
 10
102.71213
 20
406.45447
 40
9.7121267
 50
145.61575
 51
214.38424
  0
ARC
  8
0
  6
CONTINUOUS
 62
     7
 10
129.30299
 20
390
 40
36.30299
 50
162.41205
 51
197.58795
  0
ARC
  8
0
  6
CONTINUOUS
 62
     7
 10
102.71213
 20
373.54553
 40
9.7121267
 50
145.61575
 51
214.38424
  0
ARC
  8
0
  6
CONTINUOUS
 62
     7
 10
52.712128
 20
406.45447
 40
9.7121267
 50
145.61575
 51
214.38424
  0
ARC
  8
0
  6
CONTINUOUS
 62
     7
 10
79.302986
 20
390
 40
36.30299
 50
162.41205
 51
197.58795
  0
ARC
  8
0
  6
CONTINUOUS
 62
     7
 10
52.712128
 20
373.54553
 40
9.7121267
 50
145.61575
 51
214.38424
  0
ARC
  8
0
  6
CONTINUOUS
 62
     7
 10
0.1786328
 20
403.85641
 40
8.1786327
 50
145.61575
 51
214.38424
  0
ARC
  8
0
  6
CONTINUOUS
 62
     7
 10
22.570938
 20
390
 40
30.570938
 50
162.41205
 51
180.00001
  0
ARC
  8
0
  6
CONTINUOUS
 62
     7
 10
22.570938
 20
390
 40
30.570938
 50
179.99999
 51
197.58795
  0
ARC
  8
0
  6
CONTINUOUS
 62
     7
 10
0.1786328
 20
376.14359
 40
8.1786327
 50
145.61575
 51
214.38424
  0
ARC
  8
0
  6
CONTINUOUS
 62
     7
 10
-39.821365
 20
403.85641
 40
8.1786327
 50
145.61575
 51
214.38424
  0
ARC
  8
0
  6
CONTINUOUS
 62
     7
 10
-17.429062
 20
390
 40
30.570938
 50
162.41205
 51
180.00001
  0
ARC
  8
0
  6
CONTINUOUS
 62
     7
 10
-17.429062
 20
390
 40
30.570938
 50
179.99999
 51
197.58795
  0
ARC
  8
0
  6
CONTINUOUS
 62
     7
 10
-39.821365
 20
376.14359
 40
8.1786327
 50
145.61575
 51
214.38424
  0
ARC
  8
0
  6
CONTINUOUS
 62
     7
 10
-79.821365
 20
403.85641
 40
8.1786327
 50
145.61575
 51
214.38424
  0
ARC
  8
0
  6
CONTINUOUS
 62
     7
 10
-57.429062
 20
390
 40
30.570938
 50
162.41205
 51
180.00001
  0
ARC
  8
0
  6
CONTINUOUS
 62
     7
 10
-57.429062
 20
390
 40
30.570938
 50
179.99999
 51
197.58795
  0
ARC
  8
0
  6
CONTINUOUS
 62
     7
 10
-79.821365
 20
376.14359
 40
8.1786327
 50
145.61575
 51
214.38424
  0
ARC
  8
0
  6
CONTINUOUS
 62
     7
 10
-158.35486
 20
401.08334
 40
6.6451392
 50
145.61575
 51
214.38424
  0
ARC
  8
0
  6
CONTINUOUS
 62
     7
 10
-140.1743
 20
389.82501
 40
24.826315
 50
162.40286
 51
197.59715
  0
ARC
  8
0
  6
CONTINUOUS
 62
     7
 10
-158.35486
 20
378.91666
 40
6.6451392
 50
145.61575
 51
214.38424
  0
ARC
  8
0
  6
CONTINUOUS
 62
     7
 10
-199.63277
 20
399.26828
 40
5.3672276
 50
145.61575
 51
214.38424
  0
ARC
  8
0
  6
CONTINUOUS
 62
     7
 10
-184.95415
 20
390.17499
 40
20.046614
 50
162.39794
 51
197.60206
  0
ARC
  8
0
  6
CONTINUOUS
 62
     7
 10
-199.63277
 20
381.08173
 40
5.3672276
 50
145.61575
 51
214.38424
  0
ARC
  8
0
  6
CONTINUOUS
 62
     7
 10
-179.24321
 20
319.91858
 40
11.756784
 50
145.61575
 51
214.38424
  0
ARC
  8
0
  6
CONTINUOUS
 62
     7
 10
-147.05428
 20
300
 40
43.945724
 50
162.41205
 51
197.58795
  0
ARC
  8
0
  6
CONTINUOUS
 62
     7
 10
-179.24321
 20
280.08142
 40
11.756784
 50
145.61575
 51
214.38424
  0
ARC
  8
0
  6
CONTINUOUS
 62
     7
 10
-228.75919
 20
390
 40
16.24081
 50
162.41205
 51
197.58795
  0
ARC
  8
0
  6
CONTINUOUS
 62
     7
 10
-240.65511
 20
397.36121
 40
4.3448987
 50
145.61575
 51
214.38424
  0
ARC
  8
0
  6
CONTINUOUS
 62
     7
 10
-240.65511
 20
382.63879
 40
4.3448987
 50
145.61575
 51
214.38424
  0
ARC
  8
0
  6
CONTINUOUS
 62
     7
 10
1.8014429
 20
323.38269
 40
13.801443
 50
145.61575
 51
214.38424
  0
ARC
  8
0
  6
CONTINUOUS
 62
     7
 10
39.588459
 20
300
 40
51.588459
 50
162.41205
 51
197.58795
  0
ARC
  8
0
  6
CONTINUOUS
 62
     7
 10
1.8014429
 20
276.61731
 40
13.801443
 50
145.61575
 51
214.38424
  0
ARC
  8
0
  6
CONTINUOUS
 62
     7
 10
-58.198559
 20
323.38269
 40
13.801443
 50
145.61575
 51
214.38424
  0
ARC
  8
0
  6
CONTINUOUS
 62
     7
 10
-20.411543
 20
300
 40
51.588459
 50
162.41205
 51
197.58795
  0
ARC
  8
0
  6
CONTINUOUS
 62
     7
 10
-58.198559
 20
276.61731
 40
13.801443
 50
145.61575
 51
214.38424
  0
ARC
  8
0
  6
CONTINUOUS
 62
     7
 10
-119.24322
 20
319.91858
 40
11.756784
 50
145.61575
 51
214.38424
  0
ARC
  8
0
  6
CONTINUOUS
 62
     7
 10
-87.054276
 20
300
 40
43.945724
 50
162.41205
 51
197.58795
  0
ARC
  8
0
  6
CONTINUOUS
 62
     7
 10
-119.24322
 20
280.08142
 40
11.756784
 50
145.61575
 51
214.38424
  0
ARC
  8
0
  6
CONTINUOUS
 62
     7
 10
-233.79321
 20
320.76859
 40
11.756784
 50
145.61575
 51
214.38424
  0
ARC
  8
0
  6
CONTINUOUS
 62
     7
 10
-201.60428
 20
300.85001
 40
43.945724
 50
162.41205
 51
197.58795
  0
ARC
  8
0
  6
CONTINUOUS
 62
     7
 10
-233.79321
 20
280.93143
 40
11.756784
 50
145.61575
 51
214.38424
  0
ARC
  8
0
  6
CONTINUOUS
 62
     7
 10
263.75677
 20
409.91858
 40
11.756784
 50
145.61575
 51
214.38424
  0
ARC
  8
0
  6
CONTINUOUS
 62
     7
 10
295.94571
 20
390
 40
43.945724
 50
162.41205
 51
197.58795
  0
ARC
  8
0
  6
CONTINUOUS
 62
     7
 10
263.75677
 20
370.08142
 40
11.756784
 50
145.61575
 51
214.38424
  0
ARC
  8
0
  6
CONTINUOUS
 62
     7
 10
61.801441
 20
323.38269
 40
13.801443
 50
145.61575
 51
214.38424
  0
ARC
  8
0
  6
CONTINUOUS
 62
     7
 10
99.588455
 20
300
 40
51.588459
 50
162.41205
 51
197.58795
  0
ARC
  8
0
  6
CONTINUOUS
 62
     7
 10
61.801441
 20
276.61731
 40
13.801443
 50
145.61575
 51
214.38424
  0
ARC
  8
0
  6
CONTINUOUS
 62
     7
 10
121.80145
 20
323.38269
 40
13.801443
 50
145.61575
 51
214.38424
  0
ARC
  8
0
  6
CONTINUOUS
 62
     7
 10
159.58846
 20
300
 40
51.588459
 50
162.41205
 51
197.58795
  0
ARC
  8
0
  6
CONTINUOUS
 62
     7
 10
121.80145
 20
276.61731
 40
13.801443
 50
145.61575
 51
214.38424
  0
ARC
  8
0
  6
CONTINUOUS
 62
     7
 10
175.06844
 20
329.1022
 40
9.0684423
 50
146.59132
 51
213.40867
  0
ARC
  8
0
  6
CONTINUOUS
 62
     7
 10
215.23723
 20
312.05453
 40
49.237228
 50
165.82848
 51
194.17151
  0
ARC
  8
0
  6
CONTINUOUS
 62
     7
 10
175.06844
 20
270.8978
 40
9.0684423
 50
146.59132
 51
213.40867
  0
ARC
  8
0
  6
CONTINUOUS
 62
     7
 10
215.23723
 20
287.94547
 40
49.237228
 50
165.82848
 51
194.17151
  0
ARC
  8
0
  6
CONTINUOUS
 62
     7
 10
235.06844
 20
329.1022
 40
9.0684423
 50
146.59132
 51
213.40867
  0
ARC
  8
0
  6
CONTINUOUS
 62
     7
 10
275.23724
 20
312.05453
 40
49.237228
 50
165.82848
 51
194.17151
  0
ARC
  8
0
  6
CONTINUOUS
 62
     7
 10
235.06844
 20
270.8978
 40
9.0684423
 50
146.59132
 51
213.40867
  0
ARC
  8
0
  6
CONTINUOUS
 62
     7
 10
275.23724
 20
287.94547
 40
49.237228
 50
165.82848
 51
194.17151
  0
ARC
  8
0
  6
CONTINUOUS
 62
     7
 10
-234.93156
 20
179.1022
 40
9.0684423
 50
146.59132
 51
213.40867
  0
ARC
  8
0
  6
CONTINUOUS
 62
     7
 10
-194.76277
 20
162.05453
 40
49.237228
 50
165.82848
 51
194.17151
  0
ARC
  8
0
  6
CONTINUOUS
 62
     7
 10
-234.93156
 20
120.8978
 40
9.0684423
 50
146.59132
 51
213.40867
  0
ARC
  8
0
  6
CONTINUOUS
 62
     7
 10
-194.76277
 20
137.94547
 40
49.237228
 50
165.82848
 51
194.17151
  0
ARC
  8
0
  6
CONTINUOUS
 62
     7
 10
-164.93156
 20
179.1022
 40
9.0684423
 50
146.59132
 51
213.40867
  0
ARC
  8
0
  6
CONTINUOUS
 62
     7
 10
-124.76277
 20
162.05453
 40
49.237228
 50
165.82848
 51
194.17151
  0
ARC
  8
0
  6
CONTINUOUS
 62
     7
 10
-164.93156
 20
120.8978
 40
9.0684423
 50
146.59132
 51
213.40867
  0
ARC
  8
0
  6
CONTINUOUS
 62
     7
 10
-124.76277
 20
137.94547
 40
49.237228
 50
165.82848
 51
194.17151
  0
ARC
  8
0
  6
CONTINUOUS
 62
     7
 10
-94.931557
 20
179.1022
 40
9.0684423
 50
146.59132
 51
213.40867
  0
ARC
  8
0
  6
CONTINUOUS
 62
     7
 10
-54.762772
 20
162.05453
 40
49.237228
 50
165.82848
 51
194.17151
  0
ARC
  8
0
  6
CONTINUOUS
 62
     7
 10
-94.931557
 20
120.8978
 40
9.0684423
 50
146.59132
 51
213.40867
  0
ARC
  8
0
  6
CONTINUOUS
 62
     7
 10
-54.762772
 20
137.94547
 40
49.237228
 50
165.82848
 51
194.17151
  0
ARC
  8
0
  6
CONTINUOUS
 62
     7
 10
-12.484517
 20
186.95518
 40
11.515483
 50
146.59132
 51
213.40867
  0
ARC
  8
0
  6
CONTINUOUS
 62
     7
 10
38.523464
 20
165.30734
 40
62.523464
 50
165.82848
 51
194.17151
  0
ARC
  8
0
  6
CONTINUOUS
 62
     7
 10
-12.484517
 20
113.04482
 40
11.515483
 50
146.59132
 51
213.40867
  0
ARC
  8
0
  6
CONTINUOUS
 62
     7
 10
38.523464
 20
134.69266
 40
62.523464
 50
165.82848
 51
194.17151
  0
ARC
  8
0
  6
CONTINUOUS
 62
     7
 10
57.515484
 20
186.95518
 40
11.515483
 50
146.59132
 51
213.40867
  0
ARC
  8
0
  6
CONTINUOUS
 62
     7
 10
108.52347
 20
165.30734
 40
62.523464
 50
165.82848
 51
194.17151
  0
ARC
  8
0
  6
CONTINUOUS
 62
     7
 10
57.515484
 20
113.04482
 40
11.515483
 50
146.59132
 51
213.40867
  0
ARC
  8
0
  6
CONTINUOUS
 62
     7
 10
108.52347
 20
134.69266
 40
62.523464
 50
165.82848
 51
194.17151
  0
ARC
  8
0
  6
CONTINUOUS
 62
     7
 10
127.51548
 20
186.95518
 40
11.515483
 50
146.59132
 51
213.40867
  0
ARC
  8
0
  6
CONTINUOUS
 62
     7
 10
178.52347
 20
165.30734
 40
62.523464
 50
165.82848
 51
194.17151
  0
ARC
  8
0
  6
CONTINUOUS
 62
     7
 10
127.51548
 20
113.04482
 40
11.515483
 50
146.59132
 51
213.40867
  0
ARC
  8
0
  6
CONTINUOUS
 62
     7
 10
178.52347
 20
134.69266
 40
62.523464
 50
165.82848
 51
194.17151
  0
ARC
  8
0
  6
CONTINUOUS
 62
     7
 10
197.51549
 20
186.95518
 40
11.515483
 50
146.59132
 51
213.40867
  0
ARC
  8
0
  6
CONTINUOUS
 62
     7
 10
248.52347
 20
165.30734
 40
62.523464
 50
165.82848
 51
194.17151
  0
ARC
  8
0
  6
CONTINUOUS
 62
     7
 10
197.51549
 20
113.04482
 40
11.515483
 50
146.59132
 51
213.40867
  0
ARC
  8
0
  6
CONTINUOUS
 62
     7
 10
248.52347
 20
134.69266
 40
62.523464
 50
165.82848
 51
194.17151
  0
ARC
  8
0
  6
CONTINUOUS
 62
     7
 10
267.51547
 20
186.95518
 40
11.515483
 50
146.59132
 51
213.40867
  0
ARC
  8
0
  6
CONTINUOUS
 62
     7
 10
318.52347
 20
165.30734
 40
62.523464
 50
165.82848
 51
194.17151
  0
ARC
  8
0
  6
CONTINUOUS
 62
     7
 10
267.51547
 20
113.04482
 40
11.515483
 50
146.59132
 51
213.40867
  0
ARC
  8
0
  6
CONTINUOUS
 62
     7
 10
318.52347
 20
134.69266
 40
62.523464
 50
165.82848
 51
194.17151
  0
ARC
  8
0
  6
CONTINUOUS
 62
     7
 10
430.51547
 20
376.95517
 40
11.515483
 50
146.59132
 51
213.40867
  0
ARC
  8
0
  6
CONTINUOUS
 62
     7
 10
481.52347
 20
355.30734
 40
62.523464
 50
165.82848
 51
194.17151
  0
ARC
  8
0
  6
CONTINUOUS
 62
     7
 10
430.51547
 20
303.04483
 40
11.515483
 50
146.59132
 51
213.40867
  0
ARC
  8
0
  6
CONTINUOUS
 62
     7
 10
481.52347
 20
324.69266
 40
62.523464
 50
165.82848
 51
194.17151
  0
ARC
  8
0
  6
CONTINUOUS
 62
     7
 10
511.67462
 20
383.88428
 40
13.674635
 50
146.59132
 51
213.40867
  0
ARC
  8
0
  6
CONTINUOUS
 62
     7
 10
572.24664
 20
358.17746
 40
74.246613
 50
165.82848
 51
194.17151
  0
ARC
  8
0
  6
CONTINUOUS
 62
     7
 10
511.67462
 20
296.11572
 40
13.674635
 50
146.59132
 51
213.40867
  0
ARC
  8
0
  6
CONTINUOUS
 62
     7
 10
572.24664
 20
321.82254
 40
74.246613
 50
165.82848
 51
194.17151
  0
ARC
  8
0
  6
CONTINUOUS
 62
     7
 10
591.67462
 20
383.88428
 40
13.674635
 50
146.59132
 51
213.40867
  0
ARC
  8
0
  6
CONTINUOUS
 62
     7
 10
652.24664
 20
358.17746
 40
74.246613
 50
165.82848
 51
194.17151
  0
ARC
  8
0
  6
CONTINUOUS
 62
     7
 10
591.67462
 20
296.11572
 40
13.674635
 50
146.59132
 51
213.40867
  0
ARC
  8
0
  6
CONTINUOUS
 62
     7
 10
652.24664
 20
321.82254
 40
74.246613
 50
165.82848
 51
194.17151
  0
ARC
  8
0
  6
CONTINUOUS
 62
     7
 10
671.67462
 20
383.88428
 40
13.674635
 50
146.59132
 51
213.40867
  0
ARC
  8
0
  6
CONTINUOUS
 62
     7
 10
732.24664
 20
358.17746
 40
74.246613
 50
165.82848
 51
194.17151
  0
ARC
  8
0
  6
CONTINUOUS
 62
     7
 10
671.67462
 20
296.11572
 40
13.674635
 50
146.59132
 51
213.40867
  0
ARC
  8
0
  6
CONTINUOUS
 62
     7
 10
732.24664
 20
321.82254
 40
74.246613
 50
165.82848
 51
194.17151
  0
ARC
  8
0
  6
CONTINUOUS
 62
     7
 10
751.67462
 20
383.88428
 40
13.674635
 50
146.59132
 51
213.40867
  0
ARC
  8
0
  6
CONTINUOUS
 62
     7
 10
812.24664
 20
358.17746
 40
74.246613
 50
165.82848
 51
194.17151
  0
ARC
  8
0
  6
CONTINUOUS
 62
     7
 10
751.67462
 20
296.11572
 40
13.674635
 50
146.59132
 51
213.40867
  0
ARC
  8
0
  6
CONTINUOUS
 62
     7
 10
812.24664
 20
321.82254
 40
74.246613
 50
165.82848
 51
194.17151
  0
ARC
  8
0
  6
CONTINUOUS
 62
     7
 10
831.82465
 20
383.33429
 40
13.674635
 50
146.59132
 51
213.40867
  0
ARC
  8
0
  6
CONTINUOUS
 62
     7
 10
892.39661
 20
357.62747
 40
74.246613
 50
165.82848
 51
194.17151
  0
ARC
  8
0
  6
CONTINUOUS
 62
     7
 10
831.82465
 20
295.56573
 40
13.674635
 50
146.59132
 51
213.40867
  0
ARC
  8
0
  6
CONTINUOUS
 62
     7
 10
892.39661
 20
321.27252
 40
74.246613
 50
165.82848
 51
194.17151
  0
ARC
  8
0
  6
CONTINUOUS
 62
     7
 10
912.69965
 20
384.55927
 40
13.674635
 50
146.59132
 51
213.40867
  0
ARC
  8
0
  6
CONTINUOUS
 62
     7
 10
973.27161
 20
358.85248
 40
74.246613
 50
165.82848
 51
194.17151
  0
ARC
  8
0
  6
CONTINUOUS
 62
     7
 10
912.69965
 20
296.79071
 40
13.674635
 50
146.59132
 51
213.40867
  0
ARC
  8
0
  6
CONTINUOUS
 62
     7
 10
973.27161
 20
322.49753
 40
74.246613
 50
165.82848
 51
194.17151
  0
ARC
  8
0
  6
CONTINUOUS
 62
     7
 10
433.22464
 20
194.03427
 40
13.674635
 50
146.59132
 51
213.40867
  0
ARC
  8
0
  6
CONTINUOUS
 62
     7
 10
493.79663
 20
168.32747
 40
74.246613
 50
165.82848
 51
194.17151
  0
ARC
  8
0
  6
CONTINUOUS
 62
     7
 10
433.22464
 20
106.26572
 40
13.674635
 50
146.59132
 51
213.40867
  0
ARC
  8
0
  6
CONTINUOUS
 62
     7
 10
493.79663
 20
131.97253
 40
74.246613
 50
165.82848
 51
194.17151
  0
ARC
  8
0
  6
CONTINUOUS
 62
     7
 10
523.27319
 20
205.43277
 40
17.273224
 50
146.59132
 51
213.40867
  0
ARC
  8
0
  6
CONTINUOUS
 62
     7
 10
599.78522
 20
172.961
 40
93.785202
 50
165.82848
 51
194.17151
  0
ARC
  8
0
  6
CONTINUOUS
 62
     7
 10
599.78522
 20
127.03899
 40
93.785202
 50
165.82848
 51
194.17151
  0
ARC
  8
0
  6
CONTINUOUS
 62
     7
 10
523.27319
 20
94.56723
 40
17.273224
 50
146.59132
 51
213.40867
  0
ARC
  8
0
  6
CONTINUOUS
 62
     7
 10
613.27319
 20
205.43277
 40
17.273224
 50
146.59132
 51
213.40867
  0
ARC
  8
0
  6
CONTINUOUS
 62
     7
 10
689.78522
 20
172.961
 40
93.785202
 50
165.82848
 51
194.17151
  0
ARC
  8
0
  6
CONTINUOUS
 62
     7
 10
689.78522
 20
127.03899
 40
93.785202
 50
165.82848
 51
194.17151
  0
ARC
  8
0
  6
CONTINUOUS
 62
     7
 10
613.27319
 20
94.56723
 40
17.273224
 50
146.59132
 51
213.40867
  0
ARC
  8
0
  6
CONTINUOUS
 62
     7
 10
703.27319
 20
205.43277
 40
17.273224
 50
146.59132
 51
213.40867
  0
ARC
  8
0
  6
CONTINUOUS
 62
     7
 10
779.78522
 20
172.961
 40
93.785202
 50
165.82848
 51
194.17151
  0
ARC
  8
0
  6
CONTINUOUS
 62
     7
 10
779.78522
 20
127.03899
 40
93.785202
 50
165.82848
 51
194.17151
  0
ARC
  8
0
  6
CONTINUOUS
 62
     7
 10
703.27319
 20
94.56723
 40
17.273224
 50
146.59132
 51
213.40867
  0
ARC
  8
0
  6
CONTINUOUS
 62
     7
 10
793.27319
 20
205.43277
 40
17.273224
 50
146.59132
 51
213.40867
  0
ARC
  8
0
  6
CONTINUOUS
 62
     7
 10
869.78522
 20
172.961
 40
93.785202
 50
165.82848
 51
194.17151
  0
ARC
  8
0
  6
CONTINUOUS
 62
     7
 10
869.78522
 20
127.03899
 40
93.785202
 50
165.82848
 51
194.17151
  0
ARC
  8
0
  6
CONTINUOUS
 62
     7
 10
793.27319
 20
94.56723
 40
17.273224
 50
146.59132
 51
213.40867
  0
ARC
  8
0
  6
CONTINUOUS
 62
     7
 10
879.37323
 20
205.23277
 40
17.273224
 50
146.59132
 51
213.40867
  0
ARC
  8
0
  6
CONTINUOUS
 62
     7
 10
955.88519
 20
172.761
 40
93.785202
 50
165.82848
 51
194.17151
  0
ARC
  8
0
  6
CONTINUOUS
 62
     7
 10
955.88519
 20
126.839
 40
93.785202
 50
165.82848
 51
194.17151
  0
ARC
  8
0
  6
CONTINUOUS
 62
     7
 10
879.37323
 20
94.367226
 40
17.273224
 50
146.59132
 51
213.40867
  0
ARC
  8
0
  6
CONTINUOUS
 62
     7
 10
3.2732236
 20
-94.56723
 40
17.273224
 50
146.59132
 51
213.40867
  0
ARC
  8
0
  6
CONTINUOUS
 62
     7
 10
79.785202
 20
-127.03899
 40
93.785202
 50
165.82848
 51
194.17151
  0
ARC
  8
0
  6
CONTINUOUS
 62
     7
 10
79.785202
 20
-172.961
 40
93.785202
 50
165.82848
 51
194.17151
  0
ARC
  8
0
  6
CONTINUOUS
 62
     7
 10
3.2732236
 20
-205.43277
 40
17.273224
 50
146.59132
 51
213.40867
  0
ARC
  8
0
  6
CONTINUOUS
 62
     7
 10
-96.726776
 20
-94.56723
 40
17.273224
 50
146.59132
 51
213.40867
  0
ARC
  8
0
  6
CONTINUOUS
 62
     7
 10
-20.214802
 20
-127.03899
 40
93.785202
 50
165.82848
 51
194.17151
  0
ARC
  8
0
  6
CONTINUOUS
 62
     7
 10
-20.214802
 20
-172.961
 40
93.785202
 50
165.82848
 51
194.17151
  0
ARC
  8
0
  6
CONTINUOUS
 62
     7
 10
-96.726776
 20
-205.43277
 40
17.273224
 50
146.59132
 51
213.40867
  0
ARC
  8
0
  6
CONTINUOUS
 62
     7
 10
-196.72678
 20
-94.56723
 40
17.273224
 50
146.59132
 51
213.40867
  0
ARC
  8
0
  6
CONTINUOUS
 62
     7
 10
-120.2148
 20
-127.03899
 40
93.785202
 50
165.82848
 51
194.17151
  0
ARC
  8
0
  6
CONTINUOUS
 62
     7
 10
-120.2148
 20
-172.961
 40
93.785202
 50
165.82848
 51
194.17151
  0
ARC
  8
0
  6
CONTINUOUS
 62
     7
 10
-196.72678
 20
-205.43277
 40
17.273224
 50
146.59132
 51
213.40867
  0
ARC
  8
0
  6
CONTINUOUS
 62
     7
 10
115.87181
 20
-83.01873
 40
20.871813
 50
146.59132
 51
213.40867
  0
ARC
  8
0
  6
CONTINUOUS
 62
     7
 10
208.32378
 20
-122.25545
 40
113.32378
 50
165.82848
 51
194.17151
  0
ARC
  8
0
  6
CONTINUOUS
 62
     7
 10
115.87181
 20
-216.98126
 40
20.871813
 50
146.59132
 51
213.40867
  0
ARC
  8
0
  6
CONTINUOUS
 62
     7
 10
208.32378
 20
-177.74455
 40
113.32378
 50
165.82848
 51
194.17151
  0
ARC
  8
0
  6
CONTINUOUS
 62
     7
 10
225.87181
 20
-83.01873
 40
20.871813
 50
146.59132
 51
213.40867
  0
ARC
  8
0
  6
CONTINUOUS
 62
     7
 10
318.32379
 20
-122.25545
 40
113.32378
 50
165.82848
 51
194.17151
  0
ARC
  8
0
  6
CONTINUOUS
 62
     7
 10
225.87181
 20
-216.98126
 40
20.871813
 50
146.59132
 51
213.40867
  0
ARC
  8
0
  6
CONTINUOUS
 62
     7
 10
318.32379
 20
-177.74455
 40
113.32378
 50
165.82848
 51
194.17151
  0
ARC
  8
0
  6
CONTINUOUS
 62
     7
 10
-194.12819
 20
-283.01874
 40
20.871813
 50
146.59132
 51
213.40867
  0
ARC
  8
0
  6
CONTINUOUS
 62
     7
 10
-101.67622
 20
-322.25546
 40
113.32378
 50
165.82848
 51
194.17151
  0
ARC
  8
0
  6
CONTINUOUS
 62
     7
 10
-194.12819
 20
-416.98126
 40
20.871813
 50
146.59132
 51
213.40867
  0
ARC
  8
0
  6
CONTINUOUS
 62
     7
 10
-101.67622
 20
-377.74454
 40
113.32378
 50
165.82848
 51
194.17151
  0
ARC
  8
0
  6
CONTINUOUS
 62
     7
 10
-88.553185
 20
-282.84372
 40
20.871813
 50
146.59132
 51
213.40867
  0
ARC
  8
0
  6
CONTINUOUS
 62
     7
 10
3.8987818
 20
-322.08044
 40
113.32378
 50
165.82848
 51
194.17151
  0
ARC
  8
0
  6
CONTINUOUS
 62
     7
 10
-88.553185
 20
-416.80627
 40
20.871813
 50
146.59132
 51
213.40867
  0
ARC
  8
0
  6
CONTINUOUS
 62
     7
 10
3.8987818
 20
-377.56955
 40
113.32378
 50
165.82848
 51
194.17151
  0
ARC
  8
0
  6
CONTINUOUS
 62
     7
 10
16.4704
 20
-271.47025
 40
24.4704
 50
146.59132
 51
213.40867
  0
ARC
  8
0
  6
CONTINUOUS
 62
     7
 10
124.86237
 20
-317.47189
 40
132.86237
 50
165.82848
 51
194.17151
  0
ARC
  8
0
  6
CONTINUOUS
 62
     7
 10
124.86237
 20
-382.52811
 40
132.86237
 50
165.82848
 51
194.17151
  0
ARC
  8
0
  6
CONTINUOUS
 62
     7
 10
16.4704
 20
-428.52975
 40
24.4704
 50
146.59132
 51
213.40867
  0
ARC
  8
0
  6
CONTINUOUS
 62
     7
 10
126.4704
 20
-271.47025
 40
24.4704
 50
146.59132
 51
213.40867
  0
ARC
  8
0
  6
CONTINUOUS
 62
     7
 10
234.86237
 20
-317.47189
 40
132.86237
 50
165.82848
 51
194.17151
  0
ARC
  8
0
  6
CONTINUOUS
 62
     7
 10
234.86237
 20
-382.52811
 40
132.86237
 50
165.82848
 51
194.17151
  0
ARC
  8
0
  6
CONTINUOUS
 62
     7
 10
126.4704
 20
-428.52975
 40
24.4704
 50
146.59132
 51
213.40867
  0
ARC
  8
0
  6
CONTINUOUS
 62
     7
 10
236.4704
 20
-271.47025
 40
24.4704
 50
146.59132
 51
213.40867
  0
ARC
  8
0
  6
CONTINUOUS
 62
     7
 10
344.86237
 20
-317.47189
 40
132.86237
 50
165.82848
 51
194.17151
  0
ARC
  8
0
  6
CONTINUOUS
 62
     7
 10
344.86237
 20
-382.52811
 40
132.86237
 50
165.82848
 51
194.17151
  0
ARC
  8
0
  6
CONTINUOUS
 62
     7
 10
236.4704
 20
-428.52975
 40
24.4704
 50
146.59132
 51
213.40867
  0
ARC
  8
0
  6
CONTINUOUS
 62
     7
 10
496.4704
 20
-181.47025
 40
24.4704
 50
146.59132
 51
213.40867
  0
ARC
  8
0
  6
CONTINUOUS
 62
     7
 10
604.86237
 20
-227.47191
 40
132.86237
 50
165.82848
 51
194.17151
  0
ARC
  8
0
  6
CONTINUOUS
 62
     7
 10
604.86237
 20
-292.52811
 40
132.86237
 50
165.82848
 51
194.17151
  0
ARC
  8
0
  6
CONTINUOUS
 62
     7
 10
496.4704
 20
-338.52975
 40
24.4704
 50
146.59132
 51
213.40867
  0
ARC
  8
0
  6
CONTINUOUS
 62
     7
 10
616.4704
 20
-181.47025
 40
24.4704
 50
146.59132
 51
213.40867
  0
ARC
  8
0
  6
CONTINUOUS
 62
     7
 10
724.86237
 20
-227.47191
 40
132.86237
 50
165.82848
 51
194.17151
  0
ARC
  8
0
  6
CONTINUOUS
 62
     7
 10
724.86237
 20
-292.52811
 40
132.86237
 50
165.82848
 51
194.17151
  0
ARC
  8
0
  6
CONTINUOUS
 62
     7
 10
616.4704
 20
-338.52975
 40
24.4704
 50
146.59132
 51
213.40867
  0
ARC
  8
0
  6
CONTINUOUS
 62
     7
 10
736.4704
 20
-181.47025
 40
24.4704
 50
146.59132
 51
213.40867
  0
ARC
  8
0
  6
CONTINUOUS
 62
     7
 10
844.86237
 20
-227.47191
 40
132.86237
 50
165.82848
 51
194.17151
  0
ARC
  8
0
  6
CONTINUOUS
 62
     7
 10
844.86237
 20
-292.52811
 40
132.86237
 50
165.82848
 51
194.17151
  0
ARC
  8
0
  6
CONTINUOUS
 62
     7
 10
736.4704
 20
-338.52975
 40
24.4704
 50
146.59132
 51
213.40867
  0
ARC
  8
0
  6
CONTINUOUS
 62
     7
 10
846.4704
 20
-181.47025
 40
24.4704
 50
146.59132
 51
213.40867
  0
ARC
  8
0
  6
CONTINUOUS
 62
     7
 10
954.86237
 20
-227.47191
 40
132.86237
 50
165.82848
 51
194.17151
  0
ARC
  8
0
  6
CONTINUOUS
 62
     7
 10
954.86237
 20
-292.52811
 40
132.86237
 50
165.82848
 51
194.17151
  0
ARC
  8
0
  6
CONTINUOUS
 62
     7
 10
846.4704
 20
-338.52975
 40
24.4704
 50
146.59132
 51
213.40867
  0
TEXT
  8
0
  6
CONTINUOUS
 62
     7
 10
-122.8575
 20
446
 40
8
 41
0.84218644
  1
ブッシング１／４×１／８～２１／２×１１／２
  0
TEXT
  8
0
  6
CONTINUOUS
 62
     7
 10
507.1425
 20
436
 40
8
 41
0.84260539
  1
ブッシング２１／２×２～４×１１／２
  0
TEXT
  8
0
  6
CONTINUOUS
 62
     7
 10
-82.8575
 20
-64
 40
8
 41
0.84377246
  1
ブッシング４×２～６×２
  0
TEXT
  8
0
  6
CONTINUOUS
 62
     7
 10
527.1425
 20
-74
 40
8
 41
0.84306956
  1
ブッシング６×２１／２～６×５
  0
TEXT
  8
0
  6
CONTINUOUS
 62
     7
 10
-141.80258
 20
407.30417
 40
3.2
 41
0.84634979
  1
１／２×３／８
  0
TEXT
  8
0
  6
CONTINUOUS
 62
     7
 10
171.20015
 20
418.82801
 40
3.2
 41
0.84892707
  1
１×３／４
  0
TEXT
  8
0
  6
CONTINUOUS
 62
     7
 10
121.20015
 20
418.82801
 40
3.2
 41
0.84892707
  1
１×１／４
  0
TEXT
  8
0
  6
CONTINUOUS
 62
     7
 10
71.200155
 20
418.82801
 40
3.2
 41
0.84892707
  1
１×３／８
  0
TEXT
  8
0
  6
CONTINUOUS
 62
     7
 10
21.200153
 20
418.82801
 40
3.2
 41
0.84892707
  1
１×１／４
  0
TEXT
  8
0
  6
CONTINUOUS
 62
     7
 10
-22.419594
 20
409.63639
 40
3.2
 41
0.84634979
  1
３／４×１／２
  0
TEXT
  8
0
  6
CONTINUOUS
 62
     7
 10
-62.419596
 20
409.63639
 40
3.2
 41
0.84634979
  1
３／４×３／８
  0
TEXT
  8
0
  6
CONTINUOUS
 62
     7
 10
-102.4196
 20
409.63639
 40
3.2
 41
0.84634979
  1
３／４×１／４
  0
TEXT
  8
0
  6
CONTINUOUS
 62
     7
 10
-181.80258
 20
407.30417
 40
3.2
 41
0.84634979
  1
１／２×１／４
  0
TEXT
  8
0
  6
CONTINUOUS
 62
     7
 10
-218.55844
 20
403.93314
 40
3.2
 41
0.84634979
  1
３／８×１／４
  0
TEXT
  8
0
  6
CONTINUOUS
 62
     7
 10
-210.04299
 20
331.65
 40
3.2
 41
0.8455654
  1
１１／４×３／４
  0
TEXT
  8
0
  6
CONTINUOUS
 62
     7
 10
-259.39016
 20
402.88618
 40
3.2
 41
0.84634979
  1
１／４×１／８
  0
TEXT
  8
0
  6
CONTINUOUS
 62
     7
 10
-34.819296
 20
334.49958
 40
3.2
 41
0.8455654
  1
１１／２×３／４
  0
TEXT
  8
0
  6
CONTINUOUS
 62
     7
 10
-94.8193
 20
334.49958
 40
3.2
 41
0.8455654
  1
１１／２×１／２
  0
TEXT
  8
0
  6
CONTINUOUS
 62
     7
 10
-150.04299
 20
331.65
 40
3.2
 41
0.84741102
  1
１１／４×１
  0
TEXT
  8
0
  6
CONTINUOUS
 62
     7
 10
-264.59301
 20
332.50001
 40
3.2
 41
0.8455654
  1
１１／４×１／２
  0
TEXT
  8
0
  6
CONTINUOUS
 62
     7
 10
232.95701
 20
421.65
 40
3.2
 41
0.8455654
  1
１１／４×３／８
  0
TEXT
  8
0
  6
CONTINUOUS
 62
     7
 10
25.180704
 20
334.49958
 40
3.2
 41
0.84741102
  1
１１／２×１
  0
TEXT
  8
0
  6
CONTINUOUS
 62
     7
 10
85.1807
 20
334.49958
 40
3.2
 41
0.84496202
  1
１１／２×１１／４
  0
TEXT
  8
0
  6
CONTINUOUS
 62
     7
 10
142.85233
 20
340.51026
 40
3.2
 41
0.84892707
  1
２×１／２
  0
TEXT
  8
0
  6
CONTINUOUS
 62
     7
 10
202.85233
 20
340.51026
 40
3.2
 41
0.84892707
  1
２×３／４
  0
TEXT
  8
0
  6
CONTINUOUS
 62
     7
 10
-267.14767
 20
190.51024
 40
3.2
 41
0.85537027
  1
２×１
  0
TEXT
  8
0
  6
CONTINUOUS
 62
     7
 10
-197.14767
 20
190.51024
 40
3.2
 41
0.84741102
  1
２×１１／４
  0
TEXT
  8
0
  6
CONTINUOUS
 62
     7
 10
-127.14766
 20
190.51024
 40
3.2
 41
0.84741102
  1
２×１１／２
  0
TEXT
  8
0
  6
CONTINUOUS
 62
     7
 10
-49.47494
 20
198.36613
 40
3.2
 41
0.8455654
  1
２１／２×１／２
  0
TEXT
  8
0
  6
CONTINUOUS
 62
     7
 10
20.52506
 20
198.36613
 40
3.2
 41
0.8455654
  1
２１／２×３／４
  0
TEXT
  8
0
  6
CONTINUOUS
 62
     7
 10
90.52506
 20
198.36613
 40
3.2
 41
0.84741102
  1
２１／２×１
  0
TEXT
  8
0
  6
CONTINUOUS
 62
     7
 10
160.52506
 20
198.36613
 40
3.2
 41
0.84496202
  1
２１／２×１１／４
  0
TEXT
  8
0
  6
CONTINUOUS
 62
     7
 10
230.52506
 20
198.36613
 40
3.2
 41
0.84496202
  1
２１／２×１１／２
  0
TEXT
  8
0
  6
CONTINUOUS
 62
     7
 10
393.52506
 20
388.36613
 40
3.2
 41
0.84741102
  1
２１／２×２
  0
TEXT
  8
0
  6
CONTINUOUS
 62
     7
 10
465.77112
 20
396.75077
 40
3.2
 41
0.84892707
  1
３×１／２
  0
TEXT
  8
0
  6
CONTINUOUS
 62
     7
 10
545.77112
 20
396.75077
 40
3.2
 41
0.84892707
  1
３×３／４
  0
TEXT
  8
0
  6
CONTINUOUS
 62
     7
 10
625.77112
 20
396.75077
 40
3.2
 41
0.85537027
  1
３×１
  0
TEXT
  8
0
  6
CONTINUOUS
 62
     7
 10
705.77112
 20
396.75077
 40
3.2
 41
0.84741102
  1
３×１１／４
  0
TEXT
  8
0
  6
CONTINUOUS
 62
     7
 10
785.92109
 20
396.20078
 40
3.2
 41
0.84741102
  1
３×１１／２
  0
TEXT
  8
0
  6
CONTINUOUS
 62
     7
 10
866.79609
 20
397.42579
 40
3.2
 41
0.85537027
  1
３×２
  0
TEXT
  8
0
  6
CONTINUOUS
 62
     7
 10
387.32111
 20
206.90078
 40
3.2
 41
0.84741102
  1
３×２１／２
  0
TEXT
  8
0
  6
CONTINUOUS
 62
     7
 10
472.96421
 20
219.86896
 40
3.2
 41
0.84892707
  1
４×１／２
  0
TEXT
  8
0
  6
CONTINUOUS
 62
     7
 10
562.96424
 20
219.86896
 40
3.2
 41
0.84892707
  1
４×３／４
  0
TEXT
  8
0
  6
CONTINUOUS
 62
     7
 10
652.96424
 20
219.86896
 40
3.2
 41
0.85537027
  1
４×１
  0
TEXT
  8
0
  6
CONTINUOUS
 62
     7
 10
742.96424
 20
219.86896
 40
3.2
 41
0.84741102
  1
４×１１／４
  0
TEXT
  8
0
  6
CONTINUOUS
 62
     7
 10
829.06421
 20
219.66895
 40
3.2
 41
0.84741102
  1
４×１１／２
  0
TEXT
  8
0
  6
CONTINUOUS
 62
     7
 10
-47.035792
 20
-80.131044
 40
3.2
 41
0.85537027
  1
４×３
  0
TEXT
  8
0
  6
CONTINUOUS
 62
     7
 10
-147.03579
 20
-80.131044
 40
3.2
 41
0.84741102
  1
４×２１／２
  0
TEXT
  8
0
  6
CONTINUOUS
 62
     7
 10
-247.03579
 20
-80.131044
 40
3.2
 41
0.85537027
  1
４×２
  0
TEXT
  8
0
  6
CONTINUOUS
 62
     7
 10
58.016489
 20
-63.439413
 40
3.2
 41
0.85537027
  1
５×２
  0
TEXT
  8
0
  6
CONTINUOUS
 62
     7
 10
168.01648
 20
-63.439413
 40
3.2
 41
0.84741102
  1
５×２１／２
  0
TEXT
  8
0
  6
CONTINUOUS
 62
     7
 10
-251.98352
 20
-263.43942
 40
3.2
 41
0.85537027
  1
５×３
  0
TEXT
  8
0
  6
CONTINUOUS
 62
     7
 10
-146.4085
 20
-263.26443
 40
3.2
 41
0.85537027
  1
５×４
  0
TEXT
  8
0
  6
CONTINUOUS
 62
     7
 10
-48.865347
 20
-246.12632
 40
3.2
 41
0.84741102
  1
６×１１／４
  0
TEXT
  8
0
  6
CONTINUOUS
 62
     7
 10
61.134653
 20
-246.12632
 40
3.2
 41
0.84741102
  1
６×１１／２
  0
TEXT
  8
0
  6
CONTINUOUS
 62
     7
 10
171.13465
 20
-246.12632
 40
3.2
 41
0.85537027
  1
６×２
  0
TEXT
  8
0
  6
CONTINUOUS
 62
     7
 10
431.13465
 20
-156.12632
 40
3.2
 41
0.84741102
  1
６×２１／２
  0
TEXT
  8
0
  6
CONTINUOUS
 62
     7
 10
551.13465
 20
-156.12632
 40
3.2
 41
0.84741102
  1
６×１１／４
  0
TEXT
  8
0
  6
CONTINUOUS
 62
     7
 10
671.13465
 20
-156.12632
 40
3.2
 41
0.85537027
  1
６×４
  0
TEXT
  8
0
  6
CONTINUOUS
 62
     7
 10
781.13465
 20
-156.12632
 40
3.2
 41
0.85537027
  1
６×５
  0
ENDSEC
  0
EOF
