  0
SECTION
  2
HEADER
  9
$EXTMAX
 10
297.25922
 20
211.66544
  9
$EXTMIN
 10
-297.25922
 20
-210.82214
  0
ENDSEC
  0
SECTION
  2
TABLES
  0
TABLE
  2
LTYPE
 70
    22
  0
LTYPE
  2
CONTINUOUS
 70
    64
  3
Solid line
 72
    65
 73
     0
 40
0.000000
  0
LTYPE
  2
DASHED
 70
    64
  3
__ __ __ __ __ __ __ __ __ __ __ __ __ __ __
 72
    65
 73
     2
 40
3.500000
 49
2.000000
 49
-1.500000
  0
LTYPE
  2
CENTER
 70
    64
  3
____ _ ____ _ ____ _ ____ _ ____ _ ____ _ ____
 72
    65
 73
     4
 40
17.500000
 49
13.000000
 49
-1.500000
 49
1.500000
 49
-1.500000
  0
LTYPE
  2
PHANTOM
 70
    64
  3
_____ _ _ _____ _ _ _____ _ _ _____ _ _ ____  
 72
    65
 73
     6
 40
15.500000
 49
8.000000
 49
-1.500000
 49
1.500000
 49
-1.500000
 49
1.500000
 49
-1.500000
  0
LTYPE
  2
DOT
 70
    64
  3
. . . . . . . . . . . . . . . . . . . . . . . .
 72
    65
 73
     2
 40
0.25
 49
0.0
 49
-0.25
  0
ENDTAB
  0
TABLE
  2
LAYER
 70
     1
  0
LAYER
  2
0
 70
     0
 62
     7
  6
CONTINUOUS
  0
ENDTAB
  0
TABLE
  2
STYLE
 70
     1
  0
STYLE
  2
STANDARD
 70
     0
 40
0.000000
 41
1.000000
 50
0.000000
 71
     0
 42
0.200000
  3
txt
  4
BIGFONT
  0
ENDTAB
  0
TABLE
  2
VIEW
 70
     0
  0
ENDTAB
  0
ENDSEC
  0
SECTION
  2
BLOCKS
  0
ENDSEC
  0
SECTION
  2
ENTITIES
  0
POINT
  8
0
  6
CONTINUOUS
 62
     7
 10
-225.51158
 20
138.8084
  0
POINT
  8
0
  6
CONTINUOUS
 62
     7
 10
-145.47789
 20
135.47369
  0
POINT
  8
0
  6
CONTINUOUS
 62
     7
 10
-67.11158
 20
134.64
  0
POINT
  8
0
  6
CONTINUOUS
 62
     7
 10
29.595789
 20
137.97473
  0
POINT
  8
0
  6
CONTINUOUS
 62
     7
 10
122.13474
 20
134.64
  0
POINT
  8
0
  6
CONTINUOUS
 62
     7
 10
213.84
 20
133.80632
  0
POINT
  8
0
  6
CONTINUOUS
 62
     7
 10
-150.48
 20
40.433681
  0
POINT
  8
0
  6
CONTINUOUS
 62
     7
 10
-34.597897
 20
41.267368
  0
POINT
  8
0
  6
CONTINUOUS
 62
     7
 10
92.955788
 20
37.932629
  0
POINT
  8
0
  6
CONTINUOUS
 62
     7
 10
-177.99158
 20
-97.957893
  0
POINT
  8
0
  6
CONTINUOUS
 62
     7
 10
-12.088421
 20
-102.12631
  0
POINT
  8
0
  6
CONTINUOUS
 62
     7
 10
165.48631
 20
-97.957901
  0
POINT
  8
0
  6
CONTINUOUS
 62
     7
 10
496.97754
 20
28.808435
  0
POINT
  8
0
  6
CONTINUOUS
 62
     7
 10
765.85614
 20
-44.522099
  0
LINE
  8
0
  6
CONTINUOUS
 62
     7
 10
287
 20
200
 11
287
 21
-200
  0
LINE
  8
0
  6
CONTINUOUS
 62
     7
 10
-287
 20
200
 11
287
 21
200
  0
LINE
  8
0
  6
CONTINUOUS
 62
     7
 10
-287
 20
200
 11
-287
 21
-200
  0
LINE
  8
0
  6
CONTINUOUS
 62
     7
 10
-287
 20
-200
 11
287
 21
-200
  0
LINE
  8
0
  6
CONTINUOUS
 62
     7
 10
363
 20
200
 11
937
 21
200
  0
LINE
  8
0
  6
CONTINUOUS
 62
     7
 10
937
 20
200
 11
937
 21
-200
  0
LINE
  8
0
  6
CONTINUOUS
 62
     7
 10
363
 20
200
 11
363
 21
-200
  0
LINE
  8
0
  6
CONTINUOUS
 62
     7
 10
363
 20
-200
 11
937
 21
-200
  0
LINE
  8
0
  6
CONTINUOUS
 62
     7
 10
-215.81493
 20
137.8985
 11
-208.89461
 21
144.81882
  0
LINE
  8
0
  6
CONTINUOUS
 62
     7
 10
-226.42154
 20
148.5051
 11
-219.50122
 21
155.4254
  0
LINE
  8
0
  6
CENTER
 62
     7
 10
-225.51158
 20
132.59515
 11
-225.51158
 21
118.80836
  0
LINE
  8
0
  6
CENTER
 62
     7
 10
-221.11821
 20
143.20178
 11
-211.36946
 21
152.95052
  0
LINE
  8
0
  6
CONTINUOUS
 62
     7
 10
-218.01158
 20
132.59515
 11
-218.01158
 21
122.80836
  0
LINE
  8
0
  6
CONTINUOUS
 62
     7
 10
-233.01158
 20
132.59515
 11
-233.01158
 21
122.80836
  0
LINE
  8
0
  6
CONTINUOUS
 62
     7
 10
-219.50122
 20
155.42542
 11
-208.89461
 21
144.81882
  0
LINE
  8
0
  6
CONTINUOUS
 62
     7
 10
-233.01158
 20
122.80836
 11
-218.01158
 21
122.80836
  0
LINE
  8
0
  6
CONTINUOUS
 62
     7
 10
-146.7769
 20
147.6097
 11
-140.17464
 21
154.21196
  0
LINE
  8
0
  6
CENTER
 62
     7
 10
-145.47789
 20
127.81066
 11
-145.47789
 21
115.47359
  0
LINE
  8
0
  6
CENTER
 62
     7
 10
-140.0594
 20
140.89218
 11
-131.33582
 21
149.61577
  0
LINE
  8
0
  6
CONTINUOUS
 62
     7
 10
-133.3419
 20
134.17467
 11
-126.73963
 21
140.77693
  0
LINE
  8
0
  6
CONTINUOUS
 62
     7
 10
-154.97789
 20
127.81066
 11
-154.97789
 21
118.47359
  0
LINE
  8
0
  6
CONTINUOUS
 62
     7
 10
-135.97789
 20
127.81066
 11
-135.97789
 21
118.47359
  0
LINE
  8
0
  6
CONTINUOUS
 62
     7
 10
-126.73963
 20
140.77693
 11
-140.17465
 21
154.21196
  0
LINE
  8
0
  6
CONTINUOUS
 62
     7
 10
-154.97789
 20
118.47359
 11
-135.97789
 21
118.47359
  0
LINE
  8
0
  6
CENTER
 62
     7
 10
-67.11158
 20
126.97704
 11
-67.11158
 21
111.64
  0
LINE
  8
0
  6
CENTER
 62
     7
 10
-61.693054
 20
140.05853
 11
-50.848122
 21
150.90346
  0
LINE
  8
0
  6
CONTINUOUS
 62
     7
 10
-69.824799
 20
148.19026
 11
-61.808285
 21
156.20677
  0
LINE
  8
0
  6
CONTINUOUS
 62
     7
 10
-53.561333
 20
131.92679
 11
-45.544819
 21
139.9433
  0
LINE
  8
0
  6
CONTINUOUS
 62
     7
 10
-55.61158
 20
126.97704
 11
-55.61158
 21
115.64
  0
LINE
  8
0
  6
CONTINUOUS
 62
     7
 10
-78.61158
 20
126.97704
 11
-78.61158
 21
115.64
  0
LINE
  8
0
  6
CONTINUOUS
 62
     7
 10
-45.544819
 20
139.94331
 11
-61.808289
 21
156.20677
  0
LINE
  8
0
  6
CONTINUOUS
 62
     7
 10
-78.61158
 20
115.64
 11
-55.61158
 21
115.64
  0
LINE
  8
0
  6
CENTER
 62
     7
 10
29.595789
 20
128.9863
 11
29.595789
 21
114.97474
  0
LINE
  8
0
  6
CENTER
 62
     7
 10
35.951572
 20
144.33052
 11
45.859257
 21
154.2382
  0
LINE
  8
0
  6
CONTINUOUS
 62
     7
 10
45.497513
 20
134.78458
 11
53.990917
 21
143.27798
  0
LINE
  8
0
  6
CONTINUOUS
 62
     7
 10
26.405626
 20
153.87648
 11
34.899029
 21
162.36987
  0
LINE
  8
0
  6
CONTINUOUS
 62
     7
 10
43.095791
 20
128.9863
 11
43.095791
 21
116.97468
  0
LINE
  8
0
  6
CONTINUOUS
 62
     7
 10
16.095789
 20
128.9863
 11
16.095789
 21
116.97468
  0
LINE
  8
0
  6
CONTINUOUS
 62
     7
 10
53.990917
 20
143.27798
 11
34.899021
 21
162.36987
  0
LINE
  8
0
  6
CONTINUOUS
 62
     7
 10
16.095789
 20
116.97468
 11
43.095791
 21
116.97468
  0
LINE
  8
0
  6
CENTER
 62
     7
 10
122.13474
 20
121.59227
 11
122.13474
 21
105.44
  0
LINE
  8
0
  6
CENTER
 62
     7
 10
131.36087
 20
143.86613
 11
142.78226
 21
155.28752
  0
LINE
  8
0
  6
CONTINUOUS
 62
     7
 10
118.22915
 20
154.06895
 11
128.14514
 21
163.98495
  0
LINE
  8
0
  6
CONTINUOUS
 62
     7
 10
141.56366
 20
130.73442
 11
151.47966
 21
140.65042
  0
LINE
  8
0
  6
CONTINUOUS
 62
     7
 10
138.63474
 20
123.66336
 11
138.63474
 21
109.64
  0
LINE
  8
0
  6
CONTINUOUS
 62
     7
 10
105.63474
 20
123.66336
 11
105.63474
 21
109.64
  0
LINE
  8
0
  6
CONTINUOUS
 62
     7
 10
128.14513
 20
163.98494
 11
151.47966
 21
140.65042
  0
LINE
  8
0
  6
CONTINUOUS
 62
     7
 10
105.63474
 20
109.64
 11
138.63474
 21
109.64
  0
LINE
  8
0
  6
CONTINUOUS
 62
     7
 10
208.57043
 20
157.52815
 11
219.85034
 21
168.80806
  0
LINE
  8
0
  6
CONTINUOUS
 62
     7
 10
193.34
 20
120.75859
 11
193.34
 21
104.8062
  0
LINE
  8
0
  6
CONTINUOUS
 62
     7
 10
234.34
 20
120.75859
 11
234.34
 21
104.8062
  0
LINE
  8
0
  6
CONTINUOUS
 62
     7
 10
237.56183
 20
128.53676
 11
248.84174
 21
139.81667
  0
LINE
  8
0
  6
CONTINUOUS
 62
     7
 10
248.84174
 20
139.81668
 11
219.85034
 21
168.80806
  0
LINE
  8
0
  6
CONTINUOUS
 62
     7
 10
193.34
 20
104.8062
 11
234.34
 21
104.8062
  0
LINE
  8
0
  6
CENTER
 62
     7
 10
223.06615
 20
143.03247
 11
237.31805
 21
157.28438
  0
LINE
  8
0
  6
CENTER
 62
     7
 10
213.84
 20
120.7586
 11
213.84
 21
101.03777
  0
LINE
  8
0
  6
CENTER
 62
     7
 10
-150.48
 20
24.486481
 11
-150.48
 21
2.0336835
  0
LINE
  8
0
  6
CENTER
 62
     7
 10
-139.2036
 20
51.710083
 11
-123.32709
 21
67.586586
  0
LINE
  8
0
  6
CONTINUOUS
 62
     7
 10
-121.52594
 20
34.032433
 11
-108.7607
 21
46.797665
  0
LINE
  8
0
  6
CONTINUOUS
 62
     7
 10
-156.88127
 20
69.387764
 11
-144.11603
 21
82.153008
  0
LINE
  8
0
  6
CONTINUOUS
 62
     7
 10
-175.48
 20
24.486481
 11
-175.48
 21
6.4336848
  0
LINE
  8
0
  6
CONTINUOUS
 62
     7
 10
-125.48
 20
24.486481
 11
-125.48
 21
6.4336848
  0
LINE
  8
0
  6
CONTINUOUS
 62
     7
 10
-108.7607
 20
46.797661
 11
-144.11604
 21
82.152992
  0
LINE
  8
0
  6
CONTINUOUS
 62
     7
 10
-175.48
 20
6.4336848
 11
-125.48
 21
6.4336848
  0
LINE
  8
0
  6
CENTER
 62
     7
 10
-34.597897
 20
23.249073
 11
-34.597897
 21
-2.1327543
  0
LINE
  8
0
  6
CENTER
 62
     7
 10
-21.857046
 20
54.008221
 11
-3.9095225
 21
71.955742
  0
LINE
  8
0
  6
CONTINUOUS
 62
     7
 10
-41.656036
 20
73.807228
 11
-28.234001
 21
87.229263
  0
LINE
  8
0
  6
CONTINUOUS
 62
     7
 10
-6.5978947
 20
23.249073
 11
-6.5978947
 21
4.2672472
  0
LINE
  8
0
  6
CONTINUOUS
 62
     7
 10
-62.597897
 20
23.249073
 11
-62.597897
 21
4.2672472
  0
LINE
  8
0
  6
CONTINUOUS
 62
     7
 10
-2.0580473
 20
34.209236
 11
11.363983
 21
47.631264
  0
LINE
  8
0
  6
CONTINUOUS
 62
     7
 10
11.363982
 20
47.631264
 11
-28.234011
 21
87.229256
  0
LINE
  8
0
  6
CONTINUOUS
 62
     7
 10
-62.597897
 20
4.2672472
 11
-6.5978947
 21
4.2672472
  0
LINE
  8
0
  6
CENTER
 62
     7
 10
92.955788
 20
17.014862
 11
92.955788
 21
-10.667488
  0
LINE
  8
0
  6
CENTER
 62
     7
 10
107.7469
 20
52.723743
 11
127.32112
 21
72.297958
  0
LINE
  8
0
  6
CONTINUOUS
 62
     7
 10
127.45579
 20
17.014862
 11
127.45579
 21
-4.0674896
  0
LINE
  8
0
  6
CONTINUOUS
 62
     7
 10
58.455788
 20
17.014862
 11
58.455788
 21
-4.0674896
  0
LINE
  8
0
  6
CONTINUOUS
 62
     7
 10
83.351715
 20
77.11895
 11
98.259018
 21
92.026245
  0
LINE
  8
0
  6
CONTINUOUS
 62
     7
 10
132.14207
 20
28.328573
 11
147.04938
 21
43.235878
  0
LINE
  8
0
  6
CONTINUOUS
 62
     7
 10
147.04939
 20
43.235882
 11
98.259018
 21
92.026245
  0
LINE
  8
0
  6
CONTINUOUS
 62
     7
 10
58.455788
 20
-4.0674896
 11
127.45579
 21
-4.0674896
  0
LINE
  8
0
  6
CENTER
 62
     7
 10
-177.99158
 20
-123.01785
 11
-177.99158
 21
-153.95805
  0
LINE
  8
0
  6
CENTER
 62
     7
 10
-160.27156
 20
-80.237877
 11
-138.39368
 21
-58.359993
  0
LINE
  8
0
  6
CONTINUOUS
 62
     7
 10
-119.65533
 20
-103.96839
 11
-111.17005
 21
-95.483109
  0
LINE
  8
0
  6
CONTINUOUS
 62
     7
 10
-129.86597
 20
-110.64348
 11
-124.86913
 21
-105.64664
  0
LINE
  8
0
  6
CONTINUOUS
 62
     7
 10
-184.00209
 20
-39.621662
 11
-175.5168
 21
-31.136379
  0
LINE
  8
0
  6
CONTINUOUS
 62
     7
 10
-220.99158
 20
-123.01785
 11
-220.99158
 21
-130.08466
  0
LINE
  8
0
  6
CONTINUOUS
 62
     7
 10
-132.49158
 20
-134.95805
 11
-132.49158
 21
-146.95805
  0
LINE
  8
0
  6
CONTINUOUS
 62
     7
 10
-223.49158
 20
-134.95805
 11
-223.49158
 21
-146.95805
  0
LINE
  8
0
  6
CONTINUOUS
 62
     7
 10
-134.99158
 20
-123.01785
 11
-134.99158
 21
-130.08466
  0
LINE
  8
0
  6
CONTINUOUS
 62
     7
 10
-111.17005
 20
-95.483109
 11
-175.5168
 21
-31.136372
  0
LINE
  8
0
  6
CONTINUOUS
 62
     7
 10
-119.65533
 20
-103.96839
 11
-184.00208
 21
-39.621651
  0
LINE
  8
0
  6
CONTINUOUS
 62
     7
 10
-223.49158
 20
-134.95805
 11
-132.49158
 21
-134.95805
  0
LINE
  8
0
  6
CONTINUOUS
 62
     7
 10
-223.49158
 20
-146.95805
 11
-132.49158
 21
-146.95805
  0
LINE
  8
0
  6
CENTER
 62
     7
 10
7.6818256
 20
-82.356071
 11
31.327885
 21
-58.710011
  0
LINE
  8
0
  6
CENTER
 62
     7
 10
-12.088421
 20
-130.08578
 11
-12.088421
 21
-163.5264
  0
LINE
  8
0
  6
CONTINUOUS
 62
     7
 10
-64.588425
 20
-143.1264
 11
-64.588425
 21
-156.1264
  0
LINE
  8
0
  6
CONTINUOUS
 62
     7
 10
37.411579
 20
-130.08578
 11
37.411579
 21
-135.98497
  0
LINE
  8
0
  6
CONTINUOUS
 62
     7
 10
-61.588421
 20
-130.08577
 11
-61.588421
 21
-135.98497
  0
LINE
  8
0
  6
CONTINUOUS
 62
     7
 10
40.411579
 20
-143.12639
 11
40.411579
 21
-156.12639
  0
LINE
  8
0
  6
CONTINUOUS
 62
     7
 10
-20.220249
 20
-36.011826
 11
-11.027859
 21
-26.819437
  0
LINE
  8
0
  6
CONTINUOUS
 62
     7
 10
-27.319944
 20
-47.354225
 11
-23.148628
 21
-43.182911
  0
LINE
  8
0
  6
CONTINUOUS
 62
     7
 10
54.026016
 20
-110.25806
 11
63.218407
 21
-101.06567
  0
LINE
  8
0
  6
CONTINUOUS
 62
     7
 10
42.68362
 20
-117.35783
 11
46.854939
 21
-113.18651
  0
LINE
  8
0
  6
CONTINUOUS
 62
     7
 10
63.218399
 20
-101.06567
 11
-11.027846
 21
-26.819426
  0
LINE
  8
0
  6
CONTINUOUS
 62
     7
 10
54.026012
 20
-110.25806
 11
-20.220236
 21
-36.011814
  0
LINE
  8
0
  6
CONTINUOUS
 62
     7
 10
-64.588425
 20
-143.1264
 11
40.411579
 21
-143.1264
  0
LINE
  8
0
  6
CONTINUOUS
 62
     7
 10
-64.588425
 20
-156.1264
 11
40.411579
 21
-156.1264
  0
LINE
  8
0
  6
CENTER
 62
     7
 10
189.94289
 20
-73.50132
 11
217.24641
 21
-46.197811
  0
LINE
  8
0
  6
CENTER
 62
     7
 10
165.48631
 20
-132.54474
 11
165.48631
 21
-171.15802
  0
LINE
  8
0
  6
CONTINUOUS
 62
     7
 10
247.15703
 20
-110.3324
 11
258.47073
 21
-99.018684
  0
LINE
  8
0
  6
CONTINUOUS
 62
     7
 10
145.04161
 20
-28.60004
 11
150.1834
 21
-23.458254
  0
LINE
  8
0
  6
CONTINUOUS
 62
     7
 10
234.84418
 20
-118.4026
 11
239.98595
 21
-113.26083
  0
LINE
  8
0
  6
CONTINUOUS
 62
     7
 10
98.986313
 20
-146.95802
 11
98.986313
 21
-162.95802
  0
LINE
  8
0
  6
CONTINUOUS
 62
     7
 10
231.98631
 20
-146.95801
 11
231.98631
 21
-162.95801
  0
LINE
  8
0
  6
CONTINUOUS
 62
     7
 10
228.98631
 20
-132.54474
 11
228.98631
 21
-139.81657
  0
LINE
  8
0
  6
CONTINUOUS
 62
     7
 10
101.98631
 20
-132.54474
 11
101.98631
 21
-139.81659
  0
LINE
  8
0
  6
CONTINUOUS
 62
     7
 10
153.11183
 20
-16.287184
 11
164.42555
 21
-4.9734697
  0
LINE
  8
0
  6
CONTINUOUS
 62
     7
 10
258.47073
 20
-99.018684
 11
164.42554
 21
-4.9734793
  0
LINE
  8
0
  6
CONTINUOUS
 62
     7
 10
247.15703
 20
-110.33239
 11
153.11182
 21
-16.287188
  0
LINE
  8
0
  6
CONTINUOUS
 62
     7
 10
98.986313
 20
-146.95802
 11
231.98631
 21
-146.95802
  0
LINE
  8
0
  6
CONTINUOUS
 62
     7
 10
98.986313
 20
-162.95802
 11
231.98631
 21
-162.95802
  0
LINE
  8
0
  6
CENTER
 62
     7
 10
526.85254
 20
58.683453
 11
555.10168
 21
86.932549
  0
LINE
  8
0
  6
CENTER
 62
     7
 10
496.97754
 20
-13.441425
 11
496.97754
 21
-53.391724
  0
LINE
  8
0
  6
CONTINUOUS
 62
     7
 10
577.47754
 20
-27.191719
 11
577.47754
 21
-45.191715
  0
LINE
  8
0
  6
CONTINUOUS
 62
     7
 10
416.47754
 20
-27.191734
 11
416.47754
 21
-45.19173
  0
LINE
  8
0
  6
CONTINUOUS
 62
     7
 10
573.97754
 20
-13.44149
 11
573.97754
 21
-19.592369
  0
LINE
  8
0
  6
CONTINUOUS
 62
     7
 10
419.97754
 20
-13.44149
 11
419.97754
 21
-19.592384
  0
LINE
  8
0
  6
CONTINUOUS
 62
     7
 10
479.65332
 20
125.32851
 11
492.38126
 21
138.05644
  0
LINE
  8
0
  6
CONTINUOUS
 62
     7
 10
593.49756
 20
11.484223
 11
606.22546
 21
24.212145
  0
LINE
  8
0
  6
CONTINUOUS
 62
     7
 10
472.4053
 20
113.13075
 11
476.75464
 21
117.48008
  0
LINE
  8
0
  6
CONTINUOUS
 62
     7
 10
581.2998
 20
4.2362504
 11
585.64911
 21
8.585578
  0
LINE
  8
0
  6
CONTINUOUS
 62
     7
 10
606.22546
 20
24.212128
 11
492.3812
 21
138.05641
  0
LINE
  8
0
  6
CONTINUOUS
 62
     7
 10
593.49756
 20
11.484205
 11
479.65329
 21
125.32848
  0
LINE
  8
0
  6
CONTINUOUS
 62
     7
 10
416.47754
 20
-27.191727
 11
577.47754
 21
-27.191727
  0
LINE
  8
0
  6
CONTINUOUS
 62
     7
 10
416.47754
 20
-45.19173
 11
577.47754
 21
-45.19173
  0
LINE
  8
0
  6
CENTER
 62
     7
 10
801.29608
 20
-9.0821524
 11
829.63696
 21
19.258741
  0
LINE
  8
0
  6
CENTER
 62
     7
 10
765.85614
 20
-94.642197
 11
765.85614
 21
-134.72249
  0
LINE
  8
0
  6
CONTINUOUS
 62
     7
 10
742.87494
 20
66.139984
 11
757.01703
 21
80.28212
  0
LINE
  8
0
  6
CONTINUOUS
 62
     7
 10
876.51825
 20
-67.503357
 11
890.6604
 21
-53.361221
  0
LINE
  8
0
  6
CONTINUOUS
 62
     7
 10
736.94928
 20
55.264652
 11
739.9762
 21
58.291565
  0
LINE
  8
0
  6
CONTINUOUS
 62
     7
 10
865.64288
 20
-73.428871
 11
868.6698
 21
-70.401962
  0
LINE
  8
0
  6
CONTINUOUS
 62
     7
 10
860.35614
 20
-106.52248
 11
860.35614
 21
-126.52248
  0
LINE
  8
0
  6
CONTINUOUS
 62
     7
 10
671.35614
 20
-106.52249
 11
671.35614
 21
-126.5225
  0
LINE
  8
0
  6
CONTINUOUS
 62
     7
 10
856.85614
 20
-94.642204
 11
856.85614
 21
-98.923141
  0
LINE
  8
0
  6
CONTINUOUS
 62
     7
 10
674.85614
 20
-94.642197
 11
674.85614
 21
-98.923157
  0
LINE
  8
0
  6
CONTINUOUS
 62
     7
 10
890.6604
 20
-53.361183
 11
757.01709
 21
80.282127
  0
LINE
  8
0
  6
CONTINUOUS
 62
     7
 10
876.51825
 20
-67.503319
 11
742.87494
 21
66.139992
  0
LINE
  8
0
  6
CONTINUOUS
 62
     7
 10
671.35614
 20
-106.52251
 11
860.35614
 21
-106.52251
  0
LINE
  8
0
  6
CONTINUOUS
 62
     7
 10
671.35614
 20
-126.5225
 11
860.35614
 21
-126.5225
  0
LINE
  8
0
  6
CONTINUOUS
 62
     7
 10
-225.59091
 20
139.13596
 11
-224.83171
 21
138.82149
  0
LINE
  8
0
  6
CONTINUOUS
 62
     7
 10
-225.82053
 20
138.58162
 11
-225.06133
 21
138.26715
  0
LINE
  8
0
  6
CONTINUOUS
 62
     7
 10
-221.03641
 20
136.59998
 11
-220.27724
 21
136.28552
  0
LINE
  8
0
  6
CONTINUOUS
 62
     7
 10
-220.80679
 20
137.15431
 11
-220.04762
 21
136.83984
  0
LINE
  8
0
  6
CONTINUOUS
 62
     7
 10
-224.50499
 20
138.03671
 11
-223.04889
 21
137.43358
  0
LINE
  8
0
  6
CONTINUOUS
 62
     7
 10
-224.27538
 20
138.59105
 11
-222.81927
 21
137.9879
  0
LINE
  8
0
  6
CONTINUOUS
 62
     7
 10
-145.21416
 20
135.71408
 11
-144.45497
 21
135.39963
  0
LINE
  8
0
  6
CONTINUOUS
 62
     7
 10
-145.44376
 20
135.15976
 11
-144.68459
 21
134.84529
  0
LINE
  8
0
  6
CONTINUOUS
 62
     7
 10
-140.65967
 20
133.17812
 11
-139.90048
 21
132.86366
  0
LINE
  8
0
  6
CONTINUOUS
 62
     7
 10
-140.43005
 20
133.73245
 11
-139.67088
 21
133.41798
  0
LINE
  8
0
  6
CONTINUOUS
 62
     7
 10
-144.12823
 20
134.61485
 11
-142.67212
 21
134.0117
  0
LINE
  8
0
  6
CONTINUOUS
 62
     7
 10
-143.89862
 20
135.16917
 11
-142.44252
 21
134.56604
  0
LINE
  8
0
  6
CONTINUOUS
 62
     7
 10
-67.0121
 20
134.86398
 11
-65.873322
 21
134.39229
  0
LINE
  8
0
  6
CONTINUOUS
 62
     7
 10
-67.356514
 20
134.0325
 11
-66.217735
 21
133.56081
  0
LINE
  8
0
  6
CONTINUOUS
 62
     7
 10
-60.180374
 20
131.06004
 11
-59.041603
 21
130.58835
  0
LINE
  8
0
  6
CONTINUOUS
 62
     7
 10
-59.835957
 20
131.89154
 11
-58.697186
 21
131.41985
  0
LINE
  8
0
  6
CONTINUOUS
 62
     7
 10
-65.383232
 20
133.21513
 11
-63.199059
 21
132.31042
  0
LINE
  8
0
  6
CONTINUOUS
 62
     7
 10
-65.038811
 20
134.04663
 11
-62.854645
 21
133.14192
  0
LINE
  8
0
  6
CONTINUOUS
 62
     7
 10
29.698898
 20
138.55292
 11
30.837671
 21
138.08122
  0
LINE
  8
0
  6
CONTINUOUS
 62
     7
 10
29.354479
 20
137.72141
 11
30.493254
 21
137.24971
  0
LINE
  8
0
  6
CONTINUOUS
 62
     7
 10
36.530621
 20
134.74896
 11
37.669395
 21
134.27727
  0
LINE
  8
0
  6
CONTINUOUS
 62
     7
 10
36.875042
 20
135.58046
 11
38.013813
 21
135.10876
  0
LINE
  8
0
  6
CONTINUOUS
 62
     7
 10
31.327766
 20
136.90405
 11
33.511936
 21
135.99933
  0
LINE
  8
0
  6
CONTINUOUS
 62
     7
 10
31.672184
 20
137.73555
 11
33.856358
 21
136.83084
  0
LINE
  8
0
  6
CONTINUOUS
 62
     7
 10
123.0593
 20
134.77742
 11
124.19807
 21
134.30573
  0
LINE
  8
0
  6
CONTINUOUS
 62
     7
 10
122.71489
 20
133.94592
 11
123.85366
 21
133.47423
  0
LINE
  8
0
  6
CONTINUOUS
 62
     7
 10
129.89102
 20
130.97346
 11
131.0298
 21
130.50177
  0
LINE
  8
0
  6
CONTINUOUS
 62
     7
 10
130.23544
 20
131.80496
 11
131.37422
 21
131.33327
  0
LINE
  8
0
  6
CONTINUOUS
 62
     7
 10
124.68817
 20
133.12856
 11
126.87234
 21
132.22385
  0
LINE
  8
0
  6
CONTINUOUS
 62
     7
 10
125.03259
 20
133.96005
 11
127.21676
 21
133.05534
  0
LINE
  8
0
  6
CONTINUOUS
 62
     7
 10
214.2856
 20
133.81738
 11
215.80397
 21
133.18845
  0
LINE
  8
0
  6
CONTINUOUS
 62
     7
 10
213.82639
 20
132.70872
 11
215.34474
 21
132.0798
  0
LINE
  8
0
  6
CONTINUOUS
 62
     7
 10
223.39458
 20
128.74545
 11
224.91293
 21
128.11653
  0
LINE
  8
0
  6
CONTINUOUS
 62
     7
 10
223.85379
 20
129.85411
 11
225.37216
 21
129.22517
  0
LINE
  8
0
  6
CONTINUOUS
 62
     7
 10
216.45743
 20
131.61891
 11
219.36966
 21
130.41263
  0
LINE
  8
0
  6
CONTINUOUS
 62
     7
 10
216.91666
 20
132.72757
 11
219.82889
 21
131.52129
  0
LINE
  8
0
  6
CONTINUOUS
 62
     7
 10
-149.1974
 20
40.420292
 11
-147.67905
 21
39.791367
  0
LINE
  8
0
  6
CONTINUOUS
 62
     7
 10
-149.65663
 20
39.311634
 11
-148.13828
 21
38.682709
  0
LINE
  8
0
  6
CONTINUOUS
 62
     7
 10
-140.08844
 20
35.348362
 11
-138.57007
 21
34.719433
  0
LINE
  8
0
  6
CONTINUOUS
 62
     7
 10
-139.62921
 20
36.457016
 11
-138.11086
 21
35.828091
  0
LINE
  8
0
  6
CONTINUOUS
 62
     7
 10
-147.02559
 20
38.221821
 11
-144.11336
 21
37.015533
  0
LINE
  8
0
  6
CONTINUOUS
 62
     7
 10
-146.56636
 20
39.330475
 11
-143.65413
 21
38.124191
  0
LINE
  8
0
  6
CONTINUOUS
 62
     7
 10
-33.752579
 20
41.379528
 11
-32.234219
 21
40.750603
  0
LINE
  8
0
  6
CONTINUOUS
 62
     7
 10
-34.2118
 20
40.270874
 11
-32.693439
 21
39.641945
  0
LINE
  8
0
  6
CONTINUOUS
 62
     7
 10
-24.643612
 20
36.307598
 11
-23.125246
 21
35.678673
  0
LINE
  8
0
  6
CONTINUOUS
 62
     7
 10
-24.184391
 20
37.416256
 11
-22.666025
 21
36.787327
  0
LINE
  8
0
  6
CONTINUOUS
 62
     7
 10
-31.580753
 20
39.181057
 11
-28.668522
 21
37.974773
  0
LINE
  8
0
  6
CONTINUOUS
 62
     7
 10
-31.121532
 20
40.289715
 11
-28.209303
 21
39.083427
  0
LINE
  8
0
  6
CONTINUOUS
 62
     7
 10
94.439888
 20
37.658226
 11
96.337845
 21
36.872066
  0
LINE
  8
0
  6
CONTINUOUS
 62
     7
 10
93.86586
 20
36.272408
 11
95.763817
 21
35.486244
  0
LINE
  8
0
  6
CONTINUOUS
 62
     7
 10
105.8261
 20
31.318312
 11
107.72405
 21
30.532154
  0
LINE
  8
0
  6
CONTINUOUS
 62
     7
 10
106.40012
 20
32.704132
 11
108.29808
 21
31.917974
  0
LINE
  8
0
  6
CONTINUOUS
 62
     7
 10
97.154671
 20
34.910137
 11
100.79495
 21
33.402279
  0
LINE
  8
0
  6
CONTINUOUS
 62
     7
 10
97.728699
 20
36.295956
 11
101.36898
 21
34.788101
  0
LINE
  8
0
  6
CONTINUOUS
 62
     7
 10
-176.20602
 20
-98.269272
 11
-174.30806
 21
-99.055428
  0
LINE
  8
0
  6
CONTINUOUS
 62
     7
 10
-176.78004
 20
-99.65509
 11
-174.8821
 21
-100.44125
  0
LINE
  8
0
  6
CONTINUOUS
 62
     7
 10
-164.81981
 20
-104.60918
 11
-162.92186
 21
-105.39534
  0
LINE
  8
0
  6
CONTINUOUS
 62
     7
 10
-164.24579
 20
-103.22337
 11
-162.34784
 21
-104.00952
  0
LINE
  8
0
  6
CONTINUOUS
 62
     7
 10
-173.49124
 20
-101.01736
 11
-169.85095
 21
-102.52522
  0
LINE
  8
0
  6
CONTINUOUS
 62
     7
 10
-172.91722
 20
-99.631538
 11
-169.27693
 21
-101.1394
  0
LINE
  8
0
  6
CONTINUOUS
 62
     7
 10
-11.133921
 20
-102.22567
 11
-8.8563738
 21
-103.16906
  0
LINE
  8
0
  6
CONTINUOUS
 62
     7
 10
-11.822752
 20
-103.88866
 11
-9.5452051
 21
-104.83205
  0
LINE
  8
0
  6
CONTINUOUS
 62
     7
 10
2.5295315
 20
-109.83356
 11
4.8070779
 21
-110.77695
  0
LINE
  8
0
  6
CONTINUOUS
 62
     7
 10
3.2183628
 20
-108.17058
 11
5.4959092
 21
-109.11397
  0
LINE
  8
0
  6
CONTINUOUS
 62
     7
 10
-7.8761768
 20
-105.52338
 11
-3.5078378
 21
-107.33281
  0
LINE
  8
0
  6
CONTINUOUS
 62
     7
 10
-7.1873455
 20
-103.8604
 11
-2.8190064
 21
-105.66982
  0
LINE
  8
0
  6
CONTINUOUS
 62
     7
 10
167.49081
 20
-98.407257
 11
169.76836
 21
-99.350639
  0
LINE
  8
0
  6
CONTINUOUS
 62
     7
 10
166.80199
 20
-100.07024
 11
169.07953
 21
-101.01363
  0
LINE
  8
0
  6
CONTINUOUS
 62
     7
 10
181.15428
 20
-106.01515
 11
183.43182
 21
-106.95853
  0
LINE
  8
0
  6
CONTINUOUS
 62
     7
 10
181.84311
 20
-104.35217
 11
184.12065
 21
-105.29556
  0
LINE
  8
0
  6
CONTINUOUS
 62
     7
 10
170.74857
 20
-101.70496
 11
175.1169
 21
-103.51439
  0
LINE
  8
0
  6
CONTINUOUS
 62
     7
 10
171.43739
 20
-100.04198
 11
175.80573
 21
-101.8514
  0
LINE
  8
0
  6
CONTINUOUS
 62
     7
 10
499.47522
 20
28.73427
 11
502.51193
 21
27.476418
  0
LINE
  8
0
  6
CONTINUOUS
 62
     7
 10
498.55679
 20
26.516964
 11
501.59351
 21
25.259111
  0
LINE
  8
0
  6
CONTINUOUS
 62
     7
 10
517.69312
 20
18.590425
 11
520.72992
 21
17.332561
  0
LINE
  8
0
  6
CONTINUOUS
 62
     7
 10
518.61157
 20
20.807732
 11
521.64832
 21
19.549868
  0
LINE
  8
0
  6
CONTINUOUS
 62
     7
 10
503.81888
 20
24.337334
 11
509.64334
 21
21.924763
  0
LINE
  8
0
  6
CONTINUOUS
 62
     7
 10
504.7373
 20
26.55464
 11
510.56177
 21
24.142069
  0
LINE
  8
0
  6
CONTINUOUS
 62
     7
 10
771.85382
 20
-45.996258
 11
774.89056
 21
-47.254112
  0
LINE
  8
0
  6
CONTINUOUS
 62
     7
 10
770.93536
 20
-48.213577
 11
773.97211
 21
-49.471432
  0
LINE
  8
0
  6
CONTINUOUS
 62
     7
 10
790.07172
 20
-56.140106
 11
793.10852
 21
-57.39798
  0
LINE
  8
0
  6
CONTINUOUS
 62
     7
 10
790.99017
 20
-53.922787
 11
794.02692
 21
-55.18066
  0
LINE
  8
0
  6
CONTINUOUS
 62
     7
 10
776.19745
 20
-50.393196
 11
782.02197
 21
-52.805779
  0
LINE
  8
0
  6
CONTINUOUS
 62
     7
 10
777.11591
 20
-48.175877
 11
782.94037
 21
-50.588459
  0
ARC
  8
0
  6
CENTER
 62
     7
 10
-210.51158
 20
132.59515
 40
15
 50
135.00004
 51
179.99996
  0
ARC
  8
0
  6
CONTINUOUS
 62
     7
 10
-210.51158
 20
132.59515
 40
22.5
 50
135.00004
 51
179.99996
  0
ARC
  8
0
  6
CONTINUOUS
 62
     7
 10
-210.51158
 20
132.59515
 40
7.4999971
 50
135.00004
 51
179.99996
  0
ARC
  8
0
  6
CENTER
 62
     7
 10
-126.9779
 20
127.81066
 40
18.5
 50
135
 51
179.51595
  0
ARC
  8
0
  6
CONTINUOUS
 62
     7
 10
-126.9779
 20
127.81066
 40
9
 50
134.99999
 51
179.99996
  0
ARC
  8
0
  6
CONTINUOUS
 62
     7
 10
-126.9779
 20
127.81066
 40
28
 50
135.00001
 51
179.99996
  0
ARC
  8
0
  6
CONTINUOUS
 62
     7
 10
-48.61158
 20
126.97704
 40
30
 50
135.00003
 51
179.99996
  0
ARC
  8
0
  6
CONTINUOUS
 62
     7
 10
-48.61158
 20
126.97704
 40
7
 50
135.00001
 51
179.99996
  0
ARC
  8
0
  6
CENTER
 62
     7
 10
-48.61158
 20
126.97704
 40
18.5
 50
135
 51
179.99996
  0
ARC
  8
0
  6
CONTINUOUS
 62
     7
 10
51.295788
 20
128.9863
 40
35.200001
 50
135.00001
 51
179.99996
  0
ARC
  8
0
  6
CONTINUOUS
 62
     7
 10
51.295788
 20
128.9863
 40
8.1999998
 50
135.00005
 51
179.99996
  0
ARC
  8
0
  6
CENTER
 62
     7
 10
51.295788
 20
128.9863
 40
21.699997
 50
135.00003
 51
177.3284
  0
ARC
  8
0
  6
CONTINUOUS
 62
     7
 10
148.63474
 20
123.66336
 40
10
 50
135.00005
 51
179.99996
  0
ARC
  8
0
  6
CONTINUOUS
 62
     7
 10
148.63474
 20
123.66336
 40
43
 50
135.00001
 51
179.99996
  0
ARC
  8
0
  6
CENTER
 62
     7
 10
153.63474
 20
121.59227
 40
31.5
 50
135
 51
180.00001
  0
ARC
  8
0
  6
CONTINUOUS
 62
     7
 10
245.34
 20
120.75859
 40
11
 50
135.00004
 51
179.99996
  0
ARC
  8
0
  6
CONTINUOUS
 62
     7
 10
245.34
 20
120.75859
 40
52
 50
135.00001
 51
179.99996
  0
ARC
  8
0
  6
CENTER
 62
     7
 10
245.34
 20
120.7586
 40
31.5
 50
135
 51
180.00001
  0
ARC
  8
0
  6
CONTINUOUS
 62
     7
 10
-111.98
 20
24.486481
 40
63.5
 50
135.00001
 51
179.99996
  0
ARC
  8
0
  6
CONTINUOUS
 62
     7
 10
-111.98
 20
24.486481
 40
13.5
 50
135
 51
179.99996
  0
ARC
  8
0
  6
CENTER
 62
     7
 10
-111.98
 20
24.486481
 40
38.499981
 50
135.00001
 51
179.99996
  0
ARC
  8
0
  6
CONTINUOUS
 62
     7
 10
8.9021053
 20
23.249073
 40
15.5
 50
135
 51
179.99996
  0
ARC
  8
0
  6
CONTINUOUS
 62
     7
 10
8.9021053
 20
23.249073
 40
71.5
 50
135.00001
 51
179.99996
  0
ARC
  8
0
  6
CENTER
 62
     7
 10
8.9021053
 20
23.249073
 40
43.5
 50
133.70698
 51
179.99996
  0
ARC
  8
0
  6
CONTINUOUS
 62
     7
 10
143.4558
 20
17.014862
 40
16
 50
135.00003
 51
179.99996
  0
ARC
  8
0
  6
CONTINUOUS
 62
     7
 10
143.4558
 20
17.014862
 40
85
 50
135.00001
 51
179.99996
  0
ARC
  8
0
  6
CENTER
 62
     7
 10
143.4558
 20
17.014862
 40
50.5
 50
136.81029
 51
178.18991
  0
ARC
  8
0
  6
CONTINUOUS
 62
     7
 10
-120.62647
 20
-109.88929
 40
6
 50
80.685332
 51
135
  0
ARC
  8
0
  6
CONTINUOUS
 62
     7
 10
-226.99158
 20
-130.08466
 40
6
 50
305.68534
 51
6.8301892E-006
  0
ARC
  8
0
  6
CENTER
 62
     7
 10
-117.49158
 20
-123.01785
 40
60.5
 50
136.53752
 51
179.99996
  0
ARC
  8
0
  6
CONTINUOUS
 62
     7
 10
-117.49158
 20
-123.01785
 40
103.5
 50
131.37842
 51
179.99996
  0
ARC
  8
0
  6
CONTINUOUS
 62
     7
 10
-128.99158
 20
-130.08466
 40
6
 50
180.00001
 51
234.31468
  0
ARC
  8
0
  6
CONTINUOUS
 62
     7
 10
-117.49158
 20
-123.01785
 40
17.5
 50
135.00001
 51
179.99996
  0
ARC
  8
0
  6
CONTINUOUS
 62
     7
 10
-189.87428
 20
-40.853416
 40
6
 50
311.37842
 51
11.846601
  0
ARC
  8
0
  6
CENTER
 62
     7
 10
55.411579
 20
-130.08577
 40
67.499985
 50
135.00001
 51
179.99996
  0
ARC
  8
0
  6
CONTINUOUS
 62
     7
 10
53.926052
 20
-120.2576
 40
10
 50
89.426997
 51
135
  0
ARC
  8
0
  6
CONTINUOUS
 62
     7
 10
-30.219654
 20
-36.111897
 40
10
 50
315
 51
0.57298798
  0
ARC
  8
0
  6
CONTINUOUS
 62
     7
 10
55.411579
 20
-130.08577
 40
117
 50
135.00001
 51
179.99996
  0
ARC
  8
0
  6
CONTINUOUS
 62
     7
 10
55.411579
 20
-130.08577
 40
18
 50
135
 51
179.99996
  0
ARC
  8
0
  6
CONTINUOUS
 62
     7
 10
47.411579
 20
-135.98495
 40
10
 50
180.00001
 51
225.573
  0
ARC
  8
0
  6
CONTINUOUS
 62
     7
 10
-71.588425
 20
-135.98497
 40
10
 50
314.42701
 51
6.8301892E-006
  0
ARC
  8
0
  6
CONTINUOUS
 62
     7
 10
247.05702
 20
-120.33189
 40
10
 50
89.426997
 51
135
  0
ARC
  8
0
  6
CONTINUOUS
 62
     7
 10
248.98631
 20
-132.54474
 40
20
 50
135.00001
 51
179.99996
  0
ARC
  8
0
  6
CONTINUOUS
 62
     7
 10
143.11232
 20
-16.38719
 40
10
 50
315
 51
0.57298798
  0
ARC
  8
0
  6
CONTINUOUS
 62
     7
 10
91.986313
 20
-139.81659
 40
10
 50
314.42701
 51
6.8301892E-006
  0
ARC
  8
0
  6
CONTINUOUS
 62
     7
 10
238.98631
 20
-139.81657
 40
10
 50
180.00001
 51
225.573
  0
ARC
  8
0
  6
CONTINUOUS
 62
     7
 10
248.98631
 20
-132.54474
 40
147
 50
135.00001
 51
179.99996
  0
ARC
  8
0
  6
CENTER
 62
     7
 10
248.98631
 20
-132.54474
 40
83.500015
 50
135.00001
 51
179.14078
  0
ARC
  8
0
  6
CONTINUOUS
 62
     7
 10
598.97754
 20
-13.44149
 40
25
 50
135.00003
 51
179.99996
  0
ARC
  8
0
  6
CONTINUOUS
 62
     7
 10
583.97754
 20
-19.592384
 40
10
 50
180.00001
 51
229.45842
  0
ARC
  8
0
  6
CONTINUOUS
 62
     7
 10
409.97754
 20
-19.592384
 40
10
 50
310.54161
 51
6.8301891E-006
  0
ARC
  8
0
  6
CONTINUOUS
 62
     7
 10
469.68369
 20
124.55103
 40
10
 50
315
 51
4.4584094
  0
ARC
  8
0
  6
CONTINUOUS
 62
     7
 10
592.72028
 20
1.5144311
 40
10
 50
85.541603
 51
135
  0
ARC
  8
0
  6
CONTINUOUS
 62
     7
 10
598.97754
 20
-13.44149
 40
179
 50
135.00001
 51
179.99996
  0
ARC
  8
0
  6
CENTER
 62
     7
 10
598.97754
 20
-13.44149
 40
102
 50
135.00001
 51
179.99996
  0
ARC
  8
0
  6
CONTINUOUS
 62
     7
 10
732.9054
 20
65.362442
 40
10
 50
315
 51
4.4584094
  0
ARC
  8
0
  6
CONTINUOUS
 62
     7
 10
875.74091
 20
-77.473145
 40
10
 50
85.541603
 51
135
  0
ARC
  8
0
  6
CONTINUOUS
 62
     7
 10
866.85614
 20
-98.923149
 40
10
 50
180.00001
 51
229.45842
  0
ARC
  8
0
  6
CONTINUOUS
 62
     7
 10
664.85614
 20
-98.923164
 40
10
 50
310.54161
 51
6.8301892E-006
  0
ARC
  8
0
  6
CONTINUOUS
 62
     7
 10
886.85614
 20
-94.642204
 40
30
 50
135.00001
 51
179.99996
  0
ARC
  8
0
  6
CENTER
 62
     7
 10
886.85614
 20
-94.642204
 40
121
 50
135.00001
 51
177.96944
  0
ARC
  8
0
  6
CONTINUOUS
 62
     7
 10
886.85614
 20
-94.642204
 40
212
 50
135.00001
 51
179.99996
  0
ARC
  8
0
  6
CONTINUOUS
 62
     7
 10
-222.47484
 20
138.81938
 40
1.2
 50
13.508325
 51
121.49168
  0
ARC
  8
0
  6
CONTINUOUS
 62
     7
 10
-222.47484
 20
138.81938
 40
1.8
 50
13.508325
 51
121.49168
  0
ARC
  8
0
  6
CONTINUOUS
 62
     7
 10
-223.39328
 20
136.60208
 40
1.2
 50
193.50833
 51
301.49168
  0
ARC
  8
0
  6
CONTINUOUS
 62
     7
 10
-223.39328
 20
136.60208
 40
1.8
 50
193.50833
 51
301.49168
  0
ARC
  8
0
  6
CONTINUOUS
 62
     7
 10
-221.4086
 20
137.07886
 40
3.8411539
 50
121.49168
 51
153.02055
  0
ARC
  8
0
  6
CONTINUOUS
 62
     7
 10
-221.4086
 20
137.07886
 40
3.241154
 50
121.49168
 51
152.18911
  0
ARC
  8
0
  6
CONTINUOUS
 62
     7
 10
-224.45953
 20
138.34261
 40
3.241154
 50
301.49167
 51
13.508325
  0
ARC
  8
0
  6
CONTINUOUS
 62
     7
 10
-224.45953
 20
138.34261
 40
3.8411539
 50
301.49167
 51
333.02055
  0
ARC
  8
0
  6
CONTINUOUS
 62
     7
 10
-225.49783
 20
138.77267
 40
0.375
 50
104.36989
 51
210.6301
  0
ARC
  8
0
  6
CONTINUOUS
 62
     7
 10
-223.14194
 20
137.79683
 40
0.375
 50
284.3699
 51
30.630103
  0
ARC
  8
0
  6
CONTINUOUS
 62
     7
 10
-220.3703
 20
136.64879
 40
0.375
 50
284.3699
 51
30.630103
  0
ARC
  8
0
  6
CONTINUOUS
 62
     7
 10
-224.45953
 20
138.34261
 40
3.8411539
 50
341.97945
 51
13.508325
  0
ARC
  8
0
  6
CONTINUOUS
 62
     7
 10
-221.4086
 20
137.07886
 40
3.241154
 50
162.81088
 51
193.50833
  0
ARC
  8
0
  6
CONTINUOUS
 62
     7
 10
-221.4086
 20
137.07886
 40
3.8411539
 50
161.97945
 51
193.50833
  0
ARC
  8
0
  6
CONTINUOUS
 62
     7
 10
-142.0981
 20
135.39754
 40
1.2
 50
13.508325
 51
121.49168
  0
ARC
  8
0
  6
CONTINUOUS
 62
     7
 10
-142.0981
 20
135.39754
 40
1.8
 50
13.508325
 51
121.49168
  0
ARC
  8
0
  6
CONTINUOUS
 62
     7
 10
-143.01654
 20
133.18022
 40
1.2
 50
193.50833
 51
301.49168
  0
ARC
  8
0
  6
CONTINUOUS
 62
     7
 10
-143.01654
 20
133.18022
 40
1.8
 50
193.50833
 51
301.49168
  0
ARC
  8
0
  6
CONTINUOUS
 62
     7
 10
-141.03186
 20
133.65701
 40
3.8411539
 50
121.49168
 51
153.02055
  0
ARC
  8
0
  6
CONTINUOUS
 62
     7
 10
-141.03186
 20
133.65701
 40
3.241154
 50
121.49168
 51
152.18911
  0
ARC
  8
0
  6
CONTINUOUS
 62
     7
 10
-144.08279
 20
134.92075
 40
3.241154
 50
301.49167
 51
13.508325
  0
ARC
  8
0
  6
CONTINUOUS
 62
     7
 10
-144.08279
 20
134.92075
 40
3.8411539
 50
301.49167
 51
333.02055
  0
ARC
  8
0
  6
CONTINUOUS
 62
     7
 10
-145.12109
 20
135.35081
 40
0.375
 50
104.36989
 51
210.6301
  0
ARC
  8
0
  6
CONTINUOUS
 62
     7
 10
-142.7652
 20
134.37498
 40
0.375
 50
284.3699
 51
30.630103
  0
ARC
  8
0
  6
CONTINUOUS
 62
     7
 10
-139.99356
 20
133.22693
 40
0.375
 50
284.3699
 51
30.630103
  0
ARC
  8
0
  6
CONTINUOUS
 62
     7
 10
-144.08279
 20
134.92075
 40
3.8411539
 50
341.97945
 51
13.508325
  0
ARC
  8
0
  6
CONTINUOUS
 62
     7
 10
-141.03186
 20
133.65701
 40
3.241154
 50
162.81088
 51
193.50833
  0
ARC
  8
0
  6
CONTINUOUS
 62
     7
 10
-141.03186
 20
133.65701
 40
3.8411539
 50
161.97945
 51
193.50833
  0
ARC
  8
0
  6
CONTINUOUS
 62
     7
 10
-62.33802
 20
134.38914
 40
1.8
 50
13.508325
 51
121.49168
  0
ARC
  8
0
  6
CONTINUOUS
 62
     7
 10
-62.33802
 20
134.38914
 40
2.7
 50
13.508325
 51
121.49168
  0
ARC
  8
0
  6
CONTINUOUS
 62
     7
 10
-63.715679
 20
131.06319
 40
1.8
 50
193.50833
 51
301.49168
  0
ARC
  8
0
  6
CONTINUOUS
 62
     7
 10
-63.715679
 20
131.06319
 40
2.7
 50
193.50833
 51
301.49168
  0
ARC
  8
0
  6
CONTINUOUS
 62
     7
 10
-60.738647
 20
131.77837
 40
5.7617307
 50
121.49168
 51
153.02055
  0
ARC
  8
0
  6
CONTINUOUS
 62
     7
 10
-60.738647
 20
131.77837
 40
4.8617306
 50
121.49168
 51
152.18911
  0
ARC
  8
0
  6
CONTINUOUS
 62
     7
 10
-65.315048
 20
133.67397
 40
4.8617306
 50
301.49167
 51
13.508325
  0
ARC
  8
0
  6
CONTINUOUS
 62
     7
 10
-65.315048
 20
133.67397
 40
5.7617307
 50
301.49167
 51
333.02055
  0
ARC
  8
0
  6
CONTINUOUS
 62
     7
 10
-66.872498
 20
134.31908
 40
0.5625
 50
104.36989
 51
210.6301
  0
ARC
  8
0
  6
CONTINUOUS
 62
     7
 10
-63.338661
 20
132.85532
 40
0.5625
 50
284.3699
 51
30.630103
  0
ARC
  8
0
  6
CONTINUOUS
 62
     7
 10
-59.181202
 20
131.13324
 40
0.5625
 50
284.3699
 51
30.630103
  0
ARC
  8
0
  6
CONTINUOUS
 62
     7
 10
-60.738647
 20
131.77837
 40
5.7617307
 50
161.97945
 51
193.50833
  0
ARC
  8
0
  6
CONTINUOUS
 62
     7
 10
-60.738647
 20
131.77837
 40
4.8617306
 50
162.81088
 51
193.50833
  0
ARC
  8
0
  6
CONTINUOUS
 62
     7
 10
-65.315048
 20
133.67397
 40
5.7617307
 50
341.97945
 51
13.508325
  0
ARC
  8
0
  6
CONTINUOUS
 62
     7
 10
34.372978
 20
138.07806
 40
1.8
 50
13.508325
 51
121.49168
  0
ARC
  8
0
  6
CONTINUOUS
 62
     7
 10
34.372978
 20
138.07806
 40
2.7
 50
13.508325
 51
121.49168
  0
ARC
  8
0
  6
CONTINUOUS
 62
     7
 10
32.995316
 20
134.75211
 40
1.8
 50
193.50833
 51
301.49168
  0
ARC
  8
0
  6
CONTINUOUS
 62
     7
 10
32.995316
 20
134.75211
 40
2.7
 50
193.50833
 51
301.49168
  0
ARC
  8
0
  6
CONTINUOUS
 62
     7
 10
35.972347
 20
135.46729
 40
5.7617307
 50
121.49168
 51
153.02055
  0
ARC
  8
0
  6
CONTINUOUS
 62
     7
 10
35.972347
 20
135.46729
 40
4.8617306
 50
121.49168
 51
152.18911
  0
ARC
  8
0
  6
CONTINUOUS
 62
     7
 10
31.395947
 20
137.36288
 40
4.8617306
 50
301.49167
 51
13.508325
  0
ARC
  8
0
  6
CONTINUOUS
 62
     7
 10
31.395947
 20
137.36288
 40
5.7617307
 50
301.49167
 51
333.02055
  0
ARC
  8
0
  6
CONTINUOUS
 62
     7
 10
29.838499
 20
138.00801
 40
0.5625
 50
104.36989
 51
210.6301
  0
ARC
  8
0
  6
CONTINUOUS
 62
     7
 10
33.372337
 20
136.54425
 40
0.5625
 50
284.3699
 51
30.630103
  0
ARC
  8
0
  6
CONTINUOUS
 62
     7
 10
37.529797
 20
134.82217
 40
0.5625
 50
284.3699
 51
30.630103
  0
ARC
  8
0
  6
CONTINUOUS
 62
     7
 10
35.972347
 20
135.46729
 40
5.7617307
 50
161.97945
 51
193.50833
  0
ARC
  8
0
  6
CONTINUOUS
 62
     7
 10
35.972347
 20
135.46729
 40
4.8617306
 50
162.81088
 51
193.50833
  0
ARC
  8
0
  6
CONTINUOUS
 62
     7
 10
31.395947
 20
137.36288
 40
5.7617307
 50
341.97945
 51
13.508325
  0
ARC
  8
0
  6
CONTINUOUS
 62
     7
 10
127.73338
 20
134.30258
 40
1.8
 50
13.508325
 51
121.49168
  0
ARC
  8
0
  6
CONTINUOUS
 62
     7
 10
127.73338
 20
134.30258
 40
2.7
 50
13.508325
 51
121.49168
  0
ARC
  8
0
  6
CONTINUOUS
 62
     7
 10
126.35572
 20
130.97661
 40
1.8
 50
193.50833
 51
301.49168
  0
ARC
  8
0
  6
CONTINUOUS
 62
     7
 10
126.35572
 20
130.97661
 40
2.7
 50
193.50833
 51
301.49168
  0
ARC
  8
0
  6
CONTINUOUS
 62
     7
 10
129.33275
 20
131.69179
 40
5.7617307
 50
121.49168
 51
153.02055
  0
ARC
  8
0
  6
CONTINUOUS
 62
     7
 10
129.33275
 20
131.69179
 40
4.8617306
 50
121.49168
 51
152.18911
  0
ARC
  8
0
  6
CONTINUOUS
 62
     7
 10
124.75635
 20
133.5874
 40
4.8617306
 50
301.49167
 51
13.508325
  0
ARC
  8
0
  6
CONTINUOUS
 62
     7
 10
124.75635
 20
133.5874
 40
5.7617307
 50
301.49167
 51
333.02055
  0
ARC
  8
0
  6
CONTINUOUS
 62
     7
 10
123.19891
 20
134.23251
 40
0.5625
 50
104.36989
 51
210.6301
  0
ARC
  8
0
  6
CONTINUOUS
 62
     7
 10
126.73274
 20
132.76875
 40
0.5625
 50
284.3699
 51
30.630103
  0
ARC
  8
0
  6
CONTINUOUS
 62
     7
 10
130.8902
 20
131.04668
 40
0.5625
 50
284.3699
 51
30.630103
  0
ARC
  8
0
  6
CONTINUOUS
 62
     7
 10
129.33275
 20
131.69179
 40
5.7617307
 50
161.97945
 51
193.50833
  0
ARC
  8
0
  6
CONTINUOUS
 62
     7
 10
129.33275
 20
131.69179
 40
4.8617306
 50
162.81088
 51
193.50833
  0
ARC
  8
0
  6
CONTINUOUS
 62
     7
 10
124.75635
 20
133.5874
 40
5.7617307
 50
341.97945
 51
13.508325
  0
ARC
  8
0
  6
CONTINUOUS
 62
     7
 10
220.51772
 20
133.18427
 40
2.4000001
 50
13.508325
 51
121.49168
  0
ARC
  8
0
  6
CONTINUOUS
 62
     7
 10
220.51772
 20
133.18427
 40
3.5999999
 50
13.508325
 51
121.49168
  0
ARC
  8
0
  6
CONTINUOUS
 62
     7
 10
218.68083
 20
128.74963
 40
2.4000001
 50
193.50833
 51
301.49168
  0
ARC
  8
0
  6
CONTINUOUS
 62
     7
 10
218.68083
 20
128.74963
 40
3.5999999
 50
193.50833
 51
301.49168
  0
ARC
  8
0
  6
CONTINUOUS
 62
     7
 10
222.65021
 20
129.70322
 40
7.6823077
 50
121.49168
 51
153.02055
  0
ARC
  8
0
  6
CONTINUOUS
 62
     7
 10
222.65021
 20
129.70322
 40
6.4823079
 50
121.49168
 51
152.18911
  0
ARC
  8
0
  6
CONTINUOUS
 62
     7
 10
216.54834
 20
132.23068
 40
6.4823079
 50
301.49167
 51
13.508325
  0
ARC
  8
0
  6
CONTINUOUS
 62
     7
 10
216.54834
 20
132.23068
 40
7.6823077
 50
301.49167
 51
333.02055
  0
ARC
  8
0
  6
CONTINUOUS
 62
     7
 10
214.47174
 20
133.09084
 40
0.75
 50
104.36989
 51
210.6301
  0
ARC
  8
0
  6
CONTINUOUS
 62
     7
 10
219.18352
 20
131.13916
 40
0.75
 50
284.3699
 51
30.630103
  0
ARC
  8
0
  6
CONTINUOUS
 62
     7
 10
224.72681
 20
128.84305
 40
0.75
 50
284.3699
 51
30.630103
  0
ARC
  8
0
  6
CONTINUOUS
 62
     7
 10
222.65021
 20
129.70322
 40
6.4823079
 50
162.81088
 51
193.50833
  0
ARC
  8
0
  6
CONTINUOUS
 62
     7
 10
222.65021
 20
129.70322
 40
7.6823077
 50
161.97945
 51
193.50833
  0
ARC
  8
0
  6
CONTINUOUS
 62
     7
 10
216.54834
 20
132.23068
 40
7.6823077
 50
341.97945
 51
13.508325
  0
ARC
  8
0
  6
CONTINUOUS
 62
     7
 10
-142.9653
 20
39.787174
 40
2.4000001
 50
13.508325
 51
121.49168
  0
ARC
  8
0
  6
CONTINUOUS
 62
     7
 10
-142.9653
 20
39.787174
 40
3.5999999
 50
13.508325
 51
121.49168
  0
ARC
  8
0
  6
CONTINUOUS
 62
     7
 10
-144.80219
 20
35.352551
 40
2.4000001
 50
193.50833
 51
301.49168
  0
ARC
  8
0
  6
CONTINUOUS
 62
     7
 10
-144.80219
 20
35.352551
 40
3.5999999
 50
193.50833
 51
301.49168
  0
ARC
  8
0
  6
CONTINUOUS
 62
     7
 10
-140.83281
 20
36.306122
 40
7.6823077
 50
121.49168
 51
153.02055
  0
ARC
  8
0
  6
CONTINUOUS
 62
     7
 10
-140.83281
 20
36.306122
 40
6.4823079
 50
121.49168
 51
152.18911
  0
ARC
  8
0
  6
CONTINUOUS
 62
     7
 10
-146.93468
 20
38.833599
 40
6.4823079
 50
301.49167
 51
13.508325
  0
ARC
  8
0
  6
CONTINUOUS
 62
     7
 10
-146.93468
 20
38.833599
 40
7.6823077
 50
301.49167
 51
333.02055
  0
ARC
  8
0
  6
CONTINUOUS
 62
     7
 10
-149.01128
 20
39.693756
 40
0.75
 50
104.36989
 51
210.6301
  0
ARC
  8
0
  6
CONTINUOUS
 62
     7
 10
-144.29948
 20
37.742069
 40
0.75
 50
284.3699
 51
30.630103
  0
ARC
  8
0
  6
CONTINUOUS
 62
     7
 10
-138.75621
 20
35.445969
 40
0.75
 50
284.3699
 51
30.630103
  0
ARC
  8
0
  6
CONTINUOUS
 62
     7
 10
-140.83281
 20
36.306122
 40
6.4823079
 50
162.81088
 51
193.50833
  0
ARC
  8
0
  6
CONTINUOUS
 62
     7
 10
-140.83281
 20
36.306122
 40
7.6823077
 50
161.97945
 51
193.50833
  0
ARC
  8
0
  6
CONTINUOUS
 62
     7
 10
-146.93468
 20
38.833599
 40
7.6823077
 50
341.97945
 51
13.508325
  0
ARC
  8
0
  6
CONTINUOUS
 62
     7
 10
-27.520473
 20
40.74641
 40
2.4000001
 50
13.508325
 51
121.49168
  0
ARC
  8
0
  6
CONTINUOUS
 62
     7
 10
-27.520473
 20
40.74641
 40
3.5999999
 50
13.508325
 51
121.49168
  0
ARC
  8
0
  6
CONTINUOUS
 62
     7
 10
-29.357355
 20
36.31179
 40
2.4000001
 50
193.50833
 51
301.49168
  0
ARC
  8
0
  6
CONTINUOUS
 62
     7
 10
-29.357355
 20
36.31179
 40
3.5999999
 50
193.50833
 51
301.49168
  0
ARC
  8
0
  6
CONTINUOUS
 62
     7
 10
-25.38798
 20
37.265362
 40
7.6823077
 50
121.49168
 51
153.02055
  0
ARC
  8
0
  6
CONTINUOUS
 62
     7
 10
-25.38798
 20
37.265362
 40
6.4823079
 50
121.49168
 51
152.18911
  0
ARC
  8
0
  6
CONTINUOUS
 62
     7
 10
-31.489849
 20
39.792839
 40
6.4823079
 50
301.49167
 51
13.508325
  0
ARC
  8
0
  6
CONTINUOUS
 62
     7
 10
-31.489849
 20
39.792839
 40
7.6823077
 50
301.49167
 51
333.02055
  0
ARC
  8
0
  6
CONTINUOUS
 62
     7
 10
-33.566444
 20
40.652992
 40
0.75
 50
104.36989
 51
210.6301
  0
ARC
  8
0
  6
CONTINUOUS
 62
     7
 10
-28.85466
 20
38.701309
 40
0.75
 50
284.3699
 51
30.630103
  0
ARC
  8
0
  6
CONTINUOUS
 62
     7
 10
-23.311382
 20
36.405209
 40
0.75
 50
284.3699
 51
30.630103
  0
ARC
  8
0
  6
CONTINUOUS
 62
     7
 10
-25.38798
 20
37.265362
 40
6.4823079
 50
162.81088
 51
193.50833
  0
ARC
  8
0
  6
CONTINUOUS
 62
     7
 10
-25.38798
 20
37.265362
 40
7.6823077
 50
161.97945
 51
193.50833
  0
ARC
  8
0
  6
CONTINUOUS
 62
     7
 10
-31.489849
 20
39.792839
 40
7.6823077
 50
341.97945
 51
13.508325
  0
ARC
  8
0
  6
CONTINUOUS
 62
     7
 10
102.23002
 20
36.866829
 40
3
 50
13.508325
 51
121.49168
  0
ARC
  8
0
  6
CONTINUOUS
 62
     7
 10
102.23002
 20
36.866829
 40
4.5
 50
13.508325
 51
121.49168
  0
ARC
  8
0
  6
CONTINUOUS
 62
     7
 10
99.933922
 20
31.323551
 40
3
 50
193.50833
 51
301.49168
  0
ARC
  8
0
  6
CONTINUOUS
 62
     7
 10
99.933922
 20
31.323551
 40
4.5
 50
193.50833
 51
301.49168
  0
ARC
  8
0
  6
CONTINUOUS
 62
     7
 10
104.89564
 20
32.515518
 40
9.6028843
 50
121.49168
 51
153.02055
  0
ARC
  8
0
  6
CONTINUOUS
 62
     7
 10
104.89564
 20
32.515518
 40
8.1028843
 50
121.49168
 51
152.18911
  0
ARC
  8
0
  6
CONTINUOUS
 62
     7
 10
97.268303
 20
35.674862
 40
8.1028843
 50
301.49167
 51
13.508325
  0
ARC
  8
0
  6
CONTINUOUS
 62
     7
 10
97.268303
 20
35.674862
 40
9.6028843
 50
301.49167
 51
333.02055
  0
ARC
  8
0
  6
CONTINUOUS
 62
     7
 10
94.672554
 20
36.750057
 40
0.9375
 50
104.36989
 51
210.6301
  0
ARC
  8
0
  6
CONTINUOUS
 62
     7
 10
100.56229
 20
34.310452
 40
0.9375
 50
284.3699
 51
30.630103
  0
ARC
  8
0
  6
CONTINUOUS
 62
     7
 10
107.49139
 20
31.440325
 40
0.9375
 50
284.3699
 51
30.630103
  0
ARC
  8
0
  6
CONTINUOUS
 62
     7
 10
104.89564
 20
32.515518
 40
9.6028843
 50
161.97945
 51
193.50833
  0
ARC
  8
0
  6
CONTINUOUS
 62
     7
 10
104.89564
 20
32.515518
 40
8.1028843
 50
162.81088
 51
193.50833
  0
ARC
  8
0
  6
CONTINUOUS
 62
     7
 10
97.268303
 20
35.674862
 40
9.6028843
 50
341.97945
 51
13.508325
  0
ARC
  8
0
  6
CONTINUOUS
 62
     7
 10
-168.41589
 20
-99.060661
 40
3
 50
13.508325
 51
121.49168
  0
ARC
  8
0
  6
CONTINUOUS
 62
     7
 10
-168.41589
 20
-99.060661
 40
4.5
 50
13.508325
 51
121.49168
  0
ARC
  8
0
  6
CONTINUOUS
 62
     7
 10
-170.71199
 20
-104.60394
 40
3
 50
193.50833
 51
301.49168
  0
ARC
  8
0
  6
CONTINUOUS
 62
     7
 10
-170.71199
 20
-104.60394
 40
4.5
 50
193.50833
 51
301.49168
  0
ARC
  8
0
  6
CONTINUOUS
 62
     7
 10
-165.75027
 20
-103.41197
 40
9.6028843
 50
121.49168
 51
153.02055
  0
ARC
  8
0
  6
CONTINUOUS
 62
     7
 10
-165.75027
 20
-103.41197
 40
8.1028843
 50
121.49168
 51
152.18911
  0
ARC
  8
0
  6
CONTINUOUS
 62
     7
 10
-173.37761
 20
-100.25262
 40
8.1028843
 50
301.49167
 51
13.508325
  0
ARC
  8
0
  6
CONTINUOUS
 62
     7
 10
-173.37761
 20
-100.25262
 40
9.6028843
 50
301.49167
 51
333.02055
  0
ARC
  8
0
  6
CONTINUOUS
 62
     7
 10
-175.97336
 20
-99.177437
 40
0.9375
 50
104.36989
 51
210.6301
  0
ARC
  8
0
  6
CONTINUOUS
 62
     7
 10
-170.08362
 20
-101.61704
 40
0.9375
 50
284.3699
 51
30.630103
  0
ARC
  8
0
  6
CONTINUOUS
 62
     7
 10
-163.15453
 20
-104.48717
 40
0.9375
 50
284.3699
 51
30.630103
  0
ARC
  8
0
  6
CONTINUOUS
 62
     7
 10
-165.75027
 20
-103.41197
 40
9.6028843
 50
161.97945
 51
193.50833
  0
ARC
  8
0
  6
CONTINUOUS
 62
     7
 10
-165.75027
 20
-103.41197
 40
8.1028843
 50
162.81088
 51
193.50833
  0
ARC
  8
0
  6
CONTINUOUS
 62
     7
 10
-173.37761
 20
-100.25262
 40
9.6028843
 50
341.97945
 51
13.508325
  0
ARC
  8
0
  6
CONTINUOUS
 62
     7
 10
-1.7857608
 20
-103.17535
 40
3.5999999
 50
13.508325
 51
121.49168
  0
ARC
  8
0
  6
CONTINUOUS
 62
     7
 10
-1.7857608
 20
-103.17535
 40
5.4000001
 50
13.508325
 51
121.49168
  0
ARC
  8
0
  6
CONTINUOUS
 62
     7
 10
-4.5410814
 20
-109.82729
 40
3.5999999
 50
193.50833
 51
301.49168
  0
ARC
  8
0
  6
CONTINUOUS
 62
     7
 10
-4.5410814
 20
-109.82729
 40
5.4000001
 50
193.50833
 51
301.49168
  0
ARC
  8
0
  6
CONTINUOUS
 62
     7
 10
1.4129808
 20
-108.39693
 40
11.523461
 50
121.49168
 51
153.02055
  0
ARC
  8
0
  6
CONTINUOUS
 62
     7
 10
1.4129808
 20
-108.39693
 40
9.7234612
 50
121.49168
 51
152.18911
  0
ARC
  8
0
  6
CONTINUOUS
 62
     7
 10
-7.7398229
 20
-104.60571
 40
9.7234612
 50
301.49167
 51
13.508325
  0
ARC
  8
0
  6
CONTINUOUS
 62
     7
 10
-7.7398229
 20
-104.60571
 40
11.523461
 50
301.49167
 51
333.02055
  0
ARC
  8
0
  6
CONTINUOUS
 62
     7
 10
-10.854718
 20
-103.31548
 40
1.125
 50
104.36989
 51
210.6301
  0
ARC
  8
0
  6
CONTINUOUS
 62
     7
 10
-3.7870398
 20
-106.243
 40
1.125
 50
284.3699
 51
30.630103
  0
ARC
  8
0
  6
CONTINUOUS
 62
     7
 10
4.5278759
 20
-109.68716
 40
1.125
 50
284.3699
 51
30.630103
  0
ARC
  8
0
  6
CONTINUOUS
 62
     7
 10
1.4129808
 20
-108.39693
 40
11.523461
 50
161.97945
 51
193.50833
  0
ARC
  8
0
  6
CONTINUOUS
 62
     7
 10
1.4129808
 20
-108.39693
 40
9.7234612
 50
162.81088
 51
193.50833
  0
ARC
  8
0
  6
CONTINUOUS
 62
     7
 10
-7.7398229
 20
-104.60571
 40
11.523461
 50
341.97945
 51
13.508325
  0
ARC
  8
0
  6
CONTINUOUS
 62
     7
 10
176.83897
 20
-99.356926
 40
3.5999999
 50
13.508325
 51
121.49168
  0
ARC
  8
0
  6
CONTINUOUS
 62
     7
 10
176.83897
 20
-99.356926
 40
5.4000001
 50
13.508325
 51
121.49168
  0
ARC
  8
0
  6
CONTINUOUS
 62
     7
 10
174.08365
 20
-106.00886
 40
3.5999999
 50
193.50833
 51
301.49168
  0
ARC
  8
0
  6
CONTINUOUS
 62
     7
 10
174.08365
 20
-106.00886
 40
5.4000001
 50
193.50833
 51
301.49168
  0
ARC
  8
0
  6
CONTINUOUS
 62
     7
 10
180.03772
 20
-104.5785
 40
11.523461
 50
121.49168
 51
153.02055
  0
ARC
  8
0
  6
CONTINUOUS
 62
     7
 10
180.03772
 20
-104.5785
 40
9.7234612
 50
121.49168
 51
152.18911
  0
ARC
  8
0
  6
CONTINUOUS
 62
     7
 10
170.88492
 20
-100.78728
 40
9.7234612
 50
301.49167
 51
13.508325
  0
ARC
  8
0
  6
CONTINUOUS
 62
     7
 10
170.88492
 20
-100.78728
 40
11.523461
 50
301.49167
 51
333.02055
  0
ARC
  8
0
  6
CONTINUOUS
 62
     7
 10
167.77002
 20
-99.497055
 40
1.125
 50
104.36989
 51
210.6301
  0
ARC
  8
0
  6
CONTINUOUS
 62
     7
 10
174.83769
 20
-102.42458
 40
1.125
 50
284.3699
 51
30.630103
  0
ARC
  8
0
  6
CONTINUOUS
 62
     7
 10
183.15262
 20
-105.86874
 40
1.125
 50
284.3699
 51
30.630103
  0
ARC
  8
0
  6
CONTINUOUS
 62
     7
 10
180.03772
 20
-104.5785
 40
11.523461
 50
161.97945
 51
193.50833
  0
ARC
  8
0
  6
CONTINUOUS
 62
     7
 10
180.03772
 20
-104.5785
 40
9.7234612
 50
162.81088
 51
193.50833
  0
ARC
  8
0
  6
CONTINUOUS
 62
     7
 10
170.88492
 20
-100.78728
 40
11.523461
 50
341.97945
 51
13.508325
  0
ARC
  8
0
  6
CONTINUOUS
 62
     7
 10
511.93942
 20
27.468042
 40
4.8000002
 50
13.508325
 51
121.49168
  0
ARC
  8
0
  6
CONTINUOUS
 62
     7
 10
511.93942
 20
27.468042
 40
7.1999998
 50
13.508325
 51
121.49168
  0
ARC
  8
0
  6
CONTINUOUS
 62
     7
 10
508.26566
 20
18.598799
 40
4.8000002
 50
193.50833
 51
301.49168
  0
ARC
  8
0
  6
CONTINUOUS
 62
     7
 10
508.26566
 20
18.598799
 40
7.1999998
 50
193.50833
 51
301.49168
  0
ARC
  8
0
  6
CONTINUOUS
 62
     7
 10
516.20441
 20
20.505943
 40
15.364615
 50
121.49168
 51
153.02055
  0
ARC
  8
0
  6
CONTINUOUS
 62
     7
 10
516.20441
 20
20.505943
 40
12.964616
 50
121.49168
 51
152.18911
  0
ARC
  8
0
  6
CONTINUOUS
 62
     7
 10
504.00067
 20
25.560898
 40
15.364615
 50
301.49167
 51
333.02055
  0
ARC
  8
0
  6
CONTINUOUS
 62
     7
 10
499.84747
 20
27.281208
 40
1.5
 50
104.36989
 51
210.6301
  0
ARC
  8
0
  6
CONTINUOUS
 62
     7
 10
509.27106
 20
23.377836
 40
1.5
 50
284.3699
 51
30.630103
  0
ARC
  8
0
  6
CONTINUOUS
 62
     7
 10
520.3576
 20
18.785635
 40
1.5
 50
284.3699
 51
30.630103
  0
ARC
  8
0
  6
CONTINUOUS
 62
     7
 10
504.00067
 20
25.560898
 40
12.964616
 50
301.49167
 51
13.508325
  0
ARC
  8
0
  6
CONTINUOUS
 62
     7
 10
504.00067
 20
25.560898
 40
15.364615
 50
341.97945
 51
13.508325
  0
ARC
  8
0
  6
CONTINUOUS
 62
     7
 10
516.20441
 20
20.505943
 40
12.964616
 50
162.81088
 51
193.50833
  0
ARC
  8
0
  6
CONTINUOUS
 62
     7
 10
516.20441
 20
20.505943
 40
15.364615
 50
161.97945
 51
193.50833
  0
ARC
  8
0
  6
CONTINUOUS
 62
     7
 10
784.31799
 20
-47.262482
 40
4.8000002
 50
13.508325
 51
121.49168
  0
ARC
  8
0
  6
CONTINUOUS
 62
     7
 10
784.31799
 20
-47.262482
 40
7.1999998
 50
13.508325
 51
121.49168
  0
ARC
  8
0
  6
CONTINUOUS
 62
     7
 10
780.64429
 20
-56.131725
 40
4.8000002
 50
193.50833
 51
301.49168
  0
ARC
  8
0
  6
CONTINUOUS
 62
     7
 10
780.64429
 20
-56.131725
 40
7.1999998
 50
193.50833
 51
301.49168
  0
ARC
  8
0
  6
CONTINUOUS
 62
     7
 10
788.58301
 20
-54.224583
 40
15.364615
 50
121.49168
 51
153.02055
  0
ARC
  8
0
  6
CONTINUOUS
 62
     7
 10
788.58301
 20
-54.224583
 40
12.964616
 50
121.49168
 51
152.18911
  0
ARC
  8
0
  6
CONTINUOUS
 62
     7
 10
776.37927
 20
-49.169628
 40
15.364615
 50
301.49167
 51
333.02055
  0
ARC
  8
0
  6
CONTINUOUS
 62
     7
 10
772.22607
 20
-47.449318
 40
1.5
 50
104.36989
 51
210.6301
  0
ARC
  8
0
  6
CONTINUOUS
 62
     7
 10
781.64966
 20
-51.352692
 40
1.5
 50
284.3699
 51
30.630103
  0
ARC
  8
0
  6
CONTINUOUS
 62
     7
 10
792.73621
 20
-55.944893
 40
1.5
 50
284.3699
 51
30.630103
  0
ARC
  8
0
  6
CONTINUOUS
 62
     7
 10
776.37927
 20
-49.169628
 40
12.964616
 50
301.49167
 51
13.508325
  0
ARC
  8
0
  6
CONTINUOUS
 62
     7
 10
776.37927
 20
-49.169628
 40
15.364615
 50
341.97945
 51
13.508325
  0
ARC
  8
0
  6
CONTINUOUS
 62
     7
 10
788.58301
 20
-54.224583
 40
12.964616
 50
162.81088
 51
193.50833
  0
ARC
  8
0
  6
CONTINUOUS
 62
     7
 10
788.58301
 20
-54.224583
 40
15.364615
 50
161.97945
 51
193.50833
  0
TEXT
  8
0
  6
CONTINUOUS
 62
     7
 10
-44.00556
 20
177.99368
 40
10
 41
0.8719799
  1
４５%%Dエルボ
  0
TEXT
  8
0
  6
CONTINUOUS
 62
     7
 10
605.99447
 20
177.99368
 40
10
 41
0.8719799
  1
４５%%Dエルボ
  0
TEXT
  8
0
  6
CONTINUOUS
 62
     7
 10
-223.03373
 20
158.29666
 40
4
 41
0.85537028
  1
１／８
  0
TEXT
  8
0
  6
CONTINUOUS
 62
     7
 10
-144.53211
 20
157.80756
 40
4
 41
0.85537028
  1
１／４
  0
TEXT
  8
0
  6
CONTINUOUS
 62
     7
 10
-65.785943
 20
159.03033
 40
4
 41
0.85537028
  1
３／８
  0
TEXT
  8
0
  6
CONTINUOUS
 62
     7
 10
28.856189
 20
166.36693
 40
4
 41
0.85537028
  1
１／２
  0
TEXT
  8
0
  6
CONTINUOUS
 62
     7
 10
222.20641
 20
172.41679
 40
4
 41
0.90047271
  1
１
  0
TEXT
  8
0
  6
CONTINUOUS
 62
     7
 10
-140.76475
 20
86.323067
 40
4
 41
0.85127006
  1
１１／４
  0
TEXT
  8
0
  6
CONTINUOUS
 62
     7
 10
-35.386022
 20
92.521812
 40
4
 41
0.85127006
  1
１１／２
  0
TEXT
  8
0
  6
CONTINUOUS
 62
     7
 10
85.833953
 20
91.144318
 40
4
 41
0.90047271
  1
２
  0
TEXT
  8
0
  6
CONTINUOUS
 62
     7
 10
123.71519
 20
168.2843
 40
4
 41
0.85537028
  1
３／４
  0
TEXT
  8
0
  6
CONTINUOUS
 62
     7
 10
-164.18224
 20
-32.141907
 40
4
 41
0.90047271
  1
２
  0
TEXT
  8
0
  6
CONTINUOUS
 62
     7
 10
-160.18224
 20
-29.141907
 40
2
 41
0.90047271
  1
１
  0
TEXT
  8
0
  6
CONTINUOUS
 62
     7
 10
-158.18224
 20
-32.141907
 40
4
 41
0.90047271
  1
／
  0
TEXT
  8
0
  6
CONTINUOUS
 62
     7
 10
-154.18224
 20
-32.141907
 40
2
 41
0.90047271
  1
２
  0
TEXT
  8
0
  6
CONTINUOUS
 62
     7
 10
7.3164701
 20
-30.764406
 40
4
 41
0.90047271
  1
３
  0
TEXT
  8
0
  6
CONTINUOUS
 62
     7
 10
182.94768
 20
-10.101912
 40
4
 41
0.90047271
  1
４
  0
TEXT
  8
0
  6
CONTINUOUS
 62
     7
 10
533.96004
 20
131.56631
 40
4
 41
0.90047271
  1
５
  0
TEXT
  8
0
  6
CONTINUOUS
 62
     7
 10
804.58456
 20
54.743858
 40
4
 41
0.90047271
  1
６
  0
ENDSEC
  0
EOF
