  0
SECTION
  2
HEADER
  9
$EXTMAX
 10
0
 20
297
  9
$EXTMIN
 10
-210
 20
0
  0
ENDSEC
  0
SECTION
  2
TABLES
  0
TABLE
  2
LTYPE
 70
    22
  0
LTYPE
  2
CONTINUOUS
 70
    64
  3
Solid line
 72
    65
 73
     0
 40
0.000000
  0
LTYPE
  2
DASHED
 70
    64
  3
__ __ __ __ __ __ __ __ __ __ __ __ __ __ __
 72
    65
 73
     2
 40
3.500000
 49
2.000000
 49
-1.500000
  0
LTYPE
  2
CENTER
 70
    64
  3
____ _ ____ _ ____ _ ____ _ ____ _ ____ _ ____
 72
    65
 73
     4
 40
17.500000
 49
13.000000
 49
-1.500000
 49
1.500000
 49
-1.500000
  0
LTYPE
  2
PHANTOM
 70
    64
  3
_____ _ _ _____ _ _ _____ _ _ _____ _ _ ____  
 72
    65
 73
     6
 40
15.500000
 49
8.000000
 49
-1.500000
 49
1.500000
 49
-1.500000
 49
1.500000
 49
-1.500000
  0
LTYPE
  2
DOT
 70
    64
  3
. . . . . . . . . . . . . . . . . . . . . . . .
 72
    65
 73
     2
 40
0.25
 49
0.0
 49
-0.25
  0
ENDTAB
  0
TABLE
  2
LAYER
 70
     2
  0
LAYER
  2
0
 70
     0
 62
     7
  6
CONTINUOUS
  0
LAYER
  2
1
 70
     0
 62
     7
  6
CONTINUOUS
  0
ENDTAB
  0
TABLE
  2
STYLE
 70
     1
  0
STYLE
  2
STANDARD
 70
     0
 40
0.000000
 41
1.000000
 50
0.000000
 71
     0
 42
0.200000
  3
txt
  4
BIGFONT
  0
ENDTAB
  0
TABLE
  2
VIEW
 70
     0
  0
ENDTAB
  0
ENDSEC
  0
SECTION
  2
BLOCKS
  0
BLOCK
  8
0
  2
KOZU1
 70
    64
 10
0
 20
0
  0
POINT
  8
0
  6
CONTINUOUS
 62
     7
 10
-86.41217
 20
-0.10905457
  0
POINT
  8
0
  6
CONTINUOUS
 62
     7
 10
0
 20
0
  0
POINT
  8
0
  6
CONTINUOUS
 62
     7
 10
94.5
 20
-0.3500061
  0
LINE
  8
0
  6
CONTINUOUS
 62
     7
 10
94.5
 20
44.649994
 11
74
 21
44.649994
  0
LINE
  8
0
  6
CONTINUOUS
 62
     7
 10
83.852936
 20
43.148895
 11
82.070023
 21
43.148895
  0
LINE
  8
0
  6
CONTINUOUS
 62
     7
 10
83.852936
 20
30.151093
 11
83.852936
 21
43.148895
  0
LINE
  8
0
  6
CONTINUOUS
 62
     7
 10
82.070023
 20
30.151093
 11
82.070023
 21
43.148895
  0
LINE
  8
0
  6
CONTINUOUS
 62
     7
 10
83.852936
 20
30.151093
 11
82.070023
 21
30.151093
  0
LINE
  8
0
  6
CONTINUOUS
 62
     7
 10
94.5
 20
28.649994
 11
74
 21
28.649994
  0
LINE
  8
0
  6
CONTINUOUS
 62
     7
 10
74.000008
 20
28.649975
 11
71.400002
 21
30.151089
  0
LINE
  8
0
  6
CONTINUOUS
 62
     7
 10
71.400009
 20
30.151093
 11
71.400009
 21
43.148895
  0
LINE
  8
0
  6
CONTINUOUS
 62
     7
 10
71.400009
 20
43.14888
 11
74.000015
 21
44.649994
  0
LINE
  8
0
  6
CONTINUOUS
 62
     7
 10
94.5
 20
44.649994
 11
115
 21
44.649994
  0
LINE
  8
0
  6
CONTINUOUS
 62
     7
 10
105.14706
 20
43.148895
 11
106.92998
 21
43.148895
  0
LINE
  8
0
  6
CONTINUOUS
 62
     7
 10
105.14706
 20
30.151123
 11
105.14706
 21
43.148895
  0
LINE
  8
0
  6
CONTINUOUS
 62
     7
 10
106.92998
 20
30.151123
 11
106.92998
 21
43.148895
  0
LINE
  8
0
  6
CONTINUOUS
 62
     7
 10
105.14706
 20
30.151093
 11
106.92998
 21
30.151093
  0
LINE
  8
0
  6
CONTINUOUS
 62
     7
 10
94.5
 20
28.649994
 11
115
 21
28.649994
  0
LINE
  8
0
  6
CONTINUOUS
 62
     7
 10
115.00001
 20
28.649981
 11
117.60001
 21
30.151091
  0
LINE
  8
0
  6
CONTINUOUS
 62
     7
 10
117.59999
 20
30.151123
 11
117.59999
 21
43.148895
  0
LINE
  8
0
  6
CONTINUOUS
 62
     7
 10
117.6
 20
43.148884
 11
114.99999
 21
44.649998
  0
LINE
  8
0
  6
CENTER
 62
     7
 10
-122.98123
 20
-0.10905457
 11
-48.767303
 21
-0.10905457
  0
LINE
  8
0
  6
CONTINUOUS
 62
     7
 10
-97.16217
 20
15.051514
 11
-97.16217
 21
12.640945
  0
LINE
  8
0
  6
CONTINUOUS
 62
     7
 10
-96.91217
 20
18.890945
 11
-96.91217
 21
15.484512
  0
LINE
  8
0
  6
CONTINUOUS
 62
     7
 10
-96.100159
 20
18.890945
 11
-96.100159
 21
16.890945
  0
LINE
  8
0
  6
CONTINUOUS
 62
     7
 10
-96.91217
 20
16.890945
 11
-86.41217
 21
16.890945
  0
LINE
  8
0
  6
CONTINUOUS
 62
     7
 10
-96.100166
 20
16.89094
 11
-96.91217
 21
15.484508
  0
LINE
  8
0
  6
CONTINUOUS
 62
     7
 10
-96.91217
 20
15.484508
 11
-97.16217
 21
15.051496
  0
LINE
  8
0
  6
CONTINUOUS
 62
     7
 10
-86.41217
 20
-10.109055
 11
-93.113129
 21
-10.109055
  0
LINE
  8
0
  6
CONTINUOUS
 62
     7
 10
-101.57275
 20
-10.859055
 11
-94.41217
 21
-10.859055
  0
LINE
  8
0
  6
CONTINUOUS
 62
     7
 10
-102.00576
 20
-10.609024
 11
-101.57275
 21
-10.859024
  0
LINE
  8
0
  6
CONTINUOUS
 62
     7
 10
-103.41218
 20
-9.7970276
 11
-102.00576
 21
-10.609024
  0
LINE
  8
0
  6
CONTINUOUS
 62
     7
 10
-105.41217
 20
-10.609055
 11
-102.00574
 21
-10.609055
  0
LINE
  8
0
  6
CONTINUOUS
 62
     7
 10
-103.41217
 20
-10.609055
 11
-103.41217
 21
10.390945
  0
LINE
  8
0
  6
CONTINUOUS
 62
     7
 10
-105.41217
 20
-9.7970428
 11
-103.41217
 21
-9.7970428
  0
LINE
  8
0
  6
CONTINUOUS
 62
     7
 10
-105.41217
 20
10.390945
 11
-102.00574
 21
10.390945
  0
LINE
  8
0
  6
CONTINUOUS
 62
     7
 10
-105.41217
 20
9.578949
 11
-103.41217
 21
9.578949
  0
LINE
  8
0
  6
CONTINUOUS
 62
     7
 10
-103.41218
 20
9.578948
 11
-102.00574
 21
10.390952
  0
LINE
  8
0
  6
CONTINUOUS
 62
     7
 10
-101.57275
 20
10.640945
 11
-99.16217
 21
10.640945
  0
LINE
  8
0
  6
CONTINUOUS
 62
     7
 10
-102.00574
 20
10.390952
 11
-101.57273
 21
10.640952
  0
LINE
  8
0
  6
CONTINUOUS
 62
     7
 10
-92.41217
 20
7.8909454
 11
-86.41217
 21
7.8909454
  0
LINE
  8
0
  6
CONTINUOUS
 62
     7
 10
-94.41217
 20
5.8909454
 11
-94.41217
 21
-10.859055
  0
LINE
  8
0
  6
CENTER
 62
     7
 10
-86.41217
 20
-15.109055
 11
-86.41217
 21
37.141693
  0
LINE
  8
0
  6
CONTINUOUS
 62
     7
 10
-75.66217
 20
15.051514
 11
-75.66217
 21
12.640945
  0
LINE
  8
0
  6
CONTINUOUS
 62
     7
 10
-75.91217
 20
18.890945
 11
-75.91217
 21
15.484512
  0
LINE
  8
0
  6
CONTINUOUS
 62
     7
 10
-76.724182
 20
18.890945
 11
-76.724182
 21
16.890945
  0
LINE
  8
0
  6
CONTINUOUS
 62
     7
 10
-75.91217
 20
16.890945
 11
-86.41217
 21
16.890945
  0
LINE
  8
0
  6
CONTINUOUS
 62
     7
 10
-76.72419
 20
16.890932
 11
-75.912193
 21
15.484514
  0
LINE
  8
0
  6
CONTINUOUS
 62
     7
 10
-75.912193
 20
15.484514
 11
-75.662193
 21
15.051501
  0
LINE
  8
0
  6
CONTINUOUS
 62
     7
 10
-86.41217
 20
-10.109055
 11
-79.711212
 21
-10.109055
  0
LINE
  8
0
  6
CONTINUOUS
 62
     7
 10
-71.251617
 20
-10.859055
 11
-78.41217
 21
-10.859055
  0
LINE
  8
0
  6
CONTINUOUS
 62
     7
 10
-70.818611
 20
-10.609038
 11
-71.251625
 21
-10.859038
  0
LINE
  8
0
  6
CONTINUOUS
 62
     7
 10
-69.412186
 20
-9.7970343
 11
-70.818611
 21
-10.609038
  0
LINE
  8
0
  6
CONTINUOUS
 62
     7
 10
-67.41217
 20
-10.609055
 11
-70.818604
 21
-10.609055
  0
LINE
  8
0
  6
CONTINUOUS
 62
     7
 10
-69.41217
 20
-10.609055
 11
-69.41217
 21
10.390945
  0
LINE
  8
0
  6
CONTINUOUS
 62
     7
 10
-67.41217
 20
-9.7970428
 11
-69.41217
 21
-9.7970428
  0
LINE
  8
0
  6
CONTINUOUS
 62
     7
 10
-67.41217
 20
10.390945
 11
-70.818604
 21
10.390945
  0
LINE
  8
0
  6
CONTINUOUS
 62
     7
 10
-67.41217
 20
9.578949
 11
-69.41217
 21
9.578949
  0
LINE
  8
0
  6
CONTINUOUS
 62
     7
 10
-69.412186
 20
9.5789557
 11
-70.818626
 21
10.390967
  0
LINE
  8
0
  6
CONTINUOUS
 62
     7
 10
-71.251617
 20
10.640945
 11
-73.66217
 21
10.640945
  0
LINE
  8
0
  6
CONTINUOUS
 62
     7
 10
-70.818626
 20
10.390967
 11
-71.25164
 21
10.640967
  0
LINE
  8
0
  6
CONTINUOUS
 62
     7
 10
-80.41217
 20
7.8909454
 11
-86.41217
 21
7.8909454
  0
LINE
  8
0
  6
CONTINUOUS
 62
     7
 10
-78.41217
 20
5.8909454
 11
-78.41217
 21
-10.859055
  0
LINE
  8
0
  6
CENTER
 62
     7
 10
-40.946167
 20
0
 11
41.001999
 21
0
  0
LINE
  8
0
  6
CONTINUOUS
 62
     7
 10
-14.25
 20
19.160553
 11
-14.25
 21
16.25
  0
LINE
  8
0
  6
CONTINUOUS
 62
     7
 10
-13.188019
 20
23
 11
-13.188019
 21
21
  0
LINE
  8
0
  6
CONTINUOUS
 62
     7
 10
-14
 20
23
 11
-14
 21
19.593567
  0
LINE
  8
0
  6
CONTINUOUS
 62
     7
 10
-14
 20
21
 11
0
 21
21
  0
LINE
  8
0
  6
CONTINUOUS
 62
     7
 10
-13.18804
 20
20.999987
 11
-14.000036
 21
19.593569
  0
LINE
  8
0
  6
CONTINUOUS
 62
     7
 10
-14.000036
 20
19.593569
 11
-14.250036
 21
19.160555
  0
LINE
  8
0
  6
CONTINUOUS
 62
     7
 10
0
 20
-13.550003
 11
-9.4801331
 21
-13.550003
  0
LINE
  8
0
  6
CONTINUOUS
 62
     7
 10
-11
 20
-14.25
 11
-19.160583
 21
-14.25
  0
LINE
  8
0
  6
CONTINUOUS
 62
     7
 10
-19.160589
 20
-14.249984
 11
-19.593601
 21
-13.999984
  0
LINE
  8
0
  6
CONTINUOUS
 62
     7
 10
-19.593601
 20
-13.999984
 11
-21.000021
 21
-13.187987
  0
LINE
  8
0
  6
CONTINUOUS
 62
     7
 10
-19.593597
 20
-14
 11
-23
 21
-14
  0
LINE
  8
0
  6
CONTINUOUS
 62
     7
 10
-21
 20
-13.188004
 11
-23
 21
-13.188004
  0
LINE
  8
0
  6
CONTINUOUS
 62
     7
 10
-19.593597
 20
14
 11
-23
 21
14
  0
LINE
  8
0
  6
CONTINUOUS
 62
     7
 10
-21
 20
13.188004
 11
-23
 21
13.188004
  0
LINE
  8
0
  6
CONTINUOUS
 62
     7
 10
-21
 20
14
 11
-21
 21
-14
  0
LINE
  8
0
  6
CONTINUOUS
 62
     7
 10
-19.593596
 20
14.000013
 11
-21.000015
 21
13.188017
  0
LINE
  8
0
  6
CONTINUOUS
 62
     7
 10
-19.160583
 20
14.250013
 11
-19.593596
 21
14.000013
  0
LINE
  8
0
  6
CONTINUOUS
 62
     7
 10
-16.25
 20
14.25
 11
-19.160583
 21
14.25
  0
LINE
  8
0
  6
CONTINUOUS
 62
     7
 10
-8
 20
11
 11
0
 21
11
  0
LINE
  8
0
  6
CONTINUOUS
 62
     7
 10
-11
 20
8
 11
-11
 21
-14.25
  0
LINE
  8
0
  6
CENTER
 62
     7
 10
0
 20
40.791534
 11
0
 21
-18.550003
  0
LINE
  8
0
  6
CONTINUOUS
 62
     7
 10
14.25
 20
19.160553
 11
14.25
 21
16.25
  0
LINE
  8
0
  6
CONTINUOUS
 62
     7
 10
13.187988
 20
23
 11
13.187988
 21
21
  0
LINE
  8
0
  6
CONTINUOUS
 62
     7
 10
14
 20
23
 11
14
 21
19.593567
  0
LINE
  8
0
  6
CONTINUOUS
 62
     7
 10
14
 20
21
 11
0
 21
21
  0
LINE
  8
0
  6
CONTINUOUS
 62
     7
 10
13.187992
 20
20.999983
 11
13.999989
 21
19.593563
  0
LINE
  8
0
  6
CONTINUOUS
 62
     7
 10
13.999989
 20
19.593563
 11
14.249989
 21
19.160551
  0
LINE
  8
0
  6
CONTINUOUS
 62
     7
 10
0
 20
-13.550003
 11
9.4801331
 21
-13.550003
  0
LINE
  8
0
  6
CONTINUOUS
 62
     7
 10
11
 20
-14.25
 11
19.160553
 21
-14.25
  0
LINE
  8
0
  6
CONTINUOUS
 62
     7
 10
19.16054
 20
-14.249987
 11
19.593552
 21
-13.999987
  0
LINE
  8
0
  6
CONTINUOUS
 62
     7
 10
19.593552
 20
-13.999987
 11
20.999971
 21
-13.18799
  0
LINE
  8
0
  6
CONTINUOUS
 62
     7
 10
19.593567
 20
-14
 11
22.999985
 21
-14
  0
LINE
  8
0
  6
CONTINUOUS
 62
     7
 10
21
 20
-13.188004
 11
22.999985
 21
-13.188004
  0
LINE
  8
0
  6
CONTINUOUS
 62
     7
 10
19.593567
 20
14
 11
22.999985
 21
14
  0
LINE
  8
0
  6
CONTINUOUS
 62
     7
 10
21
 20
13.188004
 11
22.999985
 21
13.188004
  0
LINE
  8
0
  6
CONTINUOUS
 62
     7
 10
21
 20
14
 11
21
 21
-14
  0
LINE
  8
0
  6
CONTINUOUS
 62
     7
 10
19.593552
 20
14.000009
 11
20.999969
 21
13.188012
  0
LINE
  8
0
  6
CONTINUOUS
 62
     7
 10
19.160538
 20
14.250009
 11
19.593552
 21
14.000009
  0
LINE
  8
0
  6
CONTINUOUS
 62
     7
 10
16.25
 20
14.25
 11
19.160553
 21
14.25
  0
LINE
  8
0
  6
CONTINUOUS
 62
     7
 10
8
 20
11
 11
0
 21
11
  0
LINE
  8
0
  6
CONTINUOUS
 62
     7
 10
11
 20
8
 11
11
 21
-14.25
  0
LINE
  8
0
  6
CENTER
 62
     7
 10
45.694687
 20
-0.3500061
 11
145.48331
 21
-0.3500061
  0
LINE
  8
0
  6
CONTINUOUS
 62
     7
 10
70.232056
 20
16.649994
 11
75.5
 21
16.649994
  0
LINE
  8
0
  6
CONTINUOUS
 62
     7
 10
70.23204
 20
-17.350006
 11
79.5
 21
-17.350006
  0
LINE
  8
0
  6
CONTINUOUS
 62
     7
 10
77.5
 20
18.649994
 11
77.5
 21
23.917969
  0
LINE
  8
0
  6
CONTINUOUS
 62
     7
 10
76.5
 20
25.649994
 11
94.5
 21
25.649994
  0
LINE
  8
0
  6
CONTINUOUS
 62
     7
 10
65.5
 20
17.649994
 11
68.5
 21
17.649994
  0
LINE
  8
0
  6
CONTINUOUS
 62
     7
 10
65.5
 20
-18.350006
 11
68.5
 21
-18.350006
  0
LINE
  8
0
  6
CONTINUOUS
 62
     7
 10
76.5
 20
25.649994
 11
76.5
 21
28.649994
  0
LINE
  8
0
  6
CONTINUOUS
 62
     7
 10
65.5
 20
-17.53801
 11
69.385483
 21
-17.53801
  0
LINE
  8
0
  6
CONTINUOUS
 62
     7
 10
65.5
 20
16.837997
 11
69.385483
 21
16.837997
  0
LINE
  8
0
  6
CONTINUOUS
 62
     7
 10
77.311996
 20
24.764526
 11
77.311996
 21
28.649994
  0
LINE
  8
0
  6
CONTINUOUS
 62
     7
 10
68.5
 20
17.649994
 11
68.5
 21
-18.350006
  0
LINE
  8
0
  6
CONTINUOUS
 62
     7
 10
79.5
 20
11.649994
 11
79.5
 21
-17.53801
  0
LINE
  8
0
  6
CONTINUOUS
 62
     7
 10
80.822876
 20
-16.850006
 11
94.5
 21
-16.850006
  0
LINE
  8
0
  6
CONTINUOUS
 62
     7
 10
82.5
 20
14.649994
 11
94.5
 21
14.649994
  0
LINE
  8
0
  6
CENTER
 62
     7
 10
94.5
 20
48.939331
 11
94.5
 21
-21.850006
  0
LINE
  8
0
  6
CONTINUOUS
 62
     7
 10
118.76794
 20
16.649994
 11
113.5
 21
16.649994
  0
LINE
  8
0
  6
CONTINUOUS
 62
     7
 10
118.76796
 20
-17.350006
 11
109.5
 21
-17.350006
  0
LINE
  8
0
  6
CONTINUOUS
 62
     7
 10
111.5
 20
18.649994
 11
111.5
 21
23.917969
  0
LINE
  8
0
  6
CONTINUOUS
 62
     7
 10
112.5
 20
25.649994
 11
94.5
 21
25.649994
  0
LINE
  8
0
  6
CONTINUOUS
 62
     7
 10
123.5
 20
17.649994
 11
120.5
 21
17.649994
  0
LINE
  8
0
  6
CONTINUOUS
 62
     7
 10
123.5
 20
-18.350006
 11
120.5
 21
-18.350006
  0
LINE
  8
0
  6
CONTINUOUS
 62
     7
 10
112.5
 20
25.649994
 11
112.5
 21
28.649994
  0
LINE
  8
0
  6
CONTINUOUS
 62
     7
 10
123.5
 20
-17.53801
 11
119.61452
 21
-17.53801
  0
LINE
  8
0
  6
CONTINUOUS
 62
     7
 10
123.5
 20
16.837997
 11
119.61452
 21
16.837997
  0
LINE
  8
0
  6
CONTINUOUS
 62
     7
 10
111.688
 20
24.764526
 11
111.688
 21
28.649994
  0
LINE
  8
0
  6
CONTINUOUS
 62
     7
 10
120.5
 20
17.649994
 11
120.5
 21
-18.350006
  0
LINE
  8
0
  6
CONTINUOUS
 62
     7
 10
109.5
 20
11.649994
 11
109.5
 21
-17.53801
  0
LINE
  8
0
  6
CONTINUOUS
 62
     7
 10
108.17712
 20
-16.850006
 11
94.5
 21
-16.850006
  0
LINE
  8
0
  6
CONTINUOUS
 62
     7
 10
106.5
 20
14.649994
 11
94.5
 21
14.649994
  0
LINE
  8
0
  6
CONTINUOUS
 62
     7
 10
-119.66162
 20
-5.8440399
 11
-119.66162
 21
-7.6338654
  0
LINE
  8
0
  6
CONTINUOUS
 62
     7
 10
-119.66162
 20
-5.8440399
 11
-106.16272
 21
-5.8440399
  0
LINE
  8
0
  6
CONTINUOUS
 62
     7
 10
-119.66162
 20
-7.6338654
 11
-106.16272
 21
-7.6338654
  0
LINE
  8
0
  6
CONTINUOUS
 62
     7
 10
-106.16272
 20
-5.8440399
 11
-106.16272
 21
-7.6338654
  0
LINE
  8
0
  6
CONTINUOUS
 62
     7
 10
-105.41217
 20
-0.10905457
 11
-105.41217
 21
-12.109055
  0
LINE
  8
0
  6
CONTINUOUS
 62
     7
 10
-106.16273
 20
-13.409027
 11
-105.41217
 21
-12.109024
  0
LINE
  8
0
  6
CONTINUOUS
 62
     7
 10
-119.66162
 20
-13.409058
 11
-106.16272
 21
-13.409058
  0
LINE
  8
0
  6
CONTINUOUS
 62
     7
 10
-120.41217
 20
-12.109037
 11
-119.66162
 21
-13.409027
  0
LINE
  8
0
  6
CONTINUOUS
 62
     7
 10
-120.41217
 20
-0.10905457
 11
-120.41217
 21
-12.109055
  0
LINE
  8
0
  6
CONTINUOUS
 62
     7
 10
-119.66162
 20
5.6259308
 11
-119.66162
 21
7.4157562
  0
LINE
  8
0
  6
CONTINUOUS
 62
     7
 10
-119.66162
 20
5.6259308
 11
-106.16272
 21
5.6259308
  0
LINE
  8
0
  6
CONTINUOUS
 62
     7
 10
-119.66162
 20
7.4157562
 11
-106.16272
 21
7.4157562
  0
LINE
  8
0
  6
CONTINUOUS
 62
     7
 10
-106.16272
 20
5.6259308
 11
-106.16272
 21
7.4157562
  0
LINE
  8
0
  6
CONTINUOUS
 62
     7
 10
-105.41217
 20
-0.10905457
 11
-105.41217
 21
11.890945
  0
LINE
  8
0
  6
CONTINUOUS
 62
     7
 10
-106.16273
 20
13.190945
 11
-105.41216
 21
11.890929
  0
LINE
  8
0
  6
CONTINUOUS
 62
     7
 10
-119.66162
 20
13.190964
 11
-106.16272
 21
13.190964
  0
LINE
  8
0
  6
CONTINUOUS
 62
     7
 10
-120.41217
 20
11.890935
 11
-119.66161
 21
13.190937
  0
LINE
  8
0
  6
CONTINUOUS
 62
     7
 10
-120.41217
 20
-0.10905457
 11
-120.41217
 21
11.890945
  0
LINE
  8
0
  6
CONTINUOUS
 62
     7
 10
-53.16272
 20
5.6259308
 11
-53.16272
 21
7.4157562
  0
LINE
  8
0
  6
CONTINUOUS
 62
     7
 10
-53.16272
 20
5.6259308
 11
-66.661621
 21
5.6259308
  0
LINE
  8
0
  6
CONTINUOUS
 62
     7
 10
-53.16272
 20
7.4157562
 11
-66.661621
 21
7.4157562
  0
LINE
  8
0
  6
CONTINUOUS
 62
     7
 10
-66.661621
 20
5.6259308
 11
-66.661621
 21
7.4157562
  0
LINE
  8
0
  6
CONTINUOUS
 62
     7
 10
-67.41217
 20
-0.10905457
 11
-67.41217
 21
11.890945
  0
LINE
  8
0
  6
CONTINUOUS
 62
     7
 10
-66.661613
 20
13.190921
 11
-67.41217
 21
11.890918
  0
LINE
  8
0
  6
CONTINUOUS
 62
     7
 10
-53.16272
 20
13.190948
 11
-66.661621
 21
13.190948
  0
LINE
  8
0
  6
CONTINUOUS
 62
     7
 10
-52.41217
 20
11.890925
 11
-53.16272
 21
13.190914
  0
LINE
  8
0
  6
CONTINUOUS
 62
     7
 10
-52.41217
 20
-0.10905457
 11
-52.41217
 21
11.890945
  0
LINE
  8
0
  6
CONTINUOUS
 62
     7
 10
-53.16272
 20
-5.8440399
 11
-53.16272
 21
-7.6338654
  0
LINE
  8
0
  6
CONTINUOUS
 62
     7
 10
-53.16272
 20
-5.8440399
 11
-66.661621
 21
-5.8440399
  0
LINE
  8
0
  6
CONTINUOUS
 62
     7
 10
-53.16272
 20
-7.6338654
 11
-66.661621
 21
-7.6338654
  0
LINE
  8
0
  6
CONTINUOUS
 62
     7
 10
-66.661621
 20
-5.8440399
 11
-66.661621
 21
-7.6338654
  0
LINE
  8
0
  6
CONTINUOUS
 62
     7
 10
-67.41217
 20
-0.10905457
 11
-67.41217
 21
-12.109055
  0
LINE
  8
0
  6
CONTINUOUS
 62
     7
 10
-66.661613
 20
-13.409058
 11
-67.412178
 21
-12.109041
  0
LINE
  8
0
  6
CONTINUOUS
 62
     7
 10
-53.16272
 20
-13.409073
 11
-66.661621
 21
-13.409073
  0
LINE
  8
0
  6
CONTINUOUS
 62
     7
 10
-52.41217
 20
-12.109043
 11
-53.162727
 21
-13.409046
  0
LINE
  8
0
  6
CONTINUOUS
 62
     7
 10
-52.41217
 20
-0.10905457
 11
-52.41217
 21
-12.109055
  0
LINE
  8
0
  6
CONTINUOUS
 62
     7
 10
-92.147156
 20
33.140381
 11
-93.936981
 21
33.140381
  0
LINE
  8
0
  6
CONTINUOUS
 62
     7
 10
-92.147156
 20
33.140381
 11
-92.147156
 21
19.64151
  0
LINE
  8
0
  6
CONTINUOUS
 62
     7
 10
-93.936981
 20
33.140381
 11
-93.936981
 21
19.64151
  0
LINE
  8
0
  6
CONTINUOUS
 62
     7
 10
-92.147156
 20
19.641495
 11
-93.936981
 21
19.641495
  0
LINE
  8
0
  6
CONTINUOUS
 62
     7
 10
-86.41217
 20
18.890945
 11
-98.41217
 21
18.890945
  0
LINE
  8
0
  6
CONTINUOUS
 62
     7
 10
-99.712158
 20
19.641502
 11
-98.41214
 21
18.890938
  0
LINE
  8
0
  6
CONTINUOUS
 62
     7
 10
-99.712189
 20
33.140381
 11
-99.712189
 21
19.641495
  0
LINE
  8
0
  6
CONTINUOUS
 62
     7
 10
-98.412148
 20
33.890965
 11
-99.712151
 21
33.140408
  0
LINE
  8
0
  6
CONTINUOUS
 62
     7
 10
-86.41217
 20
33.89093
 11
-98.41217
 21
33.89093
  0
LINE
  8
0
  6
CONTINUOUS
 62
     7
 10
-80.677185
 20
33.140381
 11
-78.88736
 21
33.140381
  0
LINE
  8
0
  6
CONTINUOUS
 62
     7
 10
-80.677185
 20
33.140381
 11
-80.677185
 21
19.64151
  0
LINE
  8
0
  6
CONTINUOUS
 62
     7
 10
-78.88736
 20
33.140381
 11
-78.88736
 21
19.64151
  0
LINE
  8
0
  6
CONTINUOUS
 62
     7
 10
-80.677185
 20
19.641495
 11
-78.88736
 21
19.641495
  0
LINE
  8
0
  6
CONTINUOUS
 62
     7
 10
-86.41217
 20
18.890945
 11
-74.41217
 21
18.890945
  0
LINE
  8
0
  6
CONTINUOUS
 62
     7
 10
-73.112167
 20
19.6415
 11
-74.41217
 21
18.890944
  0
LINE
  8
0
  6
CONTINUOUS
 62
     7
 10
-73.112152
 20
33.140411
 11
-73.112152
 21
19.64151
  0
LINE
  8
0
  6
CONTINUOUS
 62
     7
 10
-74.41217
 20
33.890945
 11
-73.112183
 21
33.140396
  0
LINE
  8
0
  6
CONTINUOUS
 62
     7
 10
-86.41217
 20
33.89093
 11
-74.41217
 21
33.89093
  0
LINE
  8
0
  6
CONTINUOUS
 62
     7
 10
-36.903038
 20
-17.899994
 11
-38.000008
 21
-15.999988
  0
LINE
  8
0
  6
CONTINUOUS
 62
     7
 10
-24.096954
 20
-17.899994
 11
-36.903046
 21
-17.899994
  0
LINE
  8
0
  6
CONTINUOUS
 62
     7
 10
-22.999987
 20
-15.999991
 11
-24.096949
 21
-17.899984
  0
LINE
  8
0
  6
CONTINUOUS
 62
     7
 10
-23
 20
0
 11
-23
 21
-16
  0
LINE
  8
0
  6
CONTINUOUS
 62
     7
 10
-24.096954
 20
-8.0255737
 11
-24.096954
 21
-9.8436127
  0
LINE
  8
0
  6
CONTINUOUS
 62
     7
 10
-24.096954
 20
-9.8436127
 11
-36.903046
 21
-9.8436127
  0
LINE
  8
0
  6
CONTINUOUS
 62
     7
 10
-24.096954
 20
-8.0255737
 11
-36.903046
 21
-8.0255737
  0
LINE
  8
0
  6
CONTINUOUS
 62
     7
 10
-38
 20
0
 11
-38
 21
-16
  0
LINE
  8
0
  6
CONTINUOUS
 62
     7
 10
-36.903046
 20
-8.0255737
 11
-36.903046
 21
-9.8436127
  0
LINE
  8
0
  6
CONTINUOUS
 62
     7
 10
-36.90303
 20
17.900003
 11
-38
 21
15.999996
  0
LINE
  8
0
  6
CONTINUOUS
 62
     7
 10
-24.096954
 20
17.899994
 11
-36.903046
 21
17.899994
  0
LINE
  8
0
  6
CONTINUOUS
 62
     7
 10
-22.999996
 20
16.000002
 11
-24.096951
 21
17.899982
  0
LINE
  8
0
  6
CONTINUOUS
 62
     7
 10
-23
 20
0
 11
-23
 21
16
  0
LINE
  8
0
  6
CONTINUOUS
 62
     7
 10
-24.096954
 20
8.0255737
 11
-24.096954
 21
9.8436127
  0
LINE
  8
0
  6
CONTINUOUS
 62
     7
 10
-24.096954
 20
9.8436127
 11
-36.903046
 21
9.8436127
  0
LINE
  8
0
  6
CONTINUOUS
 62
     7
 10
-24.096954
 20
8.0255737
 11
-36.903046
 21
8.0255737
  0
LINE
  8
0
  6
CONTINUOUS
 62
     7
 10
-38
 20
0
 11
-38
 21
16
  0
LINE
  8
0
  6
CONTINUOUS
 62
     7
 10
-36.903046
 20
8.0255737
 11
-36.903046
 21
9.8436127
  0
LINE
  8
0
  6
CONTINUOUS
 62
     7
 10
36.903023
 20
17.900005
 11
37.999992
 21
15.999998
  0
LINE
  8
0
  6
CONTINUOUS
 62
     7
 10
24.096954
 20
17.899994
 11
36.90303
 21
17.899994
  0
LINE
  8
0
  6
CONTINUOUS
 62
     7
 10
22.999992
 20
15.999991
 11
24.096954
 21
17.899986
  0
LINE
  8
0
  6
CONTINUOUS
 62
     7
 10
22.999985
 20
0
 11
22.999985
 21
16
  0
LINE
  8
0
  6
CONTINUOUS
 62
     7
 10
24.096954
 20
8.0255737
 11
24.096954
 21
9.8436127
  0
LINE
  8
0
  6
CONTINUOUS
 62
     7
 10
24.096954
 20
9.8436127
 11
36.90303
 21
9.8436127
  0
LINE
  8
0
  6
CONTINUOUS
 62
     7
 10
24.096954
 20
8.0255737
 11
36.90303
 21
8.0255737
  0
LINE
  8
0
  6
CONTINUOUS
 62
     7
 10
38
 20
0
 11
38
 21
16
  0
LINE
  8
0
  6
CONTINUOUS
 62
     7
 10
36.90303
 20
8.0255737
 11
36.90303
 21
9.8436127
  0
LINE
  8
0
  6
CONTINUOUS
 62
     7
 10
36.903034
 20
-17.900007
 11
38.000004
 21
-15.999999
  0
LINE
  8
0
  6
CONTINUOUS
 62
     7
 10
24.096954
 20
-17.899994
 11
36.90303
 21
-17.899994
  0
LINE
  8
0
  6
CONTINUOUS
 62
     7
 10
23.000002
 20
-16.000017
 11
24.096956
 21
-17.899998
  0
LINE
  8
0
  6
CONTINUOUS
 62
     7
 10
22.999985
 20
0
 11
22.999985
 21
-16
  0
LINE
  8
0
  6
CONTINUOUS
 62
     7
 10
24.096954
 20
-8.0255737
 11
24.096954
 21
-9.8436127
  0
LINE
  8
0
  6
CONTINUOUS
 62
     7
 10
24.096954
 20
-9.8436127
 11
36.90303
 21
-9.8436127
  0
LINE
  8
0
  6
CONTINUOUS
 62
     7
 10
24.096954
 20
-8.0255737
 11
36.90303
 21
-8.0255737
  0
LINE
  8
0
  6
CONTINUOUS
 62
     7
 10
38
 20
0
 11
38
 21
-16
  0
LINE
  8
0
  6
CONTINUOUS
 62
     7
 10
36.90303
 20
-8.0255737
 11
36.90303
 21
-9.8436127
  0
LINE
  8
0
  6
CONTINUOUS
 62
     7
 10
-17.899998
 20
36.903027
 11
-15.999991
 21
37.999996
  0
LINE
  8
0
  6
CONTINUOUS
 62
     7
 10
-17.899994
 20
24.096954
 11
-17.899994
 21
36.903015
  0
LINE
  8
0
  6
CONTINUOUS
 62
     7
 10
-15.99998
 20
22.999987
 11
-17.899986
 21
24.096956
  0
LINE
  8
0
  6
CONTINUOUS
 62
     7
 10
0
 20
23
 11
-16
 21
23
  0
LINE
  8
0
  6
CONTINUOUS
 62
     7
 10
-8.0255737
 20
24.096954
 11
-9.8435974
 21
24.096954
  0
LINE
  8
0
  6
CONTINUOUS
 62
     7
 10
-9.8435974
 20
24.096954
 11
-9.8435974
 21
36.903015
  0
LINE
  8
0
  6
CONTINUOUS
 62
     7
 10
-8.0255737
 20
24.096954
 11
-8.0255737
 21
36.903015
  0
LINE
  8
0
  6
CONTINUOUS
 62
     7
 10
0
 20
38
 11
-16
 21
38
  0
LINE
  8
0
  6
CONTINUOUS
 62
     7
 10
-8.0255737
 20
36.903046
 11
-9.8435974
 21
36.903046
  0
LINE
  8
0
  6
CONTINUOUS
 62
     7
 10
17.900019
 20
36.90303
 11
16.000011
 21
38
  0
LINE
  8
0
  6
CONTINUOUS
 62
     7
 10
17.899994
 20
24.096954
 11
17.899994
 21
36.903046
  0
LINE
  8
0
  6
CONTINUOUS
 62
     7
 10
16.000006
 20
22.99999
 11
17.9
 21
24.096952
  0
LINE
  8
0
  6
CONTINUOUS
 62
     7
 10
0
 20
23
 11
16
 21
23
  0
LINE
  8
0
  6
CONTINUOUS
 62
     7
 10
8.0255737
 20
24.096954
 11
9.8436279
 21
24.096954
  0
LINE
  8
0
  6
CONTINUOUS
 62
     7
 10
9.8436279
 20
24.096954
 11
9.8436279
 21
36.903046
  0
LINE
  8
0
  6
CONTINUOUS
 62
     7
 10
8.0255737
 20
24.096954
 11
8.0255737
 21
36.903046
  0
LINE
  8
0
  6
CONTINUOUS
 62
     7
 10
0
 20
38
 11
16
 21
38
  0
LINE
  8
0
  6
CONTINUOUS
 62
     7
 10
8.0255737
 20
36.903046
 11
9.8435974
 21
36.903046
  0
LINE
  8
0
  6
CONTINUOUS
 62
     7
 10
49.5
 20
-0.3500061
 11
49.5
 21
-20.850006
  0
LINE
  8
0
  6
CONTINUOUS
 62
     7
 10
51.001099
 20
-10.99707
 11
51.001099
 21
-12.779984
  0
LINE
  8
0
  6
CONTINUOUS
 62
     7
 10
63.998886
 20
-10.99707
 11
51.001099
 21
-10.99707
  0
LINE
  8
0
  6
CONTINUOUS
 62
     7
 10
63.998886
 20
-12.779984
 11
51.001099
 21
-12.779984
  0
LINE
  8
0
  6
CONTINUOUS
 62
     7
 10
63.998886
 20
-10.99707
 11
63.998886
 21
-12.779984
  0
LINE
  8
0
  6
CONTINUOUS
 62
     7
 10
65.5
 20
-0.3500061
 11
65.5
 21
-20.850006
  0
LINE
  8
0
  6
CONTINUOUS
 62
     7
 10
65.500015
 20
-20.850019
 11
63.998905
 21
-23.450024
  0
LINE
  8
0
  6
CONTINUOUS
 62
     7
 10
63.998886
 20
-23.449997
 11
51.001099
 21
-23.449997
  0
LINE
  8
0
  6
CONTINUOUS
 62
     7
 10
51.001102
 20
-23.449997
 11
49.499989
 21
-20.849991
  0
LINE
  8
0
  6
CONTINUOUS
 62
     7
 10
49.5
 20
-0.3500061
 11
49.5
 21
20.149994
  0
LINE
  8
0
  6
CONTINUOUS
 62
     7
 10
51.001099
 20
10.297058
 11
51.001099
 21
12.079971
  0
LINE
  8
0
  6
CONTINUOUS
 62
     7
 10
63.998886
 20
10.297058
 11
51.001099
 21
10.297058
  0
LINE
  8
0
  6
CONTINUOUS
 62
     7
 10
63.998886
 20
12.079971
 11
51.001099
 21
12.079971
  0
LINE
  8
0
  6
CONTINUOUS
 62
     7
 10
63.998886
 20
10.297058
 11
63.998886
 21
12.079971
  0
LINE
  8
0
  6
CONTINUOUS
 62
     7
 10
65.5
 20
-0.3500061
 11
65.5
 21
20.149994
  0
LINE
  8
0
  6
CONTINUOUS
 62
     7
 10
65.500015
 20
20.149998
 11
63.998901
 21
22.750004
  0
LINE
  8
0
  6
CONTINUOUS
 62
     7
 10
63.998886
 20
22.75
 11
51.001099
 21
22.75
  0
LINE
  8
0
  6
CONTINUOUS
 62
     7
 10
51.001095
 20
22.74999
 11
49.499981
 21
20.149986
  0
LINE
  8
0
  6
CONTINUOUS
 62
     7
 10
139.5
 20
-0.3500061
 11
139.5
 21
20.149994
  0
LINE
  8
0
  6
CONTINUOUS
 62
     7
 10
137.9989
 20
10.297058
 11
137.9989
 21
12.079971
  0
LINE
  8
0
  6
CONTINUOUS
 62
     7
 10
125.00111
 20
10.297058
 11
137.9989
 21
10.297058
  0
LINE
  8
0
  6
CONTINUOUS
 62
     7
 10
125.00111
 20
12.079971
 11
137.9989
 21
12.079971
  0
LINE
  8
0
  6
CONTINUOUS
 62
     7
 10
125.00111
 20
10.297058
 11
125.00111
 21
12.079971
  0
LINE
  8
0
  6
CONTINUOUS
 62
     7
 10
123.5
 20
-0.3500061
 11
123.5
 21
20.149994
  0
LINE
  8
0
  6
CONTINUOUS
 62
     7
 10
123.49998
 20
20.150005
 11
125.0011
 21
22.750011
  0
LINE
  8
0
  6
CONTINUOUS
 62
     7
 10
125.00111
 20
22.749969
 11
137.9989
 21
22.749969
  0
LINE
  8
0
  6
CONTINUOUS
 62
     7
 10
137.99889
 20
22.749998
 11
139.5
 21
20.149992
  0
LINE
  8
0
  6
CONTINUOUS
 62
     7
 10
139.5
 20
-0.3500061
 11
139.5
 21
-20.850006
  0
LINE
  8
0
  6
CONTINUOUS
 62
     7
 10
137.9989
 20
-10.99707
 11
137.9989
 21
-12.779984
  0
LINE
  8
0
  6
CONTINUOUS
 62
     7
 10
125.00111
 20
-10.99707
 11
137.9989
 21
-10.99707
  0
LINE
  8
0
  6
CONTINUOUS
 62
     7
 10
125.00111
 20
-12.779984
 11
137.9989
 21
-12.779984
  0
LINE
  8
0
  6
CONTINUOUS
 62
     7
 10
125.00111
 20
-10.99707
 11
125.00111
 21
-12.779984
  0
LINE
  8
0
  6
CONTINUOUS
 62
     7
 10
123.5
 20
-0.3500061
 11
123.5
 21
-20.850006
  0
LINE
  8
0
  6
CONTINUOUS
 62
     7
 10
123.49998
 20
-20.849997
 11
125.0011
 21
-23.450016
  0
LINE
  8
0
  6
CONTINUOUS
 62
     7
 10
125.00111
 20
-23.449997
 11
137.9989
 21
-23.449997
  0
LINE
  8
0
  6
CONTINUOUS
 62
     7
 10
137.9989
 20
-23.450003
 11
139.50002
 21
-20.849997
  0
ARC
  8
0
  6
CONTINUOUS
 62
     7
 10
-93.113129
 20
-11.609055
 40
1.5
 50
90.000003
 51
150
  0
ARC
  8
0
  6
CONTINUOUS
 62
     7
 10
-99.16217
 20
12.640945
 40
2
 50
270
 51
0
  0
ARC
  8
0
  6
CONTINUOUS
 62
     7
 10
-92.41217
 20
5.8909454
 40
2
 50
90.000003
 51
180.00001
  0
ARC
  8
0
  6
CONTINUOUS
 62
     7
 10
-80.41217
 20
5.8909454
 40
2
 50
359.99999
 51
89.999996
  0
ARC
  8
0
  6
CONTINUOUS
 62
     7
 10
-79.711212
 20
-11.609055
 40
1.5
 50
30.000004
 51
89.999996
  0
ARC
  8
0
  6
CONTINUOUS
 62
     7
 10
-73.66217
 20
12.640945
 40
2
 50
179.99999
 51
270
  0
ARC
  8
0
  6
CONTINUOUS
 62
     7
 10
-9.4801331
 20
-15.550003
 40
2
 50
90.000003
 51
139.45852
  0
ARC
  8
0
  6
CONTINUOUS
 62
     7
 10
-16.25
 20
16.25
 40
2
 50
270
 51
0
  0
ARC
  8
0
  6
CONTINUOUS
 62
     7
 10
-8
 20
8
 40
3
 50
90.000003
 51
180.00001
  0
ARC
  8
0
  6
CONTINUOUS
 62
     7
 10
8
 20
8
 40
3
 50
359.99999
 51
89.999996
  0
ARC
  8
0
  6
CONTINUOUS
 62
     7
 10
9.4801331
 20
-15.550003
 40
2
 50
40.541486
 51
89.999996
  0
ARC
  8
0
  6
CONTINUOUS
 62
     7
 10
16.25
 20
16.25
 40
2
 50
180.00001
 51
270
  0
ARC
  8
0
  6
CONTINUOUS
 62
     7
 10
82.5
 20
11.649994
 40
3
 50
90.000003
 51
180.00001
  0
ARC
  8
0
  6
CONTINUOUS
 62
     7
 10
70.23204
 20
-19.350006
 40
2
 50
90.000003
 51
150
  0
ARC
  8
0
  6
CONTINUOUS
 62
     7
 10
75.5
 20
18.649994
 40
2
 50
270
 51
0
  0
ARC
  8
0
  6
CONTINUOUS
 62
     7
 10
75.5
 20
23.917969
 40
2
 50
0
 51
60.000002
  0
ARC
  8
0
  6
CONTINUOUS
 62
     7
 10
80.822876
 20
-18.850006
 40
2
 50
90.000003
 51
131.40962
  0
ARC
  8
0
  6
CONTINUOUS
 62
     7
 10
70.232056
 20
18.649994
 40
2
 50
210
 51
270
  0
ARC
  8
0
  6
CONTINUOUS
 62
     7
 10
118.76794
 20
18.649994
 40
2
 50
270
 51
330
  0
ARC
  8
0
  6
CONTINUOUS
 62
     7
 10
106.5
 20
11.649994
 40
3
 50
359.99999
 51
89.999996
  0
ARC
  8
0
  6
CONTINUOUS
 62
     7
 10
118.76796
 20
-19.350006
 40
2
 50
30.000004
 51
89.999996
  0
ARC
  8
0
  6
CONTINUOUS
 62
     7
 10
113.5
 20
18.649994
 40
2
 50
179.99999
 51
270
  0
ARC
  8
0
  6
CONTINUOUS
 62
     7
 10
113.5
 20
23.917969
 40
2
 50
120
 51
180.00001
  0
ARC
  8
0
  6
CONTINUOUS
 62
     7
 10
108.17712
 20
-18.850006
 40
2
 50
48.590386
 51
89.999996
  0
POLYLINE
  8
0
  6
CONTINUOUS
 62
     7
 66
     1
 10
0
 20
0
  0
VERTEX
  8
0
  6
CONTINUOUS
 62
     7
 10
94.5
 20
44.361328
 42
0.019162134
  0
VERTEX
  8
0
  6
CONTINUOUS
 62
     7
 10
90.92412
 20
44.223457
 42
0.018603473
  0
VERTEX
  8
0
  6
CONTINUOUS
 62
     7
 10
87.368769
 20
43.81631
 42
0.018212355
  0
VERTEX
  8
0
  6
CONTINUOUS
 62
     7
 10
83.852936
 20
43.148895
 42
0
  0
SEQEND
  8
0
  0
POLYLINE
  8
0
  6
CONTINUOUS
 62
     7
 66
     1
 10
0
 20
0
  0
VERTEX
  8
0
  6
CONTINUOUS
 62
     7
 10
82.070023
 20
43.148895
 42
0.067339303
  0
VERTEX
  8
0
  6
CONTINUOUS
 62
     7
 10
78.564776
 20
44.21499
 42
0.080046109
  0
VERTEX
  8
0
  6
CONTINUOUS
 62
     7
 10
74.905367
 20
44.214692
 42
0.067285211
  0
VERTEX
  8
0
  6
CONTINUOUS
 62
     7
 10
71.400009
 20
43.148895
 42
0
  0
SEQEND
  8
0
  0
POLYLINE
  8
0
  6
CONTINUOUS
 62
     7
 66
     1
 10
0
 20
0
  0
VERTEX
  8
0
  6
CONTINUOUS
 62
     7
 10
82.070023
 20
30.151093
 42
-0.06733981
  0
VERTEX
  8
0
  6
CONTINUOUS
 62
     7
 10
78.564779
 20
29.084973
 42
-0.080048861
  0
VERTEX
  8
0
  6
CONTINUOUS
 62
     7
 10
74.905365
 20
29.08527
 42
-0.067285709
  0
VERTEX
  8
0
  6
CONTINUOUS
 62
     7
 10
71.400009
 20
30.151093
 42
0
  0
SEQEND
  8
0
  0
POLYLINE
  8
0
  6
CONTINUOUS
 62
     7
 66
     1
 10
0
 20
0
  0
VERTEX
  8
0
  6
CONTINUOUS
 62
     7
 10
94.5
 20
28.93866
 42
-0.019161791
  0
VERTEX
  8
0
  6
CONTINUOUS
 62
     7
 10
90.92412
 20
29.076528
 42
-0.018603818
  0
VERTEX
  8
0
  6
CONTINUOUS
 62
     7
 10
87.368768
 20
29.483672
 42
-0.018213376
  0
VERTEX
  8
0
  6
CONTINUOUS
 62
     7
 10
83.852936
 20
30.151093
 42
0
  0
SEQEND
  8
0
  0
POLYLINE
  8
0
  6
CONTINUOUS
 62
     7
 66
     1
 10
0
 20
0
  0
VERTEX
  8
0
  6
CONTINUOUS
 62
     7
 10
94.5
 20
44.361328
 42
-0.019162134
  0
VERTEX
  8
0
  6
CONTINUOUS
 62
     7
 10
98.07588
 20
44.223457
 42
-0.018603473
  0
VERTEX
  8
0
  6
CONTINUOUS
 62
     7
 10
101.63123
 20
43.81631
 42
-0.018212355
  0
VERTEX
  8
0
  6
CONTINUOUS
 62
     7
 10
105.14706
 20
43.148895
 42
0
  0
SEQEND
  8
0
  0
POLYLINE
  8
0
  6
CONTINUOUS
 62
     7
 66
     1
 10
0
 20
0
  0
VERTEX
  8
0
  6
CONTINUOUS
 62
     7
 10
106.92998
 20
43.148895
 42
-0.067337396
  0
VERTEX
  8
0
  6
CONTINUOUS
 62
     7
 10
110.43522
 20
44.215012
 42
-0.080050489
  0
VERTEX
  8
0
  6
CONTINUOUS
 62
     7
 10
114.09463
 20
44.214715
 42
-0.067283306
  0
VERTEX
  8
0
  6
CONTINUOUS
 62
     7
 10
117.59999
 20
43.148895
 42
0
  0
SEQEND
  8
0
  0
POLYLINE
  8
0
  6
CONTINUOUS
 62
     7
 66
     1
 10
0
 20
0
  0
VERTEX
  8
0
  6
CONTINUOUS
 62
     7
 10
106.92998
 20
30.151123
 42
0.067337903
  0
VERTEX
  8
0
  6
CONTINUOUS
 62
     7
 10
110.43522
 20
29.084981
 42
0.080053242
  0
VERTEX
  8
0
  6
CONTINUOUS
 62
     7
 10
114.09464
 20
29.085278
 42
0.067283804
  0
VERTEX
  8
0
  6
CONTINUOUS
 62
     7
 10
117.59999
 20
30.151123
 42
0
  0
SEQEND
  8
0
  0
POLYLINE
  8
0
  6
CONTINUOUS
 62
     7
 66
     1
 10
0
 20
0
  0
VERTEX
  8
0
  6
CONTINUOUS
 62
     7
 10
94.5
 20
28.93866
 42
0.019162739
  0
VERTEX
  8
0
  6
CONTINUOUS
 62
     7
 10
98.075881
 20
29.076536
 42
0.018603809
  0
VERTEX
  8
0
  6
CONTINUOUS
 62
     7
 10
101.63123
 20
29.483694
 42
0.018212435
  0
VERTEX
  8
0
  6
CONTINUOUS
 62
     7
 10
105.14706
 20
30.151123
 42
0
  0
SEQEND
  8
0
  0
POLYLINE
  8
0
  6
CONTINUOUS
 62
     7
 66
     1
 10
0
 20
0
  0
VERTEX
  8
0
  6
CONTINUOUS
 62
     7
 10
-119.66162
 20
-7.6338654
 42
0.050243496
  0
VERTEX
  8
0
  6
CONTINUOUS
 62
     7
 10
-120.06997
 20
-9.5445591
 42
0.054947182
  0
VERTEX
  8
0
  6
CONTINUOUS
 62
     7
 10
-120.06969
 20
-11.498967
 42
0.050155644
  0
VERTEX
  8
0
  6
CONTINUOUS
 62
     7
 10
-119.66162
 20
-13.409058
 42
0
  0
SEQEND
  8
0
  0
POLYLINE
  8
0
  6
CONTINUOUS
 62
     7
 66
     1
 10
0
 20
0
  0
VERTEX
  8
0
  6
CONTINUOUS
 62
     7
 10
-119.66162
 20
-5.8440399
 42
-0.013138069
  0
VERTEX
  8
0
  6
CONTINUOUS
 62
     7
 10
-119.9169
 20
-3.9426478
 42
-0.013285875
  0
VERTEX
  8
0
  6
CONTINUOUS
 62
     7
 10
-120.07149
 20
-2.0295769
 42
-0.013500074
  0
VERTEX
  8
0
  6
CONTINUOUS
 62
     7
 10
-120.1235
 20
-0.10905457
 42
0
  0
SEQEND
  8
0
  0
POLYLINE
  8
0
  6
CONTINUOUS
 62
     7
 66
     1
 10
0
 20
0
  0
VERTEX
  8
0
  6
CONTINUOUS
 62
     7
 10
-106.16272
 20
-5.8440399
 42
0.013138069
  0
VERTEX
  8
0
  6
CONTINUOUS
 62
     7
 10
-105.90744
 20
-3.9426478
 42
0.013285875
  0
VERTEX
  8
0
  6
CONTINUOUS
 62
     7
 10
-105.75285
 20
-2.0295769
 42
0.013500074
  0
VERTEX
  8
0
  6
CONTINUOUS
 62
     7
 10
-105.70084
 20
-0.10905457
 42
0
  0
SEQEND
  8
0
  0
POLYLINE
  8
0
  6
CONTINUOUS
 62
     7
 66
     1
 10
0
 20
0
  0
VERTEX
  8
0
  6
CONTINUOUS
 62
     7
 10
-106.16272
 20
-7.6338654
 42
-0.050243496
  0
VERTEX
  8
0
  6
CONTINUOUS
 62
     7
 10
-105.75437
 20
-9.5445591
 42
-0.054947182
  0
VERTEX
  8
0
  6
CONTINUOUS
 62
     7
 10
-105.75465
 20
-11.498967
 42
-0.050155644
  0
VERTEX
  8
0
  6
CONTINUOUS
 62
     7
 10
-106.16272
 20
-13.409058
 42
0
  0
SEQEND
  8
0
  0
POLYLINE
  8
0
  6
CONTINUOUS
 62
     7
 66
     1
 10
0
 20
0
  0
VERTEX
  8
0
  6
CONTINUOUS
 62
     7
 10
-119.66162
 20
7.4157562
 42
-0.050243631
  0
VERTEX
  8
0
  6
CONTINUOUS
 62
     7
 10
-120.06997
 20
9.3264549
 42
-0.054947064
  0
VERTEX
  8
0
  6
CONTINUOUS
 62
     7
 10
-120.06969
 20
11.280867
 42
-0.050155593
  0
VERTEX
  8
0
  6
CONTINUOUS
 62
     7
 10
-119.66162
 20
13.190964
 42
0
  0
SEQEND
  8
0
  0
POLYLINE
  8
0
  6
CONTINUOUS
 62
     7
 66
     1
 10
0
 20
0
  0
VERTEX
  8
0
  6
CONTINUOUS
 62
     7
 10
-119.66162
 20
5.6259308
 42
0.013138069
  0
VERTEX
  8
0
  6
CONTINUOUS
 62
     7
 10
-119.9169
 20
3.7245387
 42
0.013285875
  0
VERTEX
  8
0
  6
CONTINUOUS
 62
     7
 10
-120.07149
 20
1.8114677
 42
0.013500074
  0
VERTEX
  8
0
  6
CONTINUOUS
 62
     7
 10
-120.1235
 20
-0.10905457
 42
0
  0
SEQEND
  8
0
  0
POLYLINE
  8
0
  6
CONTINUOUS
 62
     7
 66
     1
 10
0
 20
0
  0
VERTEX
  8
0
  6
CONTINUOUS
 62
     7
 10
-106.16272
 20
5.6259308
 42
-0.013138069
  0
VERTEX
  8
0
  6
CONTINUOUS
 62
     7
 10
-105.90744
 20
3.7245387
 42
-0.013285875
  0
VERTEX
  8
0
  6
CONTINUOUS
 62
     7
 10
-105.75285
 20
1.8114677
 42
-0.013500074
  0
VERTEX
  8
0
  6
CONTINUOUS
 62
     7
 10
-105.70084
 20
-0.10905457
 42
0
  0
SEQEND
  8
0
  0
POLYLINE
  8
0
  6
CONTINUOUS
 62
     7
 66
     1
 10
0
 20
0
  0
VERTEX
  8
0
  6
CONTINUOUS
 62
     7
 10
-106.16272
 20
7.4157562
 42
0.050243631
  0
VERTEX
  8
0
  6
CONTINUOUS
 62
     7
 10
-105.75437
 20
9.3264549
 42
0.054947064
  0
VERTEX
  8
0
  6
CONTINUOUS
 62
     7
 10
-105.75465
 20
11.280867
 42
0.050155593
  0
VERTEX
  8
0
  6
CONTINUOUS
 62
     7
 10
-106.16272
 20
13.190964
 42
0
  0
SEQEND
  8
0
  0
POLYLINE
  8
0
  6
CONTINUOUS
 62
     7
 66
     1
 10
0
 20
0
  0
VERTEX
  8
0
  6
CONTINUOUS
 62
     7
 10
-53.16272
 20
7.4157562
 42
0.050243496
  0
VERTEX
  8
0
  6
CONTINUOUS
 62
     7
 10
-52.754374
 20
9.32645
 42
0.054947182
  0
VERTEX
  8
0
  6
CONTINUOUS
 62
     7
 10
-52.754648
 20
11.280858
 42
0.050155644
  0
VERTEX
  8
0
  6
CONTINUOUS
 62
     7
 10
-53.16272
 20
13.190948
 42
0
  0
SEQEND
  8
0
  0
POLYLINE
  8
0
  6
CONTINUOUS
 62
     7
 66
     1
 10
0
 20
0
  0
VERTEX
  8
0
  6
CONTINUOUS
 62
     7
 10
-53.16272
 20
5.6259308
 42
-0.013138069
  0
VERTEX
  8
0
  6
CONTINUOUS
 62
     7
 10
-52.90744
 20
3.7245387
 42
-0.013285875
  0
VERTEX
  8
0
  6
CONTINUOUS
 62
     7
 10
-52.752851
 20
1.8114677
 42
-0.013500074
  0
VERTEX
  8
0
  6
CONTINUOUS
 62
     7
 10
-52.700836
 20
-0.10905457
 42
0
  0
SEQEND
  8
0
  0
POLYLINE
  8
0
  6
CONTINUOUS
 62
     7
 66
     1
 10
0
 20
0
  0
VERTEX
  8
0
  6
CONTINUOUS
 62
     7
 10
-66.661621
 20
5.6259308
 42
0.013138069
  0
VERTEX
  8
0
  6
CONTINUOUS
 62
     7
 10
-66.916901
 20
3.7245387
 42
0.013285875
  0
VERTEX
  8
0
  6
CONTINUOUS
 62
     7
 10
-67.07149
 20
1.8114677
 42
0.013500074
  0
VERTEX
  8
0
  6
CONTINUOUS
 62
     7
 10
-67.123505
 20
-0.10905457
 42
0
  0
SEQEND
  8
0
  0
POLYLINE
  8
0
  6
CONTINUOUS
 62
     7
 66
     1
 10
0
 20
0
  0
VERTEX
  8
0
  6
CONTINUOUS
 62
     7
 10
-66.661621
 20
7.4157562
 42
-0.050243496
  0
VERTEX
  8
0
  6
CONTINUOUS
 62
     7
 10
-67.069967
 20
9.32645
 42
-0.054947182
  0
VERTEX
  8
0
  6
CONTINUOUS
 62
     7
 10
-67.069692
 20
11.280858
 42
-0.050155644
  0
VERTEX
  8
0
  6
CONTINUOUS
 62
     7
 10
-66.661621
 20
13.190948
 42
0
  0
SEQEND
  8
0
  0
POLYLINE
  8
0
  6
CONTINUOUS
 62
     7
 66
     1
 10
0
 20
0
  0
VERTEX
  8
0
  6
CONTINUOUS
 62
     7
 10
-53.16272
 20
-7.6338654
 42
-0.050243631
  0
VERTEX
  8
0
  6
CONTINUOUS
 62
     7
 10
-52.754374
 20
-9.5445641
 42
-0.054947064
  0
VERTEX
  8
0
  6
CONTINUOUS
 62
     7
 10
-52.754649
 20
-11.498976
 42
-0.050155593
  0
VERTEX
  8
0
  6
CONTINUOUS
 62
     7
 10
-53.16272
 20
-13.409073
 42
0
  0
SEQEND
  8
0
  0
POLYLINE
  8
0
  6
CONTINUOUS
 62
     7
 66
     1
 10
0
 20
0
  0
VERTEX
  8
0
  6
CONTINUOUS
 62
     7
 10
-53.16272
 20
-5.8440399
 42
0.013138069
  0
VERTEX
  8
0
  6
CONTINUOUS
 62
     7
 10
-52.90744
 20
-3.9426478
 42
0.013285875
  0
VERTEX
  8
0
  6
CONTINUOUS
 62
     7
 10
-52.752851
 20
-2.0295769
 42
0.013500074
  0
VERTEX
  8
0
  6
CONTINUOUS
 62
     7
 10
-52.700836
 20
-0.10905457
 42
0
  0
SEQEND
  8
0
  0
POLYLINE
  8
0
  6
CONTINUOUS
 62
     7
 66
     1
 10
0
 20
0
  0
VERTEX
  8
0
  6
CONTINUOUS
 62
     7
 10
-66.661621
 20
-5.8440399
 42
-0.013138069
  0
VERTEX
  8
0
  6
CONTINUOUS
 62
     7
 10
-66.916901
 20
-3.9426478
 42
-0.013285875
  0
VERTEX
  8
0
  6
CONTINUOUS
 62
     7
 10
-67.07149
 20
-2.0295769
 42
-0.013500074
  0
VERTEX
  8
0
  6
CONTINUOUS
 62
     7
 10
-67.123505
 20
-0.10905457
 42
0
  0
SEQEND
  8
0
  0
POLYLINE
  8
0
  6
CONTINUOUS
 62
     7
 66
     1
 10
0
 20
0
  0
VERTEX
  8
0
  6
CONTINUOUS
 62
     7
 10
-66.661621
 20
-7.6338654
 42
0.050247136
  0
VERTEX
  8
0
  6
CONTINUOUS
 62
     7
 10
-67.069944
 20
-9.5445643
 42
0.054938951
  0
VERTEX
  8
0
  6
CONTINUOUS
 62
     7
 10
-67.06967
 20
-11.498975
 42
0.050159115
  0
VERTEX
  8
0
  6
CONTINUOUS
 62
     7
 10
-66.661621
 20
-13.409073
 42
0
  0
SEQEND
  8
0
  0
POLYLINE
  8
0
  6
CONTINUOUS
 62
     7
 66
     1
 10
0
 20
0
  0
VERTEX
  8
0
  6
CONTINUOUS
 62
     7
 10
-93.936981
 20
33.140381
 42
0.050243631
  0
VERTEX
  8
0
  6
CONTINUOUS
 62
     7
 10
-95.84768
 20
33.548727
 42
0.054947064
  0
VERTEX
  8
0
  6
CONTINUOUS
 62
     7
 10
-97.802092
 20
33.548452
 42
0.050155593
  0
VERTEX
  8
0
  6
CONTINUOUS
 62
     7
 10
-99.712189
 20
33.140381
 42
0
  0
SEQEND
  8
0
  0
POLYLINE
  8
0
  6
CONTINUOUS
 62
     7
 66
     1
 10
0
 20
0
  0
VERTEX
  8
0
  6
CONTINUOUS
 62
     7
 10
-92.147156
 20
33.140381
 42
-0.013138069
  0
VERTEX
  8
0
  6
CONTINUOUS
 62
     7
 10
-90.245764
 20
33.39566
 42
-0.013285875
  0
VERTEX
  8
0
  6
CONTINUOUS
 62
     7
 10
-88.332693
 20
33.55025
 42
-0.013500074
  0
VERTEX
  8
0
  6
CONTINUOUS
 62
     7
 10
-86.41217
 20
33.602264
 42
0
  0
SEQEND
  8
0
  0
POLYLINE
  8
0
  6
CONTINUOUS
 62
     7
 66
     1
 10
0
 20
0
  0
VERTEX
  8
0
  6
CONTINUOUS
 62
     7
 10
-92.147156
 20
19.641495
 42
0.013138948
  0
VERTEX
  8
0
  6
CONTINUOUS
 62
     7
 10
-90.245764
 20
19.386219
 42
0.013285878
  0
VERTEX
  8
0
  6
CONTINUOUS
 62
     7
 10
-88.332693
 20
19.231637
 42
0.013499193
  0
VERTEX
  8
0
  6
CONTINUOUS
 62
     7
 10
-86.41217
 20
19.179626
 42
0
  0
SEQEND
  8
0
  0
POLYLINE
  8
0
  6
CONTINUOUS
 62
     7
 66
     1
 10
0
 20
0
  0
VERTEX
  8
0
  6
CONTINUOUS
 62
     7
 10
-93.936981
 20
19.641495
 42
-0.050245114
  0
VERTEX
  8
0
  6
CONTINUOUS
 62
     7
 10
-95.84767
 20
19.233161
 42
-0.054943242
  0
VERTEX
  8
0
  6
CONTINUOUS
 62
     7
 10
-97.802073
 20
19.233434
 42
-0.050157456
  0
VERTEX
  8
0
  6
CONTINUOUS
 62
     7
 10
-99.712158
 20
19.641495
 42
0
  0
SEQEND
  8
0
  0
POLYLINE
  8
0
  6
CONTINUOUS
 62
     7
 66
     1
 10
0
 20
0
  0
VERTEX
  8
0
  6
CONTINUOUS
 62
     7
 10
-78.88736
 20
33.140381
 42
-0.050243588
  0
VERTEX
  8
0
  6
CONTINUOUS
 62
     7
 10
-76.976662
 20
33.548727
 42
-0.05494293
  0
VERTEX
  8
0
  6
CONTINUOUS
 62
     7
 10
-75.022251
 20
33.54846
 42
-0.050159135
  0
VERTEX
  8
0
  6
CONTINUOUS
 62
     7
 10
-73.112152
 20
33.140411
 42
0
  0
SEQEND
  8
0
  0
POLYLINE
  8
0
  6
CONTINUOUS
 62
     7
 66
     1
 10
0
 20
0
  0
VERTEX
  8
0
  6
CONTINUOUS
 62
     7
 10
-80.677185
 20
33.140381
 42
0.013138069
  0
VERTEX
  8
0
  6
CONTINUOUS
 62
     7
 10
-82.578577
 20
33.39566
 42
0.013285875
  0
VERTEX
  8
0
  6
CONTINUOUS
 62
     7
 10
-84.491648
 20
33.55025
 42
0.013500074
  0
VERTEX
  8
0
  6
CONTINUOUS
 62
     7
 10
-86.41217
 20
33.602264
 42
0
  0
SEQEND
  8
0
  0
POLYLINE
  8
0
  6
CONTINUOUS
 62
     7
 66
     1
 10
0
 20
0
  0
VERTEX
  8
0
  6
CONTINUOUS
 62
     7
 10
-80.677185
 20
19.64151
 42
-0.013138069
  0
VERTEX
  8
0
  6
CONTINUOUS
 62
     7
 10
-82.578577
 20
19.38623
 42
-0.013285875
  0
VERTEX
  8
0
  6
CONTINUOUS
 62
     7
 10
-84.491648
 20
19.231641
 42
-0.013500074
  0
VERTEX
  8
0
  6
CONTINUOUS
 62
     7
 10
-86.41217
 20
19.179626
 42
0
  0
SEQEND
  8
0
  0
POLYLINE
  8
0
  6
CONTINUOUS
 62
     7
 66
     1
 10
0
 20
0
  0
VERTEX
  8
0
  6
CONTINUOUS
 62
     7
 10
-78.88736
 20
19.64151
 42
0.050243631
  0
VERTEX
  8
0
  6
CONTINUOUS
 62
     7
 10
-76.976661
 20
19.233164
 42
0.054947064
  0
VERTEX
  8
0
  6
CONTINUOUS
 62
     7
 10
-75.022249
 20
19.233439
 42
0.050155593
  0
VERTEX
  8
0
  6
CONTINUOUS
 62
     7
 10
-73.112152
 20
19.64151
 42
0
  0
SEQEND
  8
0
  0
POLYLINE
  8
0
  6
CONTINUOUS
 62
     7
 66
     1
 10
0
 20
0
  0
VERTEX
  8
0
  6
CONTINUOUS
 62
     7
 10
-23.288666
 20
0
 42
-0.016924364
  0
VERTEX
  8
0
  6
CONTINUOUS
 62
     7
 10
-23.380251
 20
-2.6928772
 42
-0.01653495
  0
VERTEX
  8
0
  6
CONTINUOUS
 62
     7
 10
-23.651606
 20
-5.3735612
 42
-0.016230051
  0
VERTEX
  8
0
  6
CONTINUOUS
 62
     7
 10
-24.096954
 20
-8.0255737
 42
0
  0
SEQEND
  8
0
  0
POLYLINE
  8
0
  6
CONTINUOUS
 62
     7
 66
     1
 10
0
 20
0
  0
VERTEX
  8
0
  6
CONTINUOUS
 62
     7
 10
-36.903046
 20
-17.899994
 42
-0.060911984
  0
VERTEX
  8
0
  6
CONTINUOUS
 62
     7
 10
-37.6152
 20
-15.244869
 42
-0.069925443
  0
VERTEX
  8
0
  6
CONTINUOUS
 62
     7
 10
-37.615425
 20
-12.498189
 42
-0.060971265
  0
VERTEX
  8
0
  6
CONTINUOUS
 62
     7
 10
-36.903046
 20
-9.8436127
 42
0
  0
SEQEND
  8
0
  0
POLYLINE
  8
0
  6
CONTINUOUS
 62
     7
 66
     1
 10
0
 20
0
  0
VERTEX
  8
0
  6
CONTINUOUS
 62
     7
 10
-24.096954
 20
-9.8436127
 42
-0.060980192
  0
VERTEX
  8
0
  6
CONTINUOUS
 62
     7
 10
-23.384518
 20
-12.498607
 42
-0.069926221
  0
VERTEX
  8
0
  6
CONTINUOUS
 62
     7
 10
-23.384859
 20
-15.24529
 42
-0.060900827
  0
VERTEX
  8
0
  6
CONTINUOUS
 62
     7
 10
-24.096954
 20
-17.899994
 42
0
  0
SEQEND
  8
0
  0
POLYLINE
  8
0
  6
CONTINUOUS
 62
     7
 66
     1
 10
0
 20
0
  0
VERTEX
  8
0
  6
CONTINUOUS
 62
     7
 10
-36.903046
 20
-8.0255737
 42
-0.016246285
  0
VERTEX
  8
0
  6
CONTINUOUS
 62
     7
 10
-37.348741
 20
-5.3709993
 42
-0.016520534
  0
VERTEX
  8
0
  6
CONTINUOUS
 62
     7
 10
-37.619762
 20
-2.6926932
 42
-0.016923018
  0
VERTEX
  8
0
  6
CONTINUOUS
 62
     7
 10
-37.711334
 20
0
 42
0
  0
SEQEND
  8
0
  0
POLYLINE
  8
0
  6
CONTINUOUS
 62
     7
 66
     1
 10
0
 20
0
  0
VERTEX
  8
0
  6
CONTINUOUS
 62
     7
 10
-23.288666
 20
0
 42
0.016924364
  0
VERTEX
  8
0
  6
CONTINUOUS
 62
     7
 10
-23.380251
 20
2.6928772
 42
0.01653495
  0
VERTEX
  8
0
  6
CONTINUOUS
 62
     7
 10
-23.651606
 20
5.3735612
 42
0.016230051
  0
VERTEX
  8
0
  6
CONTINUOUS
 62
     7
 10
-24.096954
 20
8.0255737
 42
0
  0
SEQEND
  8
0
  0
POLYLINE
  8
0
  6
CONTINUOUS
 62
     7
 66
     1
 10
0
 20
0
  0
VERTEX
  8
0
  6
CONTINUOUS
 62
     7
 10
-36.903046
 20
17.899994
 42
0.060911984
  0
VERTEX
  8
0
  6
CONTINUOUS
 62
     7
 10
-37.6152
 20
15.244869
 42
0.069925443
  0
VERTEX
  8
0
  6
CONTINUOUS
 62
     7
 10
-37.615425
 20
12.498189
 42
0.060971265
  0
VERTEX
  8
0
  6
CONTINUOUS
 62
     7
 10
-36.903046
 20
9.8436127
 42
0
  0
SEQEND
  8
0
  0
POLYLINE
  8
0
  6
CONTINUOUS
 62
     7
 66
     1
 10
0
 20
0
  0
VERTEX
  8
0
  6
CONTINUOUS
 62
     7
 10
-24.096954
 20
9.8436127
 42
0.060980192
  0
VERTEX
  8
0
  6
CONTINUOUS
 62
     7
 10
-23.384518
 20
12.498607
 42
0.069926221
  0
VERTEX
  8
0
  6
CONTINUOUS
 62
     7
 10
-23.384859
 20
15.24529
 42
0.060900827
  0
VERTEX
  8
0
  6
CONTINUOUS
 62
     7
 10
-24.096954
 20
17.899994
 42
0
  0
SEQEND
  8
0
  0
POLYLINE
  8
0
  6
CONTINUOUS
 62
     7
 66
     1
 10
0
 20
0
  0
VERTEX
  8
0
  6
CONTINUOUS
 62
     7
 10
-36.903046
 20
8.0255737
 42
0.016246285
  0
VERTEX
  8
0
  6
CONTINUOUS
 62
     7
 10
-37.348741
 20
5.3709993
 42
0.016520534
  0
VERTEX
  8
0
  6
CONTINUOUS
 62
     7
 10
-37.619762
 20
2.6926932
 42
0.016923018
  0
VERTEX
  8
0
  6
CONTINUOUS
 62
     7
 10
-37.711334
 20
0
 42
0
  0
SEQEND
  8
0
  0
POLYLINE
  8
0
  6
CONTINUOUS
 62
     7
 66
     1
 10
0
 20
0
  0
VERTEX
  8
0
  6
CONTINUOUS
 62
     7
 10
23.288666
 20
0
 42
-0.016924364
  0
VERTEX
  8
0
  6
CONTINUOUS
 62
     7
 10
23.380251
 20
2.6928772
 42
-0.01653495
  0
VERTEX
  8
0
  6
CONTINUOUS
 62
     7
 10
23.651606
 20
5.3735612
 42
-0.016230051
  0
VERTEX
  8
0
  6
CONTINUOUS
 62
     7
 10
24.096954
 20
8.0255737
 42
0
  0
SEQEND
  8
0
  0
POLYLINE
  8
0
  6
CONTINUOUS
 62
     7
 66
     1
 10
0
 20
0
  0
VERTEX
  8
0
  6
CONTINUOUS
 62
     7
 10
36.90303
 20
17.899994
 42
-0.060911984
  0
VERTEX
  8
0
  6
CONTINUOUS
 62
     7
 10
37.615185
 20
15.244869
 42
-0.069925443
  0
VERTEX
  8
0
  6
CONTINUOUS
 62
     7
 10
37.61541
 20
12.498189
 42
-0.060971265
  0
VERTEX
  8
0
  6
CONTINUOUS
 62
     7
 10
36.90303
 20
9.8436127
 42
0
  0
SEQEND
  8
0
  0
POLYLINE
  8
0
  6
CONTINUOUS
 62
     7
 66
     1
 10
0
 20
0
  0
VERTEX
  8
0
  6
CONTINUOUS
 62
     7
 10
24.096954
 20
9.8436127
 42
-0.060980192
  0
VERTEX
  8
0
  6
CONTINUOUS
 62
     7
 10
23.384518
 20
12.498607
 42
-0.069926221
  0
VERTEX
  8
0
  6
CONTINUOUS
 62
     7
 10
23.384859
 20
15.24529
 42
-0.060900827
  0
VERTEX
  8
0
  6
CONTINUOUS
 62
     7
 10
24.096954
 20
17.899994
 42
0
  0
SEQEND
  8
0
  0
POLYLINE
  8
0
  6
CONTINUOUS
 62
     7
 66
     1
 10
0
 20
0
  0
VERTEX
  8
0
  6
CONTINUOUS
 62
     7
 10
36.90303
 20
8.0255737
 42
-0.01624566
  0
VERTEX
  8
0
  6
CONTINUOUS
 62
     7
 10
37.348729
 20
5.3709993
 42
-0.016520531
  0
VERTEX
  8
0
  6
CONTINUOUS
 62
     7
 10
37.619758
 20
2.692693
 42
-0.016923645
  0
VERTEX
  8
0
  6
CONTINUOUS
 62
     7
 10
37.711334
 20
0
 42
0
  0
SEQEND
  8
0
  0
POLYLINE
  8
0
  6
CONTINUOUS
 62
     7
 66
     1
 10
0
 20
0
  0
VERTEX
  8
0
  6
CONTINUOUS
 62
     7
 10
23.288666
 20
0
 42
0.016924364
  0
VERTEX
  8
0
  6
CONTINUOUS
 62
     7
 10
23.380251
 20
-2.6928772
 42
0.01653495
  0
VERTEX
  8
0
  6
CONTINUOUS
 62
     7
 10
23.651606
 20
-5.3735612
 42
0.016230051
  0
VERTEX
  8
0
  6
CONTINUOUS
 62
     7
 10
24.096954
 20
-8.0255737
 42
0
  0
SEQEND
  8
0
  0
POLYLINE
  8
0
  6
CONTINUOUS
 62
     7
 66
     1
 10
0
 20
0
  0
VERTEX
  8
0
  6
CONTINUOUS
 62
     7
 10
36.90303
 20
-17.899994
 42
0.060910734
  0
VERTEX
  8
0
  6
CONTINUOUS
 62
     7
 10
37.615196
 20
-15.244869
 42
0.069928351
  0
VERTEX
  8
0
  6
CONTINUOUS
 62
     7
 10
37.615421
 20
-12.498187
 42
0.060969987
  0
VERTEX
  8
0
  6
CONTINUOUS
 62
     7
 10
36.90303
 20
-9.8436127
 42
0
  0
SEQEND
  8
0
  0
POLYLINE
  8
0
  6
CONTINUOUS
 62
     7
 66
     1
 10
0
 20
0
  0
VERTEX
  8
0
  6
CONTINUOUS
 62
     7
 10
24.096954
 20
-9.8436127
 42
0.060980192
  0
VERTEX
  8
0
  6
CONTINUOUS
 62
     7
 10
23.384518
 20
-12.498607
 42
0.069926221
  0
VERTEX
  8
0
  6
CONTINUOUS
 62
     7
 10
23.384859
 20
-15.24529
 42
0.060900827
  0
VERTEX
  8
0
  6
CONTINUOUS
 62
     7
 10
24.096954
 20
-17.899994
 42
0
  0
SEQEND
  8
0
  0
POLYLINE
  8
0
  6
CONTINUOUS
 62
     7
 66
     1
 10
0
 20
0
  0
VERTEX
  8
0
  6
CONTINUOUS
 62
     7
 10
36.90303
 20
-8.0255737
 42
0.01624566
  0
VERTEX
  8
0
  6
CONTINUOUS
 62
     7
 10
37.348729
 20
-5.3709993
 42
0.016520531
  0
VERTEX
  8
0
  6
CONTINUOUS
 62
     7
 10
37.619758
 20
-2.692693
 42
0.016923645
  0
VERTEX
  8
0
  6
CONTINUOUS
 62
     7
 10
37.711334
 20
0
 42
0
  0
SEQEND
  8
0
  0
POLYLINE
  8
0
  6
CONTINUOUS
 62
     7
 66
     1
 10
0
 20
0
  0
VERTEX
  8
0
  6
CONTINUOUS
 62
     7
 10
0
 20
23.288666
 42
-0.016924364
  0
VERTEX
  8
0
  6
CONTINUOUS
 62
     7
 10
-2.6928772
 20
23.380251
 42
-0.01653495
  0
VERTEX
  8
0
  6
CONTINUOUS
 62
     7
 10
-5.3735612
 20
23.651606
 42
-0.016230051
  0
VERTEX
  8
0
  6
CONTINUOUS
 62
     7
 10
-8.0255737
 20
24.096954
 42
0
  0
SEQEND
  8
0
  0
POLYLINE
  8
0
  6
CONTINUOUS
 62
     7
 66
     1
 10
0
 20
0
  0
VERTEX
  8
0
  6
CONTINUOUS
 62
     7
 10
-17.899994
 20
36.903015
 42
-0.060909744
  0
VERTEX
  8
0
  6
CONTINUOUS
 62
     7
 10
-15.244866
 20
37.615194
 42
-0.069931191
  0
VERTEX
  8
0
  6
CONTINUOUS
 62
     7
 10
-12.498178
 20
37.615415
 42
-0.060968496
  0
VERTEX
  8
0
  6
CONTINUOUS
 62
     7
 10
-9.8435974
 20
36.903015
 42
0
  0
SEQEND
  8
0
  0
POLYLINE
  8
0
  6
CONTINUOUS
 62
     7
 66
     1
 10
0
 20
0
  0
VERTEX
  8
0
  6
CONTINUOUS
 62
     7
 10
-9.8435974
 20
24.096954
 42
-0.060980309
  0
VERTEX
  8
0
  6
CONTINUOUS
 62
     7
 10
-12.498597
 20
23.384518
 42
-0.069926141
  0
VERTEX
  8
0
  6
CONTINUOUS
 62
     7
 10
-15.245285
 20
23.38486
 42
-0.060900766
  0
VERTEX
  8
0
  6
CONTINUOUS
 62
     7
 10
-17.899994
 20
24.096954
 42
0
  0
SEQEND
  8
0
  0
POLYLINE
  8
0
  6
CONTINUOUS
 62
     7
 66
     1
 10
0
 20
0
  0
VERTEX
  8
0
  6
CONTINUOUS
 62
     7
 10
-8.0255737
 20
36.903015
 42
-0.016245036
  0
VERTEX
  8
0
  6
CONTINUOUS
 62
     7
 10
-5.3709992
 20
37.348718
 42
-0.016520527
  0
VERTEX
  8
0
  6
CONTINUOUS
 62
     7
 10
-2.6926928
 20
37.619754
 42
-0.016924272
  0
VERTEX
  8
0
  6
CONTINUOUS
 62
     7
 10
0
 20
37.711334
 42
0
  0
SEQEND
  8
0
  0
POLYLINE
  8
0
  6
CONTINUOUS
 62
     7
 66
     1
 10
0
 20
0
  0
VERTEX
  8
0
  6
CONTINUOUS
 62
     7
 10
0
 20
23.288666
 42
0.016924364
  0
VERTEX
  8
0
  6
CONTINUOUS
 62
     7
 10
2.6928772
 20
23.380251
 42
0.01653495
  0
VERTEX
  8
0
  6
CONTINUOUS
 62
     7
 10
5.3735612
 20
23.651606
 42
0.016230051
  0
VERTEX
  8
0
  6
CONTINUOUS
 62
     7
 10
8.0255737
 20
24.096954
 42
0
  0
SEQEND
  8
0
  0
POLYLINE
  8
0
  6
CONTINUOUS
 62
     7
 66
     1
 10
0
 20
0
  0
VERTEX
  8
0
  6
CONTINUOUS
 62
     7
 10
17.899994
 20
36.903046
 42
0.060912101
  0
VERTEX
  8
0
  6
CONTINUOUS
 62
     7
 10
15.244864
 20
37.615201
 42
0.069925371
  0
VERTEX
  8
0
  6
CONTINUOUS
 62
     7
 10
12.498179
 20
37.615424
 42
0.060971198
  0
VERTEX
  8
0
  6
CONTINUOUS
 62
     7
 10
9.8435974
 20
36.903046
 42
0
  0
SEQEND
  8
0
  0
POLYLINE
  8
0
  6
CONTINUOUS
 62
     7
 66
     1
 10
0
 20
0
  0
VERTEX
  8
0
  6
CONTINUOUS
 62
     7
 10
9.8436279
 20
24.096954
 42
0.060980221
  0
VERTEX
  8
0
  6
CONTINUOUS
 62
     7
 10
12.498615
 20
23.384518
 42
0.069926293
  0
VERTEX
  8
0
  6
CONTINUOUS
 62
     7
 10
15.245293
 20
23.38486
 42
0.060900749
  0
VERTEX
  8
0
  6
CONTINUOUS
 62
     7
 10
17.899994
 20
24.096954
 42
0
  0
SEQEND
  8
0
  0
POLYLINE
  8
0
  6
CONTINUOUS
 62
     7
 66
     1
 10
0
 20
0
  0
VERTEX
  8
0
  6
CONTINUOUS
 62
     7
 10
8.0255737
 20
36.903046
 42
0.016246285
  0
VERTEX
  8
0
  6
CONTINUOUS
 62
     7
 10
5.3709993
 20
37.348741
 42
0.016520534
  0
VERTEX
  8
0
  6
CONTINUOUS
 62
     7
 10
2.6926932
 20
37.619762
 42
0.016923018
  0
VERTEX
  8
0
  6
CONTINUOUS
 62
     7
 10
0
 20
37.711334
 42
0
  0
SEQEND
  8
0
  0
POLYLINE
  8
0
  6
CONTINUOUS
 62
     7
 66
     1
 10
0
 20
0
  0
VERTEX
  8
0
  6
CONTINUOUS
 62
     7
 10
49.788681
 20
-0.3500061
 42
0.01916166
  0
VERTEX
  8
0
  6
CONTINUOUS
 62
     7
 10
49.926548
 20
-3.9258857
 42
0.018603478
  0
VERTEX
  8
0
  6
CONTINUOUS
 62
     7
 10
50.333688
 20
-7.4812369
 42
0.018212825
  0
VERTEX
  8
0
  6
CONTINUOUS
 62
     7
 10
51.001099
 20
-10.99707
 42
0
  0
SEQEND
  8
0
  0
POLYLINE
  8
0
  6
CONTINUOUS
 62
     7
 66
     1
 10
0
 20
0
  0
VERTEX
  8
0
  6
CONTINUOUS
 62
     7
 10
51.001099
 20
-12.779984
 42
0.06733835
  0
VERTEX
  8
0
  6
CONTINUOUS
 62
     7
 10
49.934993
 20
-16.285229
 42
0.080048299
  0
VERTEX
  8
0
  6
CONTINUOUS
 62
     7
 10
49.93529
 20
-19.94464
 42
0.067284259
  0
VERTEX
  8
0
  6
CONTINUOUS
 62
     7
 10
51.001099
 20
-23.449997
 42
0
  0
SEQEND
  8
0
  0
POLYLINE
  8
0
  6
CONTINUOUS
 62
     7
 66
     1
 10
0
 20
0
  0
VERTEX
  8
0
  6
CONTINUOUS
 62
     7
 10
63.998886
 20
-12.779984
 42
-0.067338857
  0
VERTEX
  8
0
  6
CONTINUOUS
 62
     7
 10
65.065017
 20
-16.285227
 42
-0.080051052
  0
VERTEX
  8
0
  6
CONTINUOUS
 62
     7
 10
65.06472
 20
-19.944642
 42
-0.067284757
  0
VERTEX
  8
0
  6
CONTINUOUS
 62
     7
 10
63.998886
 20
-23.449997
 42
0
  0
SEQEND
  8
0
  0
POLYLINE
  8
0
  6
CONTINUOUS
 62
     7
 66
     1
 10
0
 20
0
  0
VERTEX
  8
0
  6
CONTINUOUS
 62
     7
 10
65.211334
 20
-0.3500061
 42
-0.019162265
  0
VERTEX
  8
0
  6
CONTINUOUS
 62
     7
 10
65.073462
 20
-3.9258869
 42
-0.018603814
  0
VERTEX
  8
0
  6
CONTINUOUS
 62
     7
 10
64.666311
 20
-7.4812382
 42
-0.018212906
  0
VERTEX
  8
0
  6
CONTINUOUS
 62
     7
 10
63.998886
 20
-10.99707
 42
0
  0
SEQEND
  8
0
  0
POLYLINE
  8
0
  6
CONTINUOUS
 62
     7
 66
     1
 10
0
 20
0
  0
VERTEX
  8
0
  6
CONTINUOUS
 62
     7
 10
49.788681
 20
-0.3500061
 42
-0.01916166
  0
VERTEX
  8
0
  6
CONTINUOUS
 62
     7
 10
49.926548
 20
3.2258735
 42
-0.018603478
  0
VERTEX
  8
0
  6
CONTINUOUS
 62
     7
 10
50.333688
 20
6.7812247
 42
-0.018212825
  0
VERTEX
  8
0
  6
CONTINUOUS
 62
     7
 10
51.001099
 20
10.297058
 42
0
  0
SEQEND
  8
0
  0
POLYLINE
  8
0
  6
CONTINUOUS
 62
     7
 66
     1
 10
0
 20
0
  0
VERTEX
  8
0
  6
CONTINUOUS
 62
     7
 10
51.001099
 20
12.079971
 42
-0.067338448
  0
VERTEX
  8
0
  6
CONTINUOUS
 62
     7
 10
49.934992
 20
15.585222
 42
-0.080048231
  0
VERTEX
  8
0
  6
CONTINUOUS
 62
     7
 10
49.935291
 20
19.244638
 42
-0.067284212
  0
VERTEX
  8
0
  6
CONTINUOUS
 62
     7
 10
51.001099
 20
22.75
 42
0
  0
SEQEND
  8
0
  0
POLYLINE
  8
0
  6
CONTINUOUS
 62
     7
 66
     1
 10
0
 20
0
  0
VERTEX
  8
0
  6
CONTINUOUS
 62
     7
 10
63.998886
 20
12.079971
 42
0.067338955
  0
VERTEX
  8
0
  6
CONTINUOUS
 62
     7
 10
65.065018
 20
15.585219
 42
0.080050984
  0
VERTEX
  8
0
  6
CONTINUOUS
 62
     7
 10
65.064719
 20
19.24464
 42
0.06728471
  0
VERTEX
  8
0
  6
CONTINUOUS
 62
     7
 10
63.998886
 20
22.75
 42
0
  0
SEQEND
  8
0
  0
POLYLINE
  8
0
  6
CONTINUOUS
 62
     7
 66
     1
 10
0
 20
0
  0
VERTEX
  8
0
  6
CONTINUOUS
 62
     7
 10
65.211334
 20
-0.3500061
 42
0.019162265
  0
VERTEX
  8
0
  6
CONTINUOUS
 62
     7
 10
65.073462
 20
3.2258747
 42
0.018603814
  0
VERTEX
  8
0
  6
CONTINUOUS
 62
     7
 10
64.666311
 20
6.781226
 42
0.018212906
  0
VERTEX
  8
0
  6
CONTINUOUS
 62
     7
 10
63.998886
 20
10.297058
 42
0
  0
SEQEND
  8
0
  0
POLYLINE
  8
0
  6
CONTINUOUS
 62
     7
 66
     1
 10
0
 20
0
  0
VERTEX
  8
0
  6
CONTINUOUS
 62
     7
 10
139.21132
 20
-0.3500061
 42
0.01916166
  0
VERTEX
  8
0
  6
CONTINUOUS
 62
     7
 10
139.07345
 20
3.2258735
 42
0.018603478
  0
VERTEX
  8
0
  6
CONTINUOUS
 62
     7
 10
138.66631
 20
6.7812247
 42
0.018212825
  0
VERTEX
  8
0
  6
CONTINUOUS
 62
     7
 10
137.9989
 20
10.297058
 42
0
  0
SEQEND
  8
0
  0
POLYLINE
  8
0
  6
CONTINUOUS
 62
     7
 66
     1
 10
0
 20
0
  0
VERTEX
  8
0
  6
CONTINUOUS
 62
     7
 10
137.9989
 20
12.079971
 42
0.067338448
  0
VERTEX
  8
0
  6
CONTINUOUS
 62
     7
 10
139.06501
 20
15.585222
 42
0.080048231
  0
VERTEX
  8
0
  6
CONTINUOUS
 62
     7
 10
139.06471
 20
19.244638
 42
0.067284212
  0
VERTEX
  8
0
  6
CONTINUOUS
 62
     7
 10
137.9989
 20
22.75
 42
0
  0
SEQEND
  8
0
  0
POLYLINE
  8
0
  6
CONTINUOUS
 62
     7
 66
     1
 10
0
 20
0
  0
VERTEX
  8
0
  6
CONTINUOUS
 62
     7
 10
125.00111
 20
12.079971
 42
-0.067338758
  0
VERTEX
  8
0
  6
CONTINUOUS
 62
     7
 10
123.93498
 20
15.58521
 42
-0.080051119
  0
VERTEX
  8
0
  6
CONTINUOUS
 62
     7
 10
123.93528
 20
19.24462
 42
-0.067284804
  0
VERTEX
  8
0
  6
CONTINUOUS
 62
     7
 10
125.00111
 20
22.749969
 42
0
  0
SEQEND
  8
0
  0
POLYLINE
  8
0
  6
CONTINUOUS
 62
     7
 66
     1
 10
0
 20
0
  0
VERTEX
  8
0
  6
CONTINUOUS
 62
     7
 10
123.78867
 20
-0.3500061
 42
-0.019162265
  0
VERTEX
  8
0
  6
CONTINUOUS
 62
     7
 10
123.92654
 20
3.2258747
 42
-0.018603814
  0
VERTEX
  8
0
  6
CONTINUOUS
 62
     7
 10
124.33369
 20
6.781226
 42
-0.018212906
  0
VERTEX
  8
0
  6
CONTINUOUS
 62
     7
 10
125.00111
 20
10.297058
 42
0
  0
SEQEND
  8
0
  0
POLYLINE
  8
0
  6
CONTINUOUS
 62
     7
 66
     1
 10
0
 20
0
  0
VERTEX
  8
0
  6
CONTINUOUS
 62
     7
 10
139.21132
 20
-0.3500061
 42
-0.01916166
  0
VERTEX
  8
0
  6
CONTINUOUS
 62
     7
 10
139.07345
 20
-3.9258857
 42
-0.018603478
  0
VERTEX
  8
0
  6
CONTINUOUS
 62
     7
 10
138.66631
 20
-7.4812369
 42
-0.018212825
  0
VERTEX
  8
0
  6
CONTINUOUS
 62
     7
 10
137.9989
 20
-10.99707
 42
0
  0
SEQEND
  8
0
  0
POLYLINE
  8
0
  6
CONTINUOUS
 62
     7
 66
     1
 10
0
 20
0
  0
VERTEX
  8
0
  6
CONTINUOUS
 62
     7
 10
137.9989
 20
-12.779984
 42
-0.06733835
  0
VERTEX
  8
0
  6
CONTINUOUS
 62
     7
 10
139.06501
 20
-16.285229
 42
-0.080048299
  0
VERTEX
  8
0
  6
CONTINUOUS
 62
     7
 10
139.06471
 20
-19.94464
 42
-0.067284259
  0
VERTEX
  8
0
  6
CONTINUOUS
 62
     7
 10
137.9989
 20
-23.449997
 42
0
  0
SEQEND
  8
0
  0
POLYLINE
  8
0
  6
CONTINUOUS
 62
     7
 66
     1
 10
0
 20
0
  0
VERTEX
  8
0
  6
CONTINUOUS
 62
     7
 10
125.00111
 20
-12.779984
 42
0.06733981
  0
VERTEX
  8
0
  6
CONTINUOUS
 62
     7
 10
123.93499
 20
-16.285227
 42
0.080048861
  0
VERTEX
  8
0
  6
CONTINUOUS
 62
     7
 10
123.93529
 20
-19.944641
 42
0.067285709
  0
VERTEX
  8
0
  6
CONTINUOUS
 62
     7
 10
125.00111
 20
-23.449997
 42
0
  0
SEQEND
  8
0
  0
POLYLINE
  8
0
  6
CONTINUOUS
 62
     7
 66
     1
 10
0
 20
0
  0
VERTEX
  8
0
  6
CONTINUOUS
 62
     7
 10
123.78867
 20
-0.3500061
 42
0.019162265
  0
VERTEX
  8
0
  6
CONTINUOUS
 62
     7
 10
123.92654
 20
-3.9258869
 42
0.018603814
  0
VERTEX
  8
0
  6
CONTINUOUS
 62
     7
 10
124.33369
 20
-7.4812382
 42
0.018212906
  0
VERTEX
  8
0
  6
CONTINUOUS
 62
     7
 10
125.00111
 20
-10.99707
 42
0
  0
SEQEND
  8
0
  0
TEXT
  8
0
  6
CONTINUOUS
 62
     7
 10
-119.66429
 20
27.35
 40
4.8000002
 41
1.0285715
  1
13
  0
TEXT
  8
0
  6
CONTINUOUS
 62
     7
 10
-37.064292
 20
30.500001
 40
4.8000002
 41
1.0285715
  1
20
  0
TEXT
  8
0
  6
CONTINUOUS
 62
     7
 10
50.785706
 20
36.449998
 40
4.8000002
 41
1.0285715
  1
25
  0
ENDBLK
  8
0
  0
ENDSEC
  0
SECTION
  2
ENTITIES
  0
POINT
  8
0
  6
CONTINUOUS
 62
     7
 10
-103.76849
 20
97.892021
  0
POINT
  8
0
  6
CONTINUOUS
 62
     7
 10
-103.76849
 20
192.89203
  0
LINE
  8
0
  6
CONTINUOUS
 62
     7
 10
-154.17996
 20
271.4249
 11
-152.17996
 21
271.4249
  0
LINE
  8
0
  6
CONTINUOUS
 62
     7
 10
-154.17996
 20
276.28983
 11
-152.17996
 21
276.28983
  0
LINE
  8
0
  6
CONTINUOUS
 62
     7
 10
-152.67996
 20
276.28983
 11
-152.67996
 21
271.4249
  0
LINE
  8
0
  6
CONTINUOUS
 62
     7
 10
-153.67996
 20
276.28983
 11
-153.67996
 21
271.4249
  0
LINE
  8
0
  6
CENTER
 62
     7
 10
-145.97417
 20
192.89203
 11
-59.487782
 21
192.89203
  0
LINE
  8
0
  6
CONTINUOUS
 62
     7
 10
-103.76849
 20
182.89203
 11
-114.46944
 21
182.89203
  0
LINE
  8
0
  6
CONTINUOUS
 62
     7
 10
-122.92904
 20
182.14203
 11
-115.76849
 21
182.14203
  0
LINE
  8
0
  6
CONTINUOUS
 62
     7
 10
-123.36203
 20
182.39203
 11
-122.92902
 21
182.14203
  0
LINE
  8
0
  6
CONTINUOUS
 62
     7
 10
-124.76848
 20
183.20404
 11
-123.36203
 21
182.39203
  0
LINE
  8
0
  6
CONTINUOUS
 62
     7
 10
-126.76849
 20
182.39203
 11
-123.36205
 21
182.39203
  0
LINE
  8
0
  6
CONTINUOUS
 62
     7
 10
-124.76849
 20
182.39203
 11
-124.76849
 21
203.39203
  0
LINE
  8
0
  6
CONTINUOUS
 62
     7
 10
-126.76849
 20
183.20404
 11
-124.76849
 21
183.20404
  0
LINE
  8
0
  6
CONTINUOUS
 62
     7
 10
-126.76849
 20
203.39203
 11
-123.36205
 21
203.39203
  0
LINE
  8
0
  6
CONTINUOUS
 62
     7
 10
-124.76847
 20
202.58003
 11
-123.36204
 21
203.39203
  0
LINE
  8
0
  6
CONTINUOUS
 62
     7
 10
-122.92904
 20
203.64203
 11
-120.26849
 21
203.64203
  0
LINE
  8
0
  6
CONTINUOUS
 62
     7
 10
-123.36204
 20
203.39203
 11
-122.92903
 21
203.64203
  0
LINE
  8
0
  6
CENTER
 62
     7
 10
-103.76849
 20
177.16151
 11
-103.76849
 21
225.97629
  0
LINE
  8
0
  6
CONTINUOUS
 62
     7
 10
-113.76849
 20
200.89203
 11
-103.76849
 21
200.89203
  0
LINE
  8
0
  6
CONTINUOUS
 62
     7
 10
-115.76849
 20
198.89203
 11
-115.76849
 21
182.14203
  0
LINE
  8
0
  6
CONTINUOUS
 62
     7
 10
-103.76849
 20
220.89203
 11
-119.76849
 21
220.89203
  0
LINE
  8
0
  6
CONTINUOUS
 62
     7
 10
-119.35696
 20
218.89203
 11
-119.35696
 21
214.09779
  0
LINE
  8
0
  6
CONTINUOUS
 62
     7
 10
-103.76849
 20
212.89203
 11
-117.26849
 21
212.89203
  0
LINE
  8
0
  6
CONTINUOUS
 62
     7
 10
-111.56271
 20
218.89203
 11
-111.56271
 21
214.09779
  0
LINE
  8
0
  6
CONTINUOUS
 62
     7
 10
-117.26849
 20
212.89203
 11
-117.26849
 21
206.64203
  0
LINE
  8
0
  6
CONTINUOUS
 62
     7
 10
-119.35695
 20
214.09778
 11
-117.2685
 21
212.89202
  0
LINE
  8
0
  6
CONTINUOUS
 62
     7
 10
-119.76849
 20
220.89203
 11
-119.76849
 21
218.89203
  0
LINE
  8
0
  6
CONTINUOUS
 62
     7
 10
-103.76849
 20
218.89203
 11
-119.76849
 21
218.89203
  0
LINE
  8
0
  6
CONTINUOUS
 62
     7
 10
-126.76849
 20
202.58003
 11
-124.76849
 21
202.58003
  0
LINE
  8
0
  6
CONTINUOUS
 62
     7
 10
-103.76849
 20
182.89203
 11
-93.067528
 21
182.89203
  0
LINE
  8
0
  6
CONTINUOUS
 62
     7
 10
-84.607903
 20
182.14203
 11
-91.768486
 21
182.14203
  0
LINE
  8
0
  6
CONTINUOUS
 62
     7
 10
-84.174919
 20
182.39203
 11
-84.607931
 21
182.14203
  0
LINE
  8
0
  6
CONTINUOUS
 62
     7
 10
-82.768486
 20
183.20404
 11
-84.174919
 21
182.39203
  0
LINE
  8
0
  6
CONTINUOUS
 62
     7
 10
-80.768486
 20
182.39203
 11
-84.174919
 21
182.39203
  0
LINE
  8
0
  6
CONTINUOUS
 62
     7
 10
-82.768486
 20
182.39203
 11
-82.768486
 21
203.39203
  0
LINE
  8
0
  6
CONTINUOUS
 62
     7
 10
-80.768486
 20
183.20404
 11
-82.768486
 21
183.20404
  0
LINE
  8
0
  6
CONTINUOUS
 62
     7
 10
-80.768486
 20
203.39203
 11
-84.174919
 21
203.39203
  0
LINE
  8
0
  6
CONTINUOUS
 62
     7
 10
-82.768494
 20
202.58003
 11
-84.174911
 21
203.39203
  0
LINE
  8
0
  6
CONTINUOUS
 62
     7
 10
-84.607903
 20
203.64203
 11
-87.268486
 21
203.64203
  0
LINE
  8
0
  6
CONTINUOUS
 62
     7
 10
-84.174911
 20
203.39203
 11
-84.607925
 21
203.64203
  0
LINE
  8
0
  6
CONTINUOUS
 62
     7
 10
-93.768486
 20
200.89203
 11
-103.76849
 21
200.89203
  0
LINE
  8
0
  6
CONTINUOUS
 62
     7
 10
-91.768486
 20
198.89203
 11
-91.768486
 21
182.14203
  0
LINE
  8
0
  6
CONTINUOUS
 62
     7
 10
-103.76849
 20
220.89203
 11
-87.768486
 21
220.89203
  0
LINE
  8
0
  6
CONTINUOUS
 62
     7
 10
-88.180016
 20
218.89203
 11
-88.180016
 21
214.09779
  0
LINE
  8
0
  6
CONTINUOUS
 62
     7
 10
-103.76849
 20
212.89203
 11
-90.268486
 21
212.89203
  0
LINE
  8
0
  6
CONTINUOUS
 62
     7
 10
-95.974236
 20
218.89203
 11
-95.974236
 21
214.09779
  0
LINE
  8
0
  6
CONTINUOUS
 62
     7
 10
-90.268486
 20
212.89203
 11
-90.268486
 21
206.64203
  0
LINE
  8
0
  6
CONTINUOUS
 62
     7
 10
-88.179996
 20
214.09777
 11
-90.268455
 21
212.892
  0
LINE
  8
0
  6
CONTINUOUS
 62
     7
 10
-87.768486
 20
220.89203
 11
-87.768486
 21
218.89203
  0
LINE
  8
0
  6
CONTINUOUS
 62
     7
 10
-103.76849
 20
218.89203
 11
-87.768486
 21
218.89203
  0
LINE
  8
0
  6
CONTINUOUS
 62
     7
 10
-80.768486
 20
202.58003
 11
-82.768486
 21
202.58003
  0
LINE
  8
0
  6
CENTER
 62
     7
 10
-155.86188
 20
97.892021
 11
-53.373432
 21
97.892021
  0
LINE
  8
0
  6
CONTINUOUS
 62
     7
 10
-103.76849
 20
84.342026
 11
-118.24862
 21
84.342026
  0
LINE
  8
0
  6
CONTINUOUS
 62
     7
 10
-119.7685
 20
83.642014
 11
-127.92907
 21
83.642014
  0
LINE
  8
0
  6
CONTINUOUS
 62
     7
 10
-127.92905
 20
83.642029
 11
-128.36207
 21
83.892029
  0
LINE
  8
0
  6
CONTINUOUS
 62
     7
 10
-128.36207
 20
83.892029
 11
-129.76849
 21
84.704025
  0
LINE
  8
0
  6
CONTINUOUS
 62
     7
 10
-128.36208
 20
83.892014
 11
-131.76846
 21
83.892014
  0
LINE
  8
0
  6
CONTINUOUS
 62
     7
 10
-129.76849
 20
84.704025
 11
-131.76846
 21
84.704025
  0
LINE
  8
0
  6
CONTINUOUS
 62
     7
 10
-128.36208
 20
111.89202
 11
-131.76846
 21
111.89202
  0
LINE
  8
0
  6
CONTINUOUS
 62
     7
 10
-129.76849
 20
111.08002
 11
-131.76846
 21
111.08002
  0
LINE
  8
0
  6
CONTINUOUS
 62
     7
 10
-129.76849
 20
111.89202
 11
-129.76849
 21
83.892014
  0
LINE
  8
0
  6
CONTINUOUS
 62
     7
 10
-128.36208
 20
111.89203
 11
-129.7685
 21
111.08003
  0
LINE
  8
0
  6
CONTINUOUS
 62
     7
 10
-127.92907
 20
112.14203
 11
-128.36208
 21
111.89203
  0
LINE
  8
0
  6
CONTINUOUS
 62
     7
 10
-122.76849
 20
112.14202
 11
-127.92907
 21
112.14202
  0
LINE
  8
0
  6
CONTINUOUS
 62
     7
 10
-116.7685
 20
108.89202
 11
-103.76849
 21
108.89202
  0
LINE
  8
0
  6
CONTINUOUS
 62
     7
 10
-119.7685
 20
105.89202
 11
-119.7685
 21
83.642014
  0
LINE
  8
0
  6
CONTINUOUS
 62
     7
 10
-119.76849
 20
115.14202
 11
-119.76849
 21
120.89202
  0
LINE
  8
0
  6
CONTINUOUS
 62
     7
 10
-103.76849
 20
130.89203
 11
-124.26849
 21
130.89203
  0
LINE
  8
0
  6
CONTINUOUS
 62
     7
 10
-103.76849
 20
120.89202
 11
-119.76849
 21
120.89202
  0
LINE
  8
0
  6
CONTINUOUS
 62
     7
 10
-124.26849
 20
127.89202
 11
-124.26849
 21
130.89203
  0
LINE
  8
0
  6
CONTINUOUS
 62
     7
 10
-122.24371
 20
122.32108
 11
-122.24371
 21
127.89202
  0
LINE
  8
0
  6
CONTINUOUS
 62
     7
 10
-119.76849
 20
120.89202
 11
-122.2437
 21
122.32108
  0
LINE
  8
0
  6
CONTINUOUS
 62
     7
 10
-113.0061
 20
122.32108
 11
-113.0061
 21
127.89202
  0
LINE
  8
0
  6
CONTINUOUS
 62
     7
 10
-103.76849
 20
127.89202
 11
-124.26849
 21
127.89202
  0
LINE
  8
0
  6
CENTER
 62
     7
 10
-103.76849
 20
135.89203
 11
-103.76849
 21
79.342026
  0
LINE
  8
0
  6
CONTINUOUS
 62
     7
 10
-103.76849
 20
84.342026
 11
-89.288353
 21
84.342026
  0
LINE
  8
0
  6
CONTINUOUS
 62
     7
 10
-87.768486
 20
83.642014
 11
-79.607918
 21
83.642014
  0
LINE
  8
0
  6
CONTINUOUS
 62
     7
 10
-79.607918
 20
83.642029
 11
-79.174906
 21
83.892029
  0
LINE
  8
0
  6
CONTINUOUS
 62
     7
 10
-79.174906
 20
83.892029
 11
-77.768486
 21
84.704025
  0
LINE
  8
0
  6
CONTINUOUS
 62
     7
 10
-79.174904
 20
83.892014
 11
-75.768501
 21
83.892014
  0
LINE
  8
0
  6
CONTINUOUS
 62
     7
 10
-77.768486
 20
84.704025
 11
-75.768501
 21
84.704025
  0
LINE
  8
0
  6
CONTINUOUS
 62
     7
 10
-79.174904
 20
111.89202
 11
-75.768501
 21
111.89202
  0
LINE
  8
0
  6
CONTINUOUS
 62
     7
 10
-77.768486
 20
111.08002
 11
-75.768501
 21
111.08002
  0
LINE
  8
0
  6
CONTINUOUS
 62
     7
 10
-77.768486
 20
111.89202
 11
-77.768486
 21
83.892014
  0
LINE
  8
0
  6
CONTINUOUS
 62
     7
 10
-79.174896
 20
111.89202
 11
-77.768476
 21
111.08002
  0
LINE
  8
0
  6
CONTINUOUS
 62
     7
 10
-79.607908
 20
112.14202
 11
-79.174896
 21
111.89202
  0
LINE
  8
0
  6
CONTINUOUS
 62
     7
 10
-84.768486
 20
112.14202
 11
-79.607918
 21
112.14202
  0
LINE
  8
0
  6
CONTINUOUS
 62
     7
 10
-90.768486
 20
108.89202
 11
-103.76849
 21
108.89202
  0
LINE
  8
0
  6
CONTINUOUS
 62
     7
 10
-87.768486
 20
105.89202
 11
-87.768486
 21
83.642014
  0
LINE
  8
0
  6
CONTINUOUS
 62
     7
 10
-87.768486
 20
115.14202
 11
-87.768486
 21
120.89202
  0
LINE
  8
0
  6
CONTINUOUS
 62
     7
 10
-103.76849
 20
130.89203
 11
-83.268486
 21
130.89203
  0
LINE
  8
0
  6
CONTINUOUS
 62
     7
 10
-103.76849
 20
120.89202
 11
-87.768486
 21
120.89202
  0
LINE
  8
0
  6
CONTINUOUS
 62
     7
 10
-83.268486
 20
127.89202
 11
-83.268486
 21
130.89203
  0
LINE
  8
0
  6
CONTINUOUS
 62
     7
 10
-85.293266
 20
122.32108
 11
-85.293266
 21
127.89202
  0
LINE
  8
0
  6
CONTINUOUS
 62
     7
 10
-87.768484
 20
120.89202
 11
-85.293276
 21
122.32108
  0
LINE
  8
0
  6
CONTINUOUS
 62
     7
 10
-94.530876
 20
122.32108
 11
-94.530876
 21
127.89202
  0
LINE
  8
0
  6
CONTINUOUS
 62
     7
 10
-103.76849
 20
127.89202
 11
-83.268486
 21
127.89202
  0
LINE
  8
0
  6
CONTINUOUS
 62
     7
 10
-141.01793
 20
187.15704
 11
-141.01793
 21
185.36722
  0
LINE
  8
0
  6
CONTINUOUS
 62
     7
 10
-141.01793
 20
187.15704
 11
-127.51904
 21
187.15704
  0
LINE
  8
0
  6
CONTINUOUS
 62
     7
 10
-141.01793
 20
185.36722
 11
-127.51904
 21
185.36722
  0
LINE
  8
0
  6
CONTINUOUS
 62
     7
 10
-127.51904
 20
187.15704
 11
-127.51904
 21
185.36722
  0
LINE
  8
0
  6
CONTINUOUS
 62
     7
 10
-126.76849
 20
192.89203
 11
-126.76849
 21
180.89203
  0
LINE
  8
0
  6
CONTINUOUS
 62
     7
 10
-127.51903
 20
179.59204
 11
-126.76848
 21
180.89204
  0
LINE
  8
0
  6
CONTINUOUS
 62
     7
 10
-141.01793
 20
179.59203
 11
-127.51904
 21
179.59203
  0
LINE
  8
0
  6
CONTINUOUS
 62
     7
 10
-141.76848
 20
180.89203
 11
-141.01793
 21
179.59204
  0
LINE
  8
0
  6
CONTINUOUS
 62
     7
 10
-141.76848
 20
192.89203
 11
-141.76848
 21
180.89203
  0
LINE
  8
0
  6
CONTINUOUS
 62
     7
 10
-141.01793
 20
198.62701
 11
-141.01793
 21
200.41684
  0
LINE
  8
0
  6
CONTINUOUS
 62
     7
 10
-141.01793
 20
198.62701
 11
-127.51904
 21
198.62701
  0
LINE
  8
0
  6
CONTINUOUS
 62
     7
 10
-141.01793
 20
200.41684
 11
-127.51904
 21
200.41684
  0
LINE
  8
0
  6
CONTINUOUS
 62
     7
 10
-127.51904
 20
198.62701
 11
-127.51904
 21
200.41684
  0
LINE
  8
0
  6
CONTINUOUS
 62
     7
 10
-126.76849
 20
192.89203
 11
-126.76849
 21
204.89203
  0
LINE
  8
0
  6
CONTINUOUS
 62
     7
 10
-127.51904
 20
206.19202
 11
-126.76847
 21
204.892
  0
LINE
  8
0
  6
CONTINUOUS
 62
     7
 10
-141.01793
 20
206.19205
 11
-127.51904
 21
206.19205
  0
LINE
  8
0
  6
CONTINUOUS
 62
     7
 10
-141.7685
 20
204.89202
 11
-141.01794
 21
206.19202
  0
LINE
  8
0
  6
CONTINUOUS
 62
     7
 10
-141.76848
 20
192.89203
 11
-141.76848
 21
204.89203
  0
LINE
  8
0
  6
CONTINUOUS
 62
     7
 10
-66.519035
 20
198.62701
 11
-66.519035
 21
200.41684
  0
LINE
  8
0
  6
CONTINUOUS
 62
     7
 10
-66.519035
 20
198.62701
 11
-80.017937
 21
198.62701
  0
LINE
  8
0
  6
CONTINUOUS
 62
     7
 10
-66.519035
 20
200.41684
 11
-80.017937
 21
200.41684
  0
LINE
  8
0
  6
CONTINUOUS
 62
     7
 10
-80.017937
 20
198.62701
 11
-80.017937
 21
200.41684
  0
LINE
  8
0
  6
CONTINUOUS
 62
     7
 10
-80.768486
 20
192.89203
 11
-80.768486
 21
204.89203
  0
LINE
  8
0
  6
CONTINUOUS
 62
     7
 10
-80.017948
 20
206.19202
 11
-80.768505
 21
204.89201
  0
LINE
  8
0
  6
CONTINUOUS
 62
     7
 10
-66.519035
 20
206.19203
 11
-80.017937
 21
206.19203
  0
LINE
  8
0
  6
CONTINUOUS
 62
     7
 10
-65.768475
 20
204.892
 11
-66.519024
 21
206.19199
  0
LINE
  8
0
  6
CONTINUOUS
 62
     7
 10
-65.768486
 20
192.89203
 11
-65.768486
 21
204.89203
  0
LINE
  8
0
  6
CONTINUOUS
 62
     7
 10
-66.519035
 20
187.15704
 11
-66.519035
 21
185.36722
  0
LINE
  8
0
  6
CONTINUOUS
 62
     7
 10
-66.519035
 20
187.15704
 11
-80.017937
 21
187.15704
  0
LINE
  8
0
  6
CONTINUOUS
 62
     7
 10
-66.519035
 20
185.36722
 11
-80.017937
 21
185.36722
  0
LINE
  8
0
  6
CONTINUOUS
 62
     7
 10
-80.017937
 20
187.15704
 11
-80.017937
 21
185.36722
  0
LINE
  8
0
  6
CONTINUOUS
 62
     7
 10
-80.768486
 20
192.89203
 11
-80.768486
 21
180.89203
  0
LINE
  8
0
  6
CONTINUOUS
 62
     7
 10
-80.01792
 20
179.59201
 11
-80.768484
 21
180.89203
  0
LINE
  8
0
  6
CONTINUOUS
 62
     7
 10
-66.519035
 20
179.59201
 11
-80.017937
 21
179.59201
  0
LINE
  8
0
  6
CONTINUOUS
 62
     7
 10
-65.768486
 20
180.89203
 11
-66.519043
 21
179.59203
  0
LINE
  8
0
  6
CONTINUOUS
 62
     7
 10
-65.768486
 20
192.89203
 11
-65.768486
 21
180.89203
  0
LINE
  8
0
  6
CONTINUOUS
 62
     7
 10
-145.67152
 20
79.99202
 11
-146.76849
 21
81.892029
  0
LINE
  8
0
  6
CONTINUOUS
 62
     7
 10
-132.86545
 20
79.99202
 11
-145.67151
 21
79.99202
  0
LINE
  8
0
  6
CONTINUOUS
 62
     7
 10
-131.76848
 20
81.892029
 11
-132.86544
 21
79.992035
  0
LINE
  8
0
  6
CONTINUOUS
 62
     7
 10
-131.76846
 20
97.892021
 11
-131.76846
 21
81.892014
  0
LINE
  8
0
  6
CONTINUOUS
 62
     7
 10
-132.86545
 20
89.86644
 11
-132.86545
 21
88.048416
  0
LINE
  8
0
  6
CONTINUOUS
 62
     7
 10
-132.86545
 20
88.048416
 11
-145.67151
 21
88.048416
  0
LINE
  8
0
  6
CONTINUOUS
 62
     7
 10
-132.86545
 20
89.86644
 11
-145.67151
 21
89.86644
  0
LINE
  8
0
  6
CONTINUOUS
 62
     7
 10
-146.76849
 20
97.892021
 11
-146.76849
 21
81.892014
  0
LINE
  8
0
  6
CONTINUOUS
 62
     7
 10
-145.67151
 20
89.86644
 11
-145.67151
 21
88.048416
  0
LINE
  8
0
  6
CONTINUOUS
 62
     7
 10
-145.67152
 20
115.79203
 11
-146.76849
 21
113.89202
  0
LINE
  8
0
  6
CONTINUOUS
 62
     7
 10
-132.86545
 20
115.79202
 11
-145.67151
 21
115.79202
  0
LINE
  8
0
  6
CONTINUOUS
 62
     7
 10
-131.76849
 20
113.89201
 11
-132.86546
 21
115.79202
  0
LINE
  8
0
  6
CONTINUOUS
 62
     7
 10
-131.76846
 20
97.892021
 11
-131.76846
 21
113.89202
  0
LINE
  8
0
  6
CONTINUOUS
 62
     7
 10
-132.86545
 20
105.91759
 11
-132.86545
 21
107.73563
  0
LINE
  8
0
  6
CONTINUOUS
 62
     7
 10
-132.86545
 20
107.73563
 11
-145.67151
 21
107.73563
  0
LINE
  8
0
  6
CONTINUOUS
 62
     7
 10
-132.86545
 20
105.91759
 11
-145.67151
 21
105.91759
  0
LINE
  8
0
  6
CONTINUOUS
 62
     7
 10
-146.76849
 20
97.892021
 11
-146.76849
 21
113.89202
  0
LINE
  8
0
  6
CONTINUOUS
 62
     7
 10
-145.67151
 20
105.91759
 11
-145.67151
 21
107.73563
  0
LINE
  8
0
  6
CONTINUOUS
 62
     7
 10
-61.865463
 20
115.79202
 11
-60.768494
 21
113.89201
  0
LINE
  8
0
  6
CONTINUOUS
 62
     7
 10
-74.671532
 20
115.79202
 11
-61.865452
 21
115.79202
  0
LINE
  8
0
  6
CONTINUOUS
 62
     7
 10
-75.768503
 20
113.89201
 11
-74.671541
 21
115.79201
  0
LINE
  8
0
  6
CONTINUOUS
 62
     7
 10
-75.768501
 20
97.892021
 11
-75.768501
 21
113.89202
  0
LINE
  8
0
  6
CONTINUOUS
 62
     7
 10
-74.671532
 20
105.91759
 11
-74.671532
 21
107.73563
  0
LINE
  8
0
  6
CONTINUOUS
 62
     7
 10
-74.671532
 20
107.73563
 11
-61.865452
 21
107.73563
  0
LINE
  8
0
  6
CONTINUOUS
 62
     7
 10
-74.671532
 20
105.91759
 11
-61.865452
 21
105.91759
  0
LINE
  8
0
  6
CONTINUOUS
 62
     7
 10
-60.768482
 20
97.892021
 11
-60.768482
 21
113.89202
  0
LINE
  8
0
  6
CONTINUOUS
 62
     7
 10
-61.865452
 20
105.91759
 11
-61.865452
 21
107.73563
  0
LINE
  8
0
  6
CONTINUOUS
 62
     7
 10
-61.865459
 20
79.99202
 11
-60.76849
 21
81.892029
  0
LINE
  8
0
  6
CONTINUOUS
 62
     7
 10
-74.671532
 20
79.99202
 11
-61.865452
 21
79.99202
  0
LINE
  8
0
  6
CONTINUOUS
 62
     7
 10
-75.76849
 20
81.892014
 11
-74.671528
 21
79.99202
  0
LINE
  8
0
  6
CONTINUOUS
 62
     7
 10
-75.768501
 20
97.892021
 11
-75.768501
 21
81.892014
  0
LINE
  8
0
  6
CONTINUOUS
 62
     7
 10
-74.671532
 20
89.86644
 11
-74.671532
 21
88.048416
  0
LINE
  8
0
  6
CONTINUOUS
 62
     7
 10
-74.671532
 20
88.048416
 11
-61.865452
 21
88.048416
  0
LINE
  8
0
  6
CONTINUOUS
 62
     7
 10
-74.671532
 20
89.86644
 11
-61.865452
 21
89.86644
  0
LINE
  8
0
  6
CONTINUOUS
 62
     7
 10
-60.768482
 20
97.892021
 11
-60.768482
 21
81.892014
  0
LINE
  8
0
  6
CONTINUOUS
 62
     7
 10
-61.865452
 20
89.86644
 11
-61.865452
 21
88.048416
  0
ARC
  8
0
  6
CONTINUOUS
 62
     7
 10
-114.46944
 20
181.39203
 40
1.5
 50
90.000003
 51
150
  0
ARC
  8
0
  6
CONTINUOUS
 62
     7
 10
-113.76849
 20
198.89203
 40
2
 50
90.000003
 51
180.00001
  0
ARC
  8
0
  6
CONTINUOUS
 62
     7
 10
-120.26849
 20
206.64203
 40
3
 50
270
 51
0
  0
ARC
  8
0
  6
CONTINUOUS
 62
     7
 10
-87.268486
 20
206.64203
 40
3
 50
179.99999
 51
270
  0
ARC
  8
0
  6
CONTINUOUS
 62
     7
 10
-93.067528
 20
181.39203
 40
1.5
 50
30.000004
 51
89.999996
  0
ARC
  8
0
  6
CONTINUOUS
 62
     7
 10
-93.768486
 20
198.89203
 40
2
 50
359.99999
 51
89.999996
  0
ARC
  8
0
  6
CONTINUOUS
 62
     7
 10
-116.7685
 20
105.89202
 40
3
 50
90.000003
 51
180.00001
  0
ARC
  8
0
  6
CONTINUOUS
 62
     7
 10
-118.24862
 20
82.342026
 40
2
 50
90.000003
 51
139.45852
  0
ARC
  8
0
  6
CONTINUOUS
 62
     7
 10
-122.76849
 20
115.14202
 40
3
 50
270
 51
0
  0
ARC
  8
0
  6
CONTINUOUS
 62
     7
 10
-90.768486
 20
105.89202
 40
3
 50
359.99999
 51
89.999996
  0
ARC
  8
0
  6
CONTINUOUS
 62
     7
 10
-89.288353
 20
82.342026
 40
2
 50
40.541486
 51
89.999996
  0
ARC
  8
0
  6
CONTINUOUS
 62
     7
 10
-84.768486
 20
115.14202
 40
3
 50
180.00001
 51
270
  0
POLYLINE
  8
0
  6
CONTINUOUS
 62
     7
 66
     1
 10
0
 20
0
  0
VERTEX
  8
0
  6
CONTINUOUS
 62
     7
 10
-119.35696
 20
214.09779
 42
0.083554124
  0
VERTEX
  8
0
  6
CONTINUOUS
 62
     7
 10
-116.82541
 20
213.04631
 42
0.11298251
  0
VERTEX
  8
0
  6
CONTINUOUS
 62
     7
 10
-114.09423
 20
213.04632
 42
0.083553363
  0
VERTEX
  8
0
  6
CONTINUOUS
 62
     7
 10
-111.56271
 20
214.09779
 42
0
  0
SEQEND
  8
0
  0
POLYLINE
  8
0
  6
CONTINUOUS
 62
     7
 66
     1
 10
0
 20
0
  0
VERTEX
  8
0
  6
CONTINUOUS
 62
     7
 10
-111.56271
 20
214.09779
 42
0.023918884
  0
VERTEX
  8
0
  6
CONTINUOUS
 62
     7
 10
-109.00851
 20
213.43895
 42
0.024852229
  0
VERTEX
  8
0
  6
CONTINUOUS
 62
     7
 10
-106.40309
 20
213.03175
 42
0.026233179
  0
VERTEX
  8
0
  6
CONTINUOUS
 62
     7
 10
-103.76849
 20
212.89203
 42
0
  0
SEQEND
  8
0
  0
POLYLINE
  8
0
  6
CONTINUOUS
 62
     7
 66
     1
 10
0
 20
0
  0
VERTEX
  8
0
  6
CONTINUOUS
 62
     7
 10
-88.180016
 20
214.09779
 42
-0.083553784
  0
VERTEX
  8
0
  6
CONTINUOUS
 62
     7
 10
-90.711554
 20
213.04632
 42
-0.11298333
  0
VERTEX
  8
0
  6
CONTINUOUS
 62
     7
 10
-93.442734
 20
213.04632
 42
-0.083552923
  0
VERTEX
  8
0
  6
CONTINUOUS
 62
     7
 10
-95.974236
 20
214.09779
 42
0
  0
SEQEND
  8
0
  0
POLYLINE
  8
0
  6
CONTINUOUS
 62
     7
 66
     1
 10
0
 20
0
  0
VERTEX
  8
0
  6
CONTINUOUS
 62
     7
 10
-95.974236
 20
214.09779
 42
-0.023919157
  0
VERTEX
  8
0
  6
CONTINUOUS
 62
     7
 10
-98.528447
 20
213.43895
 42
-0.024852087
  0
VERTEX
  8
0
  6
CONTINUOUS
 62
     7
 10
-101.13388
 20
213.03175
 42
-0.026233017
  0
VERTEX
  8
0
  6
CONTINUOUS
 62
     7
 10
-103.76849
 20
212.89203
 42
0
  0
SEQEND
  8
0
  0
POLYLINE
  8
0
  6
CONTINUOUS
 62
     7
 66
     1
 10
0
 20
0
  0
VERTEX
  8
0
  6
CONTINUOUS
 62
     7
 10
-113.0061
 20
122.32108
 42
-0.083553525
  0
VERTEX
  8
0
  6
CONTINUOUS
 62
     7
 10
-116.00644
 20
121.07488
 42
-0.11298387
  0
VERTEX
  8
0
  6
CONTINUOUS
 62
     7
 10
-119.24338
 20
121.07489
 42
-0.083552764
  0
VERTEX
  8
0
  6
CONTINUOUS
 62
     7
 10
-122.24371
 20
122.32108
 42
0
  0
SEQEND
  8
0
  0
POLYLINE
  8
0
  6
CONTINUOUS
 62
     7
 66
     1
 10
0
 20
0
  0
VERTEX
  8
0
  6
CONTINUOUS
 62
     7
 10
-103.76849
 20
120.89202
 42
-0.026226742
  0
VERTEX
  8
0
  6
CONTINUOUS
 62
     7
 10
-106.89016
 20
121.05753
 42
-0.024858821
  0
VERTEX
  8
0
  6
CONTINUOUS
 62
     7
 10
-109.97888
 20
121.54023
 42
-0.023918812
  0
VERTEX
  8
0
  6
CONTINUOUS
 62
     7
 10
-113.0061
 20
122.32108
 42
0
  0
SEQEND
  8
0
  0
POLYLINE
  8
0
  6
CONTINUOUS
 62
     7
 66
     1
 10
0
 20
0
  0
VERTEX
  8
0
  6
CONTINUOUS
 62
     7
 10
-103.76849
 20
120.89202
 42
0.026226742
  0
VERTEX
  8
0
  6
CONTINUOUS
 62
     7
 10
-100.64681
 20
121.05753
 42
0.024858821
  0
VERTEX
  8
0
  6
CONTINUOUS
 62
     7
 10
-97.558091
 20
121.54023
 42
0.023918812
  0
VERTEX
  8
0
  6
CONTINUOUS
 62
     7
 10
-94.530876
 20
122.32108
 42
0
  0
SEQEND
  8
0
  0
POLYLINE
  8
0
  6
CONTINUOUS
 62
     7
 66
     1
 10
0
 20
0
  0
VERTEX
  8
0
  6
CONTINUOUS
 62
     7
 10
-94.530876
 20
122.32108
 42
0.083553525
  0
VERTEX
  8
0
  6
CONTINUOUS
 62
     7
 10
-91.53053
 20
121.07488
 42
0.11298387
  0
VERTEX
  8
0
  6
CONTINUOUS
 62
     7
 10
-88.293587
 20
121.07489
 42
0.083552764
  0
VERTEX
  8
0
  6
CONTINUOUS
 62
     7
 10
-85.293266
 20
122.32108
 42
0
  0
SEQEND
  8
0
  0
POLYLINE
  8
0
  6
CONTINUOUS
 62
     7
 66
     1
 10
0
 20
0
  0
VERTEX
  8
0
  6
CONTINUOUS
 62
     7
 10
-141.01793
 20
185.36722
 42
0.050243496
  0
VERTEX
  8
0
  6
CONTINUOUS
 62
     7
 10
-141.42627
 20
183.45652
 42
0.054947182
  0
VERTEX
  8
0
  6
CONTINUOUS
 62
     7
 10
-141.426
 20
181.50212
 42
0.050155644
  0
VERTEX
  8
0
  6
CONTINUOUS
 62
     7
 10
-141.01793
 20
179.59203
 42
0
  0
SEQEND
  8
0
  0
POLYLINE
  8
0
  6
CONTINUOUS
 62
     7
 66
     1
 10
0
 20
0
  0
VERTEX
  8
0
  6
CONTINUOUS
 62
     7
 10
-141.01793
 20
187.15704
 42
-0.013138069
  0
VERTEX
  8
0
  6
CONTINUOUS
 62
     7
 10
-141.27321
 20
189.05844
 42
-0.013285875
  0
VERTEX
  8
0
  6
CONTINUOUS
 62
     7
 10
-141.4278
 20
190.97151
 42
-0.013500074
  0
VERTEX
  8
0
  6
CONTINUOUS
 62
     7
 10
-141.47981
 20
192.89203
 42
0
  0
SEQEND
  8
0
  0
POLYLINE
  8
0
  6
CONTINUOUS
 62
     7
 66
     1
 10
0
 20
0
  0
VERTEX
  8
0
  6
CONTINUOUS
 62
     7
 10
-127.51904
 20
187.15704
 42
0.013138069
  0
VERTEX
  8
0
  6
CONTINUOUS
 62
     7
 10
-127.26376
 20
189.05844
 42
0.013285875
  0
VERTEX
  8
0
  6
CONTINUOUS
 62
     7
 10
-127.10917
 20
190.97151
 42
0.013500074
  0
VERTEX
  8
0
  6
CONTINUOUS
 62
     7
 10
-127.05715
 20
192.89203
 42
0
  0
SEQEND
  8
0
  0
POLYLINE
  8
0
  6
CONTINUOUS
 62
     7
 66
     1
 10
0
 20
0
  0
VERTEX
  8
0
  6
CONTINUOUS
 62
     7
 10
-127.51904
 20
185.36722
 42
-0.050243496
  0
VERTEX
  8
0
  6
CONTINUOUS
 62
     7
 10
-127.11069
 20
183.45652
 42
-0.054947182
  0
VERTEX
  8
0
  6
CONTINUOUS
 62
     7
 10
-127.11096
 20
181.50212
 42
-0.050155644
  0
VERTEX
  8
0
  6
CONTINUOUS
 62
     7
 10
-127.51904
 20
179.59203
 42
0
  0
SEQEND
  8
0
  0
POLYLINE
  8
0
  6
CONTINUOUS
 62
     7
 66
     1
 10
0
 20
0
  0
VERTEX
  8
0
  6
CONTINUOUS
 62
     7
 10
-141.01793
 20
200.41684
 42
-0.050243631
  0
VERTEX
  8
0
  6
CONTINUOUS
 62
     7
 10
-141.42628
 20
202.32754
 42
-0.054947064
  0
VERTEX
  8
0
  6
CONTINUOUS
 62
     7
 10
-141.426
 20
204.28195
 42
-0.050155593
  0
VERTEX
  8
0
  6
CONTINUOUS
 62
     7
 10
-141.01793
 20
206.19205
 42
0
  0
SEQEND
  8
0
  0
POLYLINE
  8
0
  6
CONTINUOUS
 62
     7
 66
     1
 10
0
 20
0
  0
VERTEX
  8
0
  6
CONTINUOUS
 62
     7
 10
-141.01793
 20
198.62701
 42
0.013138069
  0
VERTEX
  8
0
  6
CONTINUOUS
 62
     7
 10
-141.27321
 20
196.72562
 42
0.013285875
  0
VERTEX
  8
0
  6
CONTINUOUS
 62
     7
 10
-141.4278
 20
194.81255
 42
0.013500074
  0
VERTEX
  8
0
  6
CONTINUOUS
 62
     7
 10
-141.47981
 20
192.89203
 42
0
  0
SEQEND
  8
0
  0
POLYLINE
  8
0
  6
CONTINUOUS
 62
     7
 66
     1
 10
0
 20
0
  0
VERTEX
  8
0
  6
CONTINUOUS
 62
     7
 10
-127.51904
 20
198.62701
 42
-0.013138069
  0
VERTEX
  8
0
  6
CONTINUOUS
 62
     7
 10
-127.26376
 20
196.72562
 42
-0.013285875
  0
VERTEX
  8
0
  6
CONTINUOUS
 62
     7
 10
-127.10917
 20
194.81255
 42
-0.013500074
  0
VERTEX
  8
0
  6
CONTINUOUS
 62
     7
 10
-127.05715
 20
192.89203
 42
0
  0
SEQEND
  8
0
  0
POLYLINE
  8
0
  6
CONTINUOUS
 62
     7
 66
     1
 10
0
 20
0
  0
VERTEX
  8
0
  6
CONTINUOUS
 62
     7
 10
-127.51904
 20
200.41684
 42
0.050243631
  0
VERTEX
  8
0
  6
CONTINUOUS
 62
     7
 10
-127.11069
 20
202.32754
 42
0.054947064
  0
VERTEX
  8
0
  6
CONTINUOUS
 62
     7
 10
-127.11096
 20
204.28195
 42
0.050155593
  0
VERTEX
  8
0
  6
CONTINUOUS
 62
     7
 10
-127.51904
 20
206.19205
 42
0
  0
SEQEND
  8
0
  0
POLYLINE
  8
0
  6
CONTINUOUS
 62
     7
 66
     1
 10
0
 20
0
  0
VERTEX
  8
0
  6
CONTINUOUS
 62
     7
 10
-66.519035
 20
200.41684
 42
0.050243496
  0
VERTEX
  8
0
  6
CONTINUOUS
 62
     7
 10
-66.11069
 20
202.32753
 42
0.054947182
  0
VERTEX
  8
0
  6
CONTINUOUS
 62
     7
 10
-66.110964
 20
204.28194
 42
0.050155644
  0
VERTEX
  8
0
  6
CONTINUOUS
 62
     7
 10
-66.519035
 20
206.19203
 42
0
  0
SEQEND
  8
0
  0
POLYLINE
  8
0
  6
CONTINUOUS
 62
     7
 66
     1
 10
0
 20
0
  0
VERTEX
  8
0
  6
CONTINUOUS
 62
     7
 10
-66.519035
 20
198.62701
 42
-0.013138069
  0
VERTEX
  8
0
  6
CONTINUOUS
 62
     7
 10
-66.263756
 20
196.72562
 42
-0.013285875
  0
VERTEX
  8
0
  6
CONTINUOUS
 62
     7
 10
-66.109167
 20
194.81255
 42
-0.013500074
  0
VERTEX
  8
0
  6
CONTINUOUS
 62
     7
 10
-66.057152
 20
192.89203
 42
0
  0
SEQEND
  8
0
  0
POLYLINE
  8
0
  6
CONTINUOUS
 62
     7
 66
     1
 10
0
 20
0
  0
VERTEX
  8
0
  6
CONTINUOUS
 62
     7
 10
-80.017937
 20
198.62701
 42
0.013138069
  0
VERTEX
  8
0
  6
CONTINUOUS
 62
     7
 10
-80.273216
 20
196.72562
 42
0.013285875
  0
VERTEX
  8
0
  6
CONTINUOUS
 62
     7
 10
-80.427805
 20
194.81255
 42
0.013500074
  0
VERTEX
  8
0
  6
CONTINUOUS
 62
     7
 10
-80.47982
 20
192.89203
 42
0
  0
SEQEND
  8
0
  0
POLYLINE
  8
0
  6
CONTINUOUS
 62
     7
 66
     1
 10
0
 20
0
  0
VERTEX
  8
0
  6
CONTINUOUS
 62
     7
 10
-80.017937
 20
200.41684
 42
-0.050243496
  0
VERTEX
  8
0
  6
CONTINUOUS
 62
     7
 10
-80.426282
 20
202.32753
 42
-0.054947182
  0
VERTEX
  8
0
  6
CONTINUOUS
 62
     7
 10
-80.426008
 20
204.28194
 42
-0.050155644
  0
VERTEX
  8
0
  6
CONTINUOUS
 62
     7
 10
-80.017937
 20
206.19203
 42
0
  0
SEQEND
  8
0
  0
POLYLINE
  8
0
  6
CONTINUOUS
 62
     7
 66
     1
 10
0
 20
0
  0
VERTEX
  8
0
  6
CONTINUOUS
 62
     7
 10
-66.519035
 20
185.36722
 42
-0.050243631
  0
VERTEX
  8
0
  6
CONTINUOUS
 62
     7
 10
-66.110689
 20
183.45652
 42
-0.054947064
  0
VERTEX
  8
0
  6
CONTINUOUS
 62
     7
 10
-66.110964
 20
181.50211
 42
-0.050155593
  0
VERTEX
  8
0
  6
CONTINUOUS
 62
     7
 10
-66.519035
 20
179.59201
 42
0
  0
SEQEND
  8
0
  0
POLYLINE
  8
0
  6
CONTINUOUS
 62
     7
 66
     1
 10
0
 20
0
  0
VERTEX
  8
0
  6
CONTINUOUS
 62
     7
 10
-66.519035
 20
187.15704
 42
0.013138069
  0
VERTEX
  8
0
  6
CONTINUOUS
 62
     7
 10
-66.263756
 20
189.05844
 42
0.013285875
  0
VERTEX
  8
0
  6
CONTINUOUS
 62
     7
 10
-66.109167
 20
190.97151
 42
0.013500074
  0
VERTEX
  8
0
  6
CONTINUOUS
 62
     7
 10
-66.057152
 20
192.89203
 42
0
  0
SEQEND
  8
0
  0
POLYLINE
  8
0
  6
CONTINUOUS
 62
     7
 66
     1
 10
0
 20
0
  0
VERTEX
  8
0
  6
CONTINUOUS
 62
     7
 10
-80.017937
 20
187.15704
 42
-0.013138069
  0
VERTEX
  8
0
  6
CONTINUOUS
 62
     7
 10
-80.273216
 20
189.05844
 42
-0.013285875
  0
VERTEX
  8
0
  6
CONTINUOUS
 62
     7
 10
-80.427805
 20
190.97151
 42
-0.013500074
  0
VERTEX
  8
0
  6
CONTINUOUS
 62
     7
 10
-80.47982
 20
192.89203
 42
0
  0
SEQEND
  8
0
  0
POLYLINE
  8
0
  6
CONTINUOUS
 62
     7
 66
     1
 10
0
 20
0
  0
VERTEX
  8
0
  6
CONTINUOUS
 62
     7
 10
-80.017937
 20
185.36722
 42
0.050247136
  0
VERTEX
  8
0
  6
CONTINUOUS
 62
     7
 10
-80.42626
 20
183.45652
 42
0.054938951
  0
VERTEX
  8
0
  6
CONTINUOUS
 62
     7
 10
-80.425985
 20
181.50211
 42
0.050159115
  0
VERTEX
  8
0
  6
CONTINUOUS
 62
     7
 10
-80.017937
 20
179.59201
 42
0
  0
SEQEND
  8
0
  0
POLYLINE
  8
0
  6
CONTINUOUS
 62
     7
 66
     1
 10
0
 20
0
  0
VERTEX
  8
0
  6
CONTINUOUS
 62
     7
 10
-132.05716
 20
97.892021
 42
-0.016924364
  0
VERTEX
  8
0
  6
CONTINUOUS
 62
     7
 10
-132.14875
 20
95.199144
 42
-0.01653495
  0
VERTEX
  8
0
  6
CONTINUOUS
 62
     7
 10
-132.4201
 20
92.51846
 42
-0.016230051
  0
VERTEX
  8
0
  6
CONTINUOUS
 62
     7
 10
-132.86545
 20
89.866447
 42
0
  0
SEQEND
  8
0
  0
POLYLINE
  8
0
  6
CONTINUOUS
 62
     7
 66
     1
 10
0
 20
0
  0
VERTEX
  8
0
  6
CONTINUOUS
 62
     7
 10
-145.67151
 20
79.992027
 42
-0.060911984
  0
VERTEX
  8
0
  6
CONTINUOUS
 62
     7
 10
-146.38366
 20
82.647152
 42
-0.069925443
  0
VERTEX
  8
0
  6
CONTINUOUS
 62
     7
 10
-146.38389
 20
85.393832
 42
-0.060971265
  0
VERTEX
  8
0
  6
CONTINUOUS
 62
     7
 10
-145.67151
 20
88.048409
 42
0
  0
SEQEND
  8
0
  0
POLYLINE
  8
0
  6
CONTINUOUS
 62
     7
 66
     1
 10
0
 20
0
  0
VERTEX
  8
0
  6
CONTINUOUS
 62
     7
 10
-132.86545
 20
88.048409
 42
-0.060980192
  0
VERTEX
  8
0
  6
CONTINUOUS
 62
     7
 10
-132.15301
 20
85.393414
 42
-0.069926221
  0
VERTEX
  8
0
  6
CONTINUOUS
 62
     7
 10
-132.15335
 20
82.646731
 42
-0.060900827
  0
VERTEX
  8
0
  6
CONTINUOUS
 62
     7
 10
-132.86545
 20
79.992027
 42
0
  0
SEQEND
  8
0
  0
POLYLINE
  8
0
  6
CONTINUOUS
 62
     7
 66
     1
 10
0
 20
0
  0
VERTEX
  8
0
  6
CONTINUOUS
 62
     7
 10
-145.67151
 20
89.866447
 42
-0.016246285
  0
VERTEX
  8
0
  6
CONTINUOUS
 62
     7
 10
-146.1172
 20
92.521022
 42
-0.016520534
  0
VERTEX
  8
0
  6
CONTINUOUS
 62
     7
 10
-146.38823
 20
95.199328
 42
-0.016923018
  0
VERTEX
  8
0
  6
CONTINUOUS
 62
     7
 10
-146.4798
 20
97.892021
 42
0
  0
SEQEND
  8
0
  0
POLYLINE
  8
0
  6
CONTINUOUS
 62
     7
 66
     1
 10
0
 20
0
  0
VERTEX
  8
0
  6
CONTINUOUS
 62
     7
 10
-132.05716
 20
97.892021
 42
0.016924364
  0
VERTEX
  8
0
  6
CONTINUOUS
 62
     7
 10
-132.14875
 20
100.5849
 42
0.01653495
  0
VERTEX
  8
0
  6
CONTINUOUS
 62
     7
 10
-132.4201
 20
103.26558
 42
0.016230051
  0
VERTEX
  8
0
  6
CONTINUOUS
 62
     7
 10
-132.86545
 20
105.91759
 42
0
  0
SEQEND
  8
0
  0
POLYLINE
  8
0
  6
CONTINUOUS
 62
     7
 66
     1
 10
0
 20
0
  0
VERTEX
  8
0
  6
CONTINUOUS
 62
     7
 10
-145.67151
 20
115.79202
 42
0.060911984
  0
VERTEX
  8
0
  6
CONTINUOUS
 62
     7
 10
-146.38366
 20
113.13689
 42
0.069925443
  0
VERTEX
  8
0
  6
CONTINUOUS
 62
     7
 10
-146.38389
 20
110.39021
 42
0.060971265
  0
VERTEX
  8
0
  6
CONTINUOUS
 62
     7
 10
-145.67151
 20
107.73563
 42
0
  0
SEQEND
  8
0
  0
POLYLINE
  8
0
  6
CONTINUOUS
 62
     7
 66
     1
 10
0
 20
0
  0
VERTEX
  8
0
  6
CONTINUOUS
 62
     7
 10
-132.86545
 20
107.73563
 42
0.060980192
  0
VERTEX
  8
0
  6
CONTINUOUS
 62
     7
 10
-132.15301
 20
110.39063
 42
0.069926221
  0
VERTEX
  8
0
  6
CONTINUOUS
 62
     7
 10
-132.15335
 20
113.13731
 42
0.060900827
  0
VERTEX
  8
0
  6
CONTINUOUS
 62
     7
 10
-132.86545
 20
115.79202
 42
0
  0
SEQEND
  8
0
  0
POLYLINE
  8
0
  6
CONTINUOUS
 62
     7
 66
     1
 10
0
 20
0
  0
VERTEX
  8
0
  6
CONTINUOUS
 62
     7
 10
-145.67151
 20
105.91759
 42
0.016246285
  0
VERTEX
  8
0
  6
CONTINUOUS
 62
     7
 10
-146.1172
 20
103.26302
 42
0.016520534
  0
VERTEX
  8
0
  6
CONTINUOUS
 62
     7
 10
-146.38823
 20
100.58471
 42
0.016923018
  0
VERTEX
  8
0
  6
CONTINUOUS
 62
     7
 10
-146.4798
 20
97.892021
 42
0
  0
SEQEND
  8
0
  0
POLYLINE
  8
0
  6
CONTINUOUS
 62
     7
 66
     1
 10
0
 20
0
  0
VERTEX
  8
0
  6
CONTINUOUS
 62
     7
 10
-75.47982
 20
97.892021
 42
-0.016924364
  0
VERTEX
  8
0
  6
CONTINUOUS
 62
     7
 10
-75.388235
 20
100.5849
 42
-0.01653495
  0
VERTEX
  8
0
  6
CONTINUOUS
 62
     7
 10
-75.11688
 20
103.26558
 42
-0.016230051
  0
VERTEX
  8
0
  6
CONTINUOUS
 62
     7
 10
-74.671532
 20
105.91759
 42
0
  0
SEQEND
  8
0
  0
POLYLINE
  8
0
  6
CONTINUOUS
 62
     7
 66
     1
 10
0
 20
0
  0
VERTEX
  8
0
  6
CONTINUOUS
 62
     7
 10
-61.865452
 20
115.79202
 42
-0.060911984
  0
VERTEX
  8
0
  6
CONTINUOUS
 62
     7
 10
-61.153298
 20
113.13689
 42
-0.069925443
  0
VERTEX
  8
0
  6
CONTINUOUS
 62
     7
 10
-61.153073
 20
110.39021
 42
-0.060971265
  0
VERTEX
  8
0
  6
CONTINUOUS
 62
     7
 10
-61.865452
 20
107.73563
 42
0
  0
SEQEND
  8
0
  0
POLYLINE
  8
0
  6
CONTINUOUS
 62
     7
 66
     1
 10
0
 20
0
  0
VERTEX
  8
0
  6
CONTINUOUS
 62
     7
 10
-74.671532
 20
107.73563
 42
-0.060980192
  0
VERTEX
  8
0
  6
CONTINUOUS
 62
     7
 10
-75.383968
 20
110.39063
 42
-0.069926221
  0
VERTEX
  8
0
  6
CONTINUOUS
 62
     7
 10
-75.383627
 20
113.13731
 42
-0.060900827
  0
VERTEX
  8
0
  6
CONTINUOUS
 62
     7
 10
-74.671532
 20
115.79202
 42
0
  0
SEQEND
  8
0
  0
POLYLINE
  8
0
  6
CONTINUOUS
 62
     7
 66
     1
 10
0
 20
0
  0
VERTEX
  8
0
  6
CONTINUOUS
 62
     7
 10
-61.865452
 20
105.91759
 42
-0.016246285
  0
VERTEX
  8
0
  6
CONTINUOUS
 62
     7
 10
-61.419757
 20
103.26302
 42
-0.016520534
  0
VERTEX
  8
0
  6
CONTINUOUS
 62
     7
 10
-61.148735
 20
100.58471
 42
-0.016923018
  0
VERTEX
  8
0
  6
CONTINUOUS
 62
     7
 10
-61.057163
 20
97.892021
 42
0
  0
SEQEND
  8
0
  0
POLYLINE
  8
0
  6
CONTINUOUS
 62
     7
 66
     1
 10
0
 20
0
  0
VERTEX
  8
0
  6
CONTINUOUS
 62
     7
 10
-75.47982
 20
97.892021
 42
0.016924364
  0
VERTEX
  8
0
  6
CONTINUOUS
 62
     7
 10
-75.388235
 20
95.199144
 42
0.01653495
  0
VERTEX
  8
0
  6
CONTINUOUS
 62
     7
 10
-75.11688
 20
92.51846
 42
0.016230051
  0
VERTEX
  8
0
  6
CONTINUOUS
 62
     7
 10
-74.671532
 20
89.866447
 42
0
  0
SEQEND
  8
0
  0
POLYLINE
  8
0
  6
CONTINUOUS
 62
     7
 66
     1
 10
0
 20
0
  0
VERTEX
  8
0
  6
CONTINUOUS
 62
     7
 10
-61.865452
 20
79.992027
 42
0.060911984
  0
VERTEX
  8
0
  6
CONTINUOUS
 62
     7
 10
-61.153298
 20
82.647152
 42
0.069925443
  0
VERTEX
  8
0
  6
CONTINUOUS
 62
     7
 10
-61.153073
 20
85.393832
 42
0.060971265
  0
VERTEX
  8
0
  6
CONTINUOUS
 62
     7
 10
-61.865452
 20
88.048409
 42
0
  0
SEQEND
  8
0
  0
POLYLINE
  8
0
  6
CONTINUOUS
 62
     7
 66
     1
 10
0
 20
0
  0
VERTEX
  8
0
  6
CONTINUOUS
 62
     7
 10
-74.671532
 20
88.048409
 42
0.060980192
  0
VERTEX
  8
0
  6
CONTINUOUS
 62
     7
 10
-75.383968
 20
85.393414
 42
0.069926221
  0
VERTEX
  8
0
  6
CONTINUOUS
 62
     7
 10
-75.383627
 20
82.646731
 42
0.060900827
  0
VERTEX
  8
0
  6
CONTINUOUS
 62
     7
 10
-74.671532
 20
79.992027
 42
0
  0
SEQEND
  8
0
  0
POLYLINE
  8
0
  6
CONTINUOUS
 62
     7
 66
     1
 10
0
 20
0
  0
VERTEX
  8
0
  6
CONTINUOUS
 62
     7
 10
-61.865452
 20
89.866447
 42
0.016246285
  0
VERTEX
  8
0
  6
CONTINUOUS
 62
     7
 10
-61.419757
 20
92.521022
 42
0.016520534
  0
VERTEX
  8
0
  6
CONTINUOUS
 62
     7
 10
-61.148735
 20
95.199328
 42
0.016923018
  0
VERTEX
  8
0
  6
CONTINUOUS
 62
     7
 10
-61.057163
 20
97.892021
 42
0
  0
SEQEND
  8
0
  0
TEXT
  8
0
  6
CONTINUOUS
 62
     7
 10
-176.10388
 20
271.3978
 40
5
 41
0.8437661
  1
ＭＲ－Ｊ　　給水栓チーズ
  0
TEXT
  8
0
  6
CONTINUOUS
 62
     7
 10
-156.27746
 20
221.23617
 40
4.8000002
 41
1.0084034
  1
13X1/2
  0
TEXT
  8
0
  6
CONTINUOUS
 62
     7
 10
-161.62426
 20
130.34043
 40
4.8000002
 41
1.0084034
  1
20X3/4
  0
LINE
  8
1
  6
CONTINUOUS
 62
     7
 10
-210
 20
0
 11
0
 21
0
  0
LINE
  8
1
  6
CONTINUOUS
 62
     7
 10
-210
 20
297
 11
0
 21
297
  0
LINE
  8
1
  6
CONTINUOUS
 62
     7
 10
0
 20
297
 11
0
 21
0
  0
LINE
  8
1
  6
CONTINUOUS
 62
     7
 10
-210
 20
297
 11
-210
 21
0
  0
ENDSEC
  0
EOF
