  0
SECTION
  2
HEADER
  9
$EXTMAX
 10
0
 20
297
  9
$EXTMIN
 10
-210
 20
0
  0
ENDSEC
  0
SECTION
  2
TABLES
  0
TABLE
  2
LTYPE
 70
    22
  0
LTYPE
  2
CONTINUOUS
 70
    64
  3
Solid line
 72
    65
 73
     0
 40
0.000000
  0
LTYPE
  2
DASHED
 70
    64
  3
__ __ __ __ __ __ __ __ __ __ __ __ __ __ __
 72
    65
 73
     2
 40
3.500000
 49
2.000000
 49
-1.500000
  0
LTYPE
  2
CENTER
 70
    64
  3
____ _ ____ _ ____ _ ____ _ ____ _ ____ _ ____
 72
    65
 73
     4
 40
17.500000
 49
13.000000
 49
-1.500000
 49
1.500000
 49
-1.500000
  0
LTYPE
  2
PHANTOM
 70
    64
  3
_____ _ _ _____ _ _ _____ _ _ _____ _ _ ____  
 72
    65
 73
     6
 40
15.500000
 49
8.000000
 49
-1.500000
 49
1.500000
 49
-1.500000
 49
1.500000
 49
-1.500000
  0
LTYPE
  2
DOT
 70
    64
  3
. . . . . . . . . . . . . . . . . . . . . . . .
 72
    65
 73
     2
 40
0.25
 49
0.0
 49
-0.25
  0
ENDTAB
  0
TABLE
  2
LAYER
 70
     2
  0
LAYER
  2
0
 70
     0
 62
     7
  6
CONTINUOUS
  0
LAYER
  2
1
 70
     0
 62
     7
  6
CONTINUOUS
  0
ENDTAB
  0
TABLE
  2
STYLE
 70
     1
  0
STYLE
  2
STANDARD
 70
     0
 40
0.000000
 41
1.000000
 50
0.000000
 71
     0
 42
0.200000
  3
txt
  4
BIGFONT
  0
ENDTAB
  0
TABLE
  2
VIEW
 70
     0
  0
ENDTAB
  0
ENDSEC
  0
SECTION
  2
BLOCKS
  0
ENDSEC
  0
SECTION
  2
ENTITIES
  0
POINT
  8
0
  6
CONTINUOUS
 62
     7
 10
-138.60255
 20
210.63382
  0
POINT
  8
0
  6
CONTINUOUS
 62
     7
 10
-138.60255
 20
145.63382
  0
POINT
  8
0
  6
CONTINUOUS
 62
     7
 10
-138.60255
 20
70.633804
  0
POINT
  8
0
  6
CONTINUOUS
 62
     7
 10
-138.60255
 20
145.63382
  0
POINT
  8
0
  6
CONTINUOUS
 62
     7
 10
-138.60255
 20
210.63382
  0
POINT
  8
0
  6
CONTINUOUS
 62
     7
 10
-138.60255
 20
70.633804
  0
LINE
  8
0
  6
CONTINUOUS
 62
     7
 10
-154.17996
 20
271.4249
 11
-152.17996
 21
271.4249
  0
LINE
  8
0
  6
CONTINUOUS
 62
     7
 10
-154.17996
 20
276.28983
 11
-152.17996
 21
276.28983
  0
LINE
  8
0
  6
CONTINUOUS
 62
     7
 10
-152.67996
 20
276.28983
 11
-152.67996
 21
271.4249
  0
LINE
  8
0
  6
CONTINUOUS
 62
     7
 10
-153.67996
 20
276.28983
 11
-153.67996
 21
271.4249
  0
LINE
  8
0
  6
CONTINUOUS
 62
     7
 10
-96.353104
 20
216.3688
 11
-96.353104
 21
218.15863
  0
LINE
  8
0
  6
CONTINUOUS
 62
     7
 10
-96.353104
 20
216.3688
 11
-109.85201
 21
216.3688
  0
LINE
  8
0
  6
CONTINUOUS
 62
     7
 10
-96.353104
 20
218.15863
 11
-109.85201
 21
218.15863
  0
LINE
  8
0
  6
CONTINUOUS
 62
     7
 10
-109.85201
 20
216.3688
 11
-109.85201
 21
218.15863
  0
LINE
  8
0
  6
CONTINUOUS
 62
     7
 10
-110.60255
 20
210.63382
 11
-110.60255
 21
222.63382
  0
LINE
  8
0
  6
CONTINUOUS
 62
     7
 10
-109.852
 20
223.93379
 11
-110.60256
 21
222.63378
  0
LINE
  8
0
  6
CONTINUOUS
 62
     7
 10
-96.353104
 20
223.93382
 11
-109.85201
 21
223.93382
  0
LINE
  8
0
  6
CONTINUOUS
 62
     7
 10
-95.602538
 20
222.63379
 11
-96.353103
 21
223.93381
  0
LINE
  8
0
  6
CONTINUOUS
 62
     7
 10
-95.602554
 20
210.63382
 11
-95.602554
 21
222.63382
  0
LINE
  8
0
  6
CONTINUOUS
 62
     7
 10
-96.353104
 20
204.89883
 11
-96.353104
 21
203.10901
  0
LINE
  8
0
  6
CONTINUOUS
 62
     7
 10
-96.353104
 20
204.89883
 11
-109.85201
 21
204.89883
  0
LINE
  8
0
  6
CONTINUOUS
 62
     7
 10
-96.353104
 20
203.10901
 11
-109.85201
 21
203.10901
  0
LINE
  8
0
  6
CONTINUOUS
 62
     7
 10
-109.85201
 20
204.89883
 11
-109.85201
 21
203.10901
  0
LINE
  8
0
  6
CONTINUOUS
 62
     7
 10
-110.60255
 20
210.63382
 11
-110.60255
 21
198.63382
  0
LINE
  8
0
  6
CONTINUOUS
 62
     7
 10
-109.852
 20
197.33384
 11
-110.60255
 21
198.63383
  0
LINE
  8
0
  6
CONTINUOUS
 62
     7
 10
-96.353104
 20
197.3338
 11
-109.85201
 21
197.3338
  0
LINE
  8
0
  6
CONTINUOUS
 62
     7
 10
-95.602557
 20
198.63383
 11
-96.353114
 21
197.33383
  0
LINE
  8
0
  6
CONTINUOUS
 62
     7
 10
-95.602554
 20
210.63382
 11
-95.602554
 21
198.63382
  0
LINE
  8
0
  6
CONTINUOUS
 62
     7
 10
-95.699532
 20
163.53382
 11
-94.602562
 21
161.63382
  0
LINE
  8
0
  6
CONTINUOUS
 62
     7
 10
-108.5056
 20
163.5338
 11
-95.699524
 21
163.5338
  0
LINE
  8
0
  6
CONTINUOUS
 62
     7
 10
-109.60257
 20
161.63381
 11
-108.50561
 21
163.5338
  0
LINE
  8
0
  6
CONTINUOUS
 62
     7
 10
-109.60255
 20
145.63382
 11
-109.60255
 21
161.6338
  0
LINE
  8
0
  6
CONTINUOUS
 62
     7
 10
-108.5056
 20
153.65939
 11
-108.5056
 21
155.47743
  0
LINE
  8
0
  6
CONTINUOUS
 62
     7
 10
-108.5056
 20
155.47743
 11
-95.699524
 21
155.47743
  0
LINE
  8
0
  6
CONTINUOUS
 62
     7
 10
-108.5056
 20
153.65939
 11
-95.699524
 21
153.65939
  0
LINE
  8
0
  6
CONTINUOUS
 62
     7
 10
-94.602554
 20
145.63382
 11
-94.602554
 21
161.6338
  0
LINE
  8
0
  6
CONTINUOUS
 62
     7
 10
-95.699524
 20
153.65939
 11
-95.699524
 21
155.47743
  0
LINE
  8
0
  6
CONTINUOUS
 62
     7
 10
-95.699533
 20
127.73381
 11
-94.602563
 21
129.63382
  0
LINE
  8
0
  6
CONTINUOUS
 62
     7
 10
-108.5056
 20
127.73383
 11
-95.699524
 21
127.73383
  0
LINE
  8
0
  6
CONTINUOUS
 62
     7
 10
-109.60255
 20
129.6338
 11
-108.5056
 21
127.73383
  0
LINE
  8
0
  6
CONTINUOUS
 62
     7
 10
-109.60255
 20
145.63382
 11
-109.60255
 21
129.63382
  0
LINE
  8
0
  6
CONTINUOUS
 62
     7
 10
-108.5056
 20
137.60825
 11
-108.5056
 21
135.79021
  0
LINE
  8
0
  6
CONTINUOUS
 62
     7
 10
-108.5056
 20
135.79021
 11
-95.699524
 21
135.79021
  0
LINE
  8
0
  6
CONTINUOUS
 62
     7
 10
-108.5056
 20
137.60825
 11
-95.699524
 21
137.60825
  0
LINE
  8
0
  6
CONTINUOUS
 62
     7
 10
-94.602554
 20
145.63382
 11
-94.602554
 21
129.63382
  0
LINE
  8
0
  6
CONTINUOUS
 62
     7
 10
-95.699524
 20
137.60825
 11
-95.699524
 21
135.79021
  0
LINE
  8
0
  6
CONTINUOUS
 62
     7
 10
-113.00899
 20
131.63382
 11
-109.60255
 21
131.63382
  0
LINE
  8
0
  6
CONTINUOUS
 62
     7
 10
-122.27071
 20
131.38382
 11
-113.44197
 21
131.38382
  0
LINE
  8
0
  6
CONTINUOUS
 62
     7
 10
-111.60255
 20
132.44582
 11
-109.60255
 21
132.44582
  0
LINE
  8
0
  6
CONTINUOUS
 62
     7
 10
-113.44199
 20
131.38381
 11
-113.00898
 21
131.63381
  0
LINE
  8
0
  6
CONTINUOUS
 62
     7
 10
-111.60255
 20
145.63382
 11
-111.60255
 21
131.63382
  0
LINE
  8
0
  6
CONTINUOUS
 62
     7
 10
-113.00898
 20
131.63381
 11
-111.60256
 21
132.44581
  0
LINE
  8
0
  6
CONTINUOUS
 62
     7
 10
-138.60255
 20
145.63382
 11
-138.60255
 21
129.63382
  0
LINE
  8
0
  6
CONTINUOUS
 62
     7
 10
-138.60255
 20
129.63382
 11
-136.60255
 21
129.63382
  0
LINE
  8
0
  6
CONTINUOUS
 62
     7
 10
-130.60255
 20
145.63382
 11
-130.60255
 21
132.13382
  0
LINE
  8
0
  6
CONTINUOUS
 62
     7
 10
-130.60255
 20
132.13382
 11
-124.60255
 21
132.13382
  0
LINE
  8
0
  6
CONTINUOUS
 62
     7
 10
-130.60257
 20
132.1338
 11
-131.80834
 21
130.04535
  0
LINE
  8
0
  6
CONTINUOUS
 62
     7
 10
-131.80833
 20
130.04536
 11
-136.60255
 21
130.04536
  0
LINE
  8
0
  6
CONTINUOUS
 62
     7
 10
-131.80833
 20
137.83958
 11
-136.60255
 21
137.83958
  0
LINE
  8
0
  6
CONTINUOUS
 62
     7
 10
-136.60255
 20
130.04536
 11
-136.60255
 21
129.63382
  0
LINE
  8
0
  6
CONTINUOUS
 62
     7
 10
-136.60255
 20
145.63382
 11
-136.60255
 21
130.04536
  0
LINE
  8
0
  6
CONTINUOUS
 62
     7
 10
-122.60255
 20
145.63382
 11
-122.60255
 21
132.2999
  0
LINE
  8
0
  6
CONTINUOUS
 62
     7
 10
-123.43663
 20
145.63382
 11
-123.43663
 21
132.62663
  0
LINE
  8
0
  6
CENTER
 62
     7
 10
-143.60255
 20
145.63382
 11
-87.800934
 21
145.63382
  0
LINE
  8
0
  6
CONTINUOUS
 62
     7
 10
-113.00899
 20
159.6338
 11
-109.60255
 21
159.6338
  0
LINE
  8
0
  6
CONTINUOUS
 62
     7
 10
-122.27071
 20
159.8838
 11
-113.44197
 21
159.8838
  0
LINE
  8
0
  6
CONTINUOUS
 62
     7
 10
-111.60255
 20
158.82182
 11
-109.60255
 21
158.82182
  0
LINE
  8
0
  6
CONTINUOUS
 62
     7
 10
-113.44198
 20
159.8838
 11
-113.00896
 21
159.6338
  0
LINE
  8
0
  6
CONTINUOUS
 62
     7
 10
-111.60255
 20
145.63382
 11
-111.60255
 21
159.6338
  0
LINE
  8
0
  6
CONTINUOUS
 62
     7
 10
-113.00896
 20
159.6338
 11
-111.60254
 21
158.8218
  0
LINE
  8
0
  6
CONTINUOUS
 62
     7
 10
-138.60255
 20
145.63382
 11
-138.60255
 21
161.6338
  0
LINE
  8
0
  6
CONTINUOUS
 62
     7
 10
-138.60255
 20
161.6338
 11
-136.60255
 21
161.6338
  0
LINE
  8
0
  6
CONTINUOUS
 62
     7
 10
-130.60255
 20
145.63382
 11
-130.60255
 21
159.1338
  0
LINE
  8
0
  6
CONTINUOUS
 62
     7
 10
-130.60255
 20
159.1338
 11
-124.60255
 21
159.1338
  0
LINE
  8
0
  6
CONTINUOUS
 62
     7
 10
-130.60256
 20
159.13381
 11
-131.80834
 21
161.22228
  0
LINE
  8
0
  6
CONTINUOUS
 62
     7
 10
-131.80833
 20
161.22224
 11
-136.60255
 21
161.22224
  0
LINE
  8
0
  6
CONTINUOUS
 62
     7
 10
-131.80833
 20
153.42805
 11
-136.60255
 21
153.42805
  0
LINE
  8
0
  6
CONTINUOUS
 62
     7
 10
-136.60255
 20
161.22224
 11
-136.60255
 21
161.6338
  0
LINE
  8
0
  6
CONTINUOUS
 62
     7
 10
-136.60255
 20
145.63382
 11
-136.60255
 21
161.22224
  0
LINE
  8
0
  6
CONTINUOUS
 62
     7
 10
-122.60255
 20
145.63382
 11
-122.60255
 21
158.96774
  0
LINE
  8
0
  6
CONTINUOUS
 62
     7
 10
-123.43663
 20
145.63382
 11
-123.43663
 21
158.64101
  0
LINE
  8
0
  6
CONTINUOUS
 62
     7
 10
-116.71507
 20
199.88382
 11
-114.442
 21
199.88382
  0
LINE
  8
0
  6
CONTINUOUS
 62
     7
 10
-114.00899
 20
200.13382
 11
-110.60255
 21
200.13382
  0
LINE
  8
0
  6
CONTINUOUS
 62
     7
 10
-112.60255
 20
200.94582
 11
-110.60255
 21
200.94582
  0
LINE
  8
0
  6
CONTINUOUS
 62
     7
 10
-114.44199
 20
199.88379
 11
-114.00898
 21
200.13379
  0
LINE
  8
0
  6
CENTER
 62
     7
 10
-143.60255
 20
210.63382
 11
-89.252548
 21
210.63382
  0
LINE
  8
0
  6
CONTINUOUS
 62
     7
 10
-112.60255
 20
210.63382
 11
-112.60255
 21
200.13382
  0
LINE
  8
0
  6
CONTINUOUS
 62
     7
 10
-114.00898
 20
200.13379
 11
-112.60255
 21
200.9458
  0
LINE
  8
0
  6
CONTINUOUS
 62
     7
 10
-138.60255
 20
210.63382
 11
-138.60255
 21
194.63382
  0
LINE
  8
0
  6
CONTINUOUS
 62
     7
 10
-136.60255
 20
195.04535
 11
-131.80833
 21
195.04535
  0
LINE
  8
0
  6
CONTINUOUS
 62
     7
 10
-130.60255
 20
210.63382
 11
-130.60255
 21
197.13382
  0
LINE
  8
0
  6
CONTINUOUS
 62
     7
 10
-136.60255
 20
202.83958
 11
-131.80833
 21
202.83958
  0
LINE
  8
0
  6
CONTINUOUS
 62
     7
 10
-130.60255
 20
197.13382
 11
-123.60255
 21
197.13382
  0
LINE
  8
0
  6
CONTINUOUS
 62
     7
 10
-131.80834
 20
195.04535
 11
-130.60256
 21
197.13381
  0
LINE
  8
0
  6
CONTINUOUS
 62
     7
 10
-138.60255
 20
194.63382
 11
-136.60255
 21
194.63382
  0
LINE
  8
0
  6
CONTINUOUS
 62
     7
 10
-136.60255
 20
210.63382
 11
-136.60255
 21
194.63382
  0
LINE
  8
0
  6
CONTINUOUS
 62
     7
 10
-116.71507
 20
221.38382
 11
-114.442
 21
221.38382
  0
LINE
  8
0
  6
CONTINUOUS
 62
     7
 10
-114.00899
 20
221.13382
 11
-110.60255
 21
221.13382
  0
LINE
  8
0
  6
CONTINUOUS
 62
     7
 10
-112.60255
 20
220.32182
 11
-110.60255
 21
220.32182
  0
LINE
  8
0
  6
CONTINUOUS
 62
     7
 10
-114.44198
 20
221.38386
 11
-114.00897
 21
221.13386
  0
LINE
  8
0
  6
CONTINUOUS
 62
     7
 10
-112.60255
 20
210.63382
 11
-112.60255
 21
221.13382
  0
LINE
  8
0
  6
CONTINUOUS
 62
     7
 10
-114.00897
 20
221.13386
 11
-112.60255
 21
220.32186
  0
LINE
  8
0
  6
CONTINUOUS
 62
     7
 10
-138.60255
 20
210.63382
 11
-138.60255
 21
226.63383
  0
LINE
  8
0
  6
CONTINUOUS
 62
     7
 10
-136.60255
 20
226.22231
 11
-131.80833
 21
226.22231
  0
LINE
  8
0
  6
CONTINUOUS
 62
     7
 10
-130.60255
 20
210.63382
 11
-130.60255
 21
224.13382
  0
LINE
  8
0
  6
CONTINUOUS
 62
     7
 10
-136.60255
 20
218.42805
 11
-131.80833
 21
218.42805
  0
LINE
  8
0
  6
CONTINUOUS
 62
     7
 10
-130.60255
 20
224.13382
 11
-123.60255
 21
224.13382
  0
LINE
  8
0
  6
CONTINUOUS
 62
     7
 10
-131.80833
 20
226.2223
 11
-130.60255
 21
224.13382
  0
LINE
  8
0
  6
CONTINUOUS
 62
     7
 10
-138.60255
 20
226.63383
 11
-136.60255
 21
226.63383
  0
LINE
  8
0
  6
CONTINUOUS
 62
     7
 10
-136.60255
 20
210.63382
 11
-136.60255
 21
226.63383
  0
LINE
  8
0
  6
CONTINUOUS
 62
     7
 10
-110.00897
 20
56.633804
 11
-106.60257
 21
56.633804
  0
LINE
  8
0
  6
CONTINUOUS
 62
     7
 10
-114.36063
 20
56.383804
 11
-110.44199
 21
56.383804
  0
LINE
  8
0
  6
CONTINUOUS
 62
     7
 10
-108.60255
 20
57.445816
 11
-106.60257
 21
57.445816
  0
LINE
  8
0
  6
CONTINUOUS
 62
     7
 10
-110.442
 20
56.383835
 11
-110.00898
 21
56.633835
  0
LINE
  8
0
  6
CONTINUOUS
 62
     7
 10
-108.60255
 20
70.633804
 11
-108.60255
 21
56.633804
  0
LINE
  8
0
  6
CONTINUOUS
 62
     7
 10
-110.00898
 20
56.633835
 11
-108.60256
 21
57.445831
  0
LINE
  8
0
  6
CONTINUOUS
 62
     7
 10
-122.10255
 20
54.633804
 11
-128.60255
 21
54.633804
  0
LINE
  8
0
  6
CONTINUOUS
 62
     7
 10
-138.60255
 20
70.633804
 11
-138.60255
 21
50.133804
  0
LINE
  8
0
  6
CONTINUOUS
 62
     7
 10
-135.60255
 20
50.133804
 11
-138.60255
 21
50.133804
  0
LINE
  8
0
  6
CONTINUOUS
 62
     7
 10
-130.03162
 20
52.158585
 11
-135.60255
 21
52.158585
  0
LINE
  8
0
  6
CONTINUOUS
 62
     7
 10
-128.60254
 20
54.633804
 11
-130.03161
 21
52.1586
  0
LINE
  8
0
  6
CONTINUOUS
 62
     7
 10
-130.03162
 20
61.396194
 11
-135.60255
 21
61.396194
  0
LINE
  8
0
  6
CONTINUOUS
 62
     7
 10
-135.60255
 20
70.633804
 11
-135.60255
 21
50.133804
  0
LINE
  8
0
  6
CONTINUOUS
 62
     7
 10
-128.60255
 20
70.633804
 11
-128.60255
 21
54.633804
  0
LINE
  8
0
  6
CENTER
 62
     7
 10
-143.60255
 20
70.633804
 11
-84.039429
 21
70.633804
  0
LINE
  8
0
  6
CONTINUOUS
 62
     7
 10
-110.00897
 20
84.633804
 11
-106.60257
 21
84.633804
  0
LINE
  8
0
  6
CONTINUOUS
 62
     7
 10
-114.36063
 20
84.883804
 11
-110.44199
 21
84.883804
  0
LINE
  8
0
  6
CONTINUOUS
 62
     7
 10
-108.60255
 20
83.821793
 11
-106.60257
 21
83.821793
  0
LINE
  8
0
  6
CONTINUOUS
 62
     7
 10
-110.44201
 20
84.883804
 11
-110.009
 21
84.633804
  0
LINE
  8
0
  6
CONTINUOUS
 62
     7
 10
-108.60255
 20
70.633804
 11
-108.60255
 21
84.633804
  0
LINE
  8
0
  6
CONTINUOUS
 62
     7
 10
-110.009
 20
84.633804
 11
-108.60255
 21
83.821793
  0
LINE
  8
0
  6
CONTINUOUS
 62
     7
 10
-122.10255
 20
86.633804
 11
-128.60255
 21
86.633804
  0
LINE
  8
0
  6
CONTINUOUS
 62
     7
 10
-138.60255
 20
70.633804
 11
-138.60255
 21
91.133804
  0
LINE
  8
0
  6
CONTINUOUS
 62
     7
 10
-135.60255
 20
91.133804
 11
-138.60255
 21
91.133804
  0
LINE
  8
0
  6
CONTINUOUS
 62
     7
 10
-130.03162
 20
89.109024
 11
-135.60255
 21
89.109024
  0
LINE
  8
0
  6
CONTINUOUS
 62
     7
 10
-128.60255
 20
86.633804
 11
-130.03161
 21
89.109024
  0
LINE
  8
0
  6
CONTINUOUS
 62
     7
 10
-130.03162
 20
79.871414
 11
-135.60255
 21
79.871414
  0
LINE
  8
0
  6
CONTINUOUS
 62
     7
 10
-135.60255
 20
70.633804
 11
-135.60255
 21
91.133804
  0
LINE
  8
0
  6
CONTINUOUS
 62
     7
 10
-128.60255
 20
70.633804
 11
-128.60255
 21
86.633804
  0
LINE
  8
0
  6
CONTINUOUS
 62
     7
 10
-92.699525
 20
88.533813
 11
-91.602555
 21
86.633804
  0
LINE
  8
0
  6
CONTINUOUS
 62
     7
 10
-105.5056
 20
88.533798
 11
-92.699524
 21
88.533798
  0
LINE
  8
0
  6
CONTINUOUS
 62
     7
 10
-106.60256
 20
86.633789
 11
-105.5056
 21
88.533783
  0
LINE
  8
0
  6
CONTINUOUS
 62
     7
 10
-106.60257
 20
70.633804
 11
-106.60257
 21
86.633804
  0
LINE
  8
0
  6
CONTINUOUS
 62
     7
 10
-105.5056
 20
78.659378
 11
-105.5056
 21
80.477432
  0
LINE
  8
0
  6
CONTINUOUS
 62
     7
 10
-105.5056
 20
80.477432
 11
-92.699524
 21
80.477432
  0
LINE
  8
0
  6
CONTINUOUS
 62
     7
 10
-105.5056
 20
78.659378
 11
-92.699524
 21
78.659378
  0
LINE
  8
0
  6
CONTINUOUS
 62
     7
 10
-91.602554
 20
70.633804
 11
-91.602554
 21
86.633804
  0
LINE
  8
0
  6
CONTINUOUS
 62
     7
 10
-92.699524
 20
78.659378
 11
-92.699524
 21
80.477432
  0
LINE
  8
0
  6
CONTINUOUS
 62
     7
 10
-92.699522
 20
52.733795
 11
-91.602552
 21
54.633804
  0
LINE
  8
0
  6
CONTINUOUS
 62
     7
 10
-105.5056
 20
52.73381
 11
-92.699524
 21
52.73381
  0
LINE
  8
0
  6
CONTINUOUS
 62
     7
 10
-106.60256
 20
54.63382
 11
-105.50559
 21
52.73381
  0
LINE
  8
0
  6
CONTINUOUS
 62
     7
 10
-106.60257
 20
70.633804
 11
-106.60257
 21
54.633804
  0
LINE
  8
0
  6
CONTINUOUS
 62
     7
 10
-105.5056
 20
62.608231
 11
-105.5056
 21
60.790207
  0
LINE
  8
0
  6
CONTINUOUS
 62
     7
 10
-105.5056
 20
60.790207
 11
-92.699524
 21
60.790207
  0
LINE
  8
0
  6
CONTINUOUS
 62
     7
 10
-105.5056
 20
62.608231
 11
-92.699524
 21
62.608231
  0
LINE
  8
0
  6
CONTINUOUS
 62
     7
 10
-91.602554
 20
70.633804
 11
-91.602554
 21
54.633804
  0
LINE
  8
0
  6
CONTINUOUS
 62
     7
 10
-92.699524
 20
62.608231
 11
-92.699524
 21
60.790207
  0
ARC
  8
0
  6
CONTINUOUS
 62
     7
 10
-124.60255
 20
130.13382
 40
2
 50
54.340913
 51
90.000003
  0
ARC
  8
0
  6
CONTINUOUS
 62
     7
 10
-122.27071
 20
133.38382
 40
2
 50
234.34091
 51
270
  0
ARC
  8
0
  6
CONTINUOUS
 62
     7
 10
-124.60255
 20
161.1338
 40
2
 50
270
 51
305.65909
  0
ARC
  8
0
  6
CONTINUOUS
 62
     7
 10
-122.27071
 20
157.88382
 40
2
 50
90.000003
 51
125.65909
  0
ARC
  8
0
  6
CONTINUOUS
 62
     7
 10
-123.60255
 20
200.13382
 40
3
 50
270
 51
313.53115
  0
ARC
  8
0
  6
CONTINUOUS
 62
     7
 10
-116.71507
 20
192.88382
 40
7
 50
90.000003
 51
133.53115
  0
ARC
  8
0
  6
CONTINUOUS
 62
     7
 10
-123.60255
 20
221.13382
 40
3
 50
46.468847
 51
90.000003
  0
ARC
  8
0
  6
CONTINUOUS
 62
     7
 10
-116.71507
 20
228.38383
 40
7
 50
226.46885
 51
270
  0
ARC
  8
0
  6
CONTINUOUS
 62
     7
 10
-122.10255
 20
57.633804
 40
3
 50
270
 51
295.47437
  0
ARC
  8
0
  6
CONTINUOUS
 62
     7
 10
-114.36063
 20
41.383804
 40
15
 50
90.000003
 51
115.47437
  0
ARC
  8
0
  6
CONTINUOUS
 62
     7
 10
-122.10255
 20
83.633804
 40
3
 50
64.52563
 51
90.000003
  0
ARC
  8
0
  6
CONTINUOUS
 62
     7
 10
-114.36063
 20
99.883812
 40
15
 50
244.52563
 51
270
  0
POLYLINE
  8
0
  6
CONTINUOUS
 62
     7
 66
     1
 10
0
 20
0
  0
VERTEX
  8
0
  6
CONTINUOUS
 62
     7
 10
-96.353104
 20
218.15863
 42
0.050243496
  0
VERTEX
  8
0
  6
CONTINUOUS
 62
     7
 10
-95.944758
 20
220.06932
 42
0.054947182
  0
VERTEX
  8
0
  6
CONTINUOUS
 62
     7
 10
-95.945032
 20
222.02373
 42
0.050155644
  0
VERTEX
  8
0
  6
CONTINUOUS
 62
     7
 10
-96.353104
 20
223.93382
 42
0
  0
SEQEND
  8
0
  0
POLYLINE
  8
0
  6
CONTINUOUS
 62
     7
 66
     1
 10
0
 20
0
  0
VERTEX
  8
0
  6
CONTINUOUS
 62
     7
 10
-96.353104
 20
216.3688
 42
-0.013138069
  0
VERTEX
  8
0
  6
CONTINUOUS
 62
     7
 10
-96.097824
 20
214.46741
 42
-0.013285875
  0
VERTEX
  8
0
  6
CONTINUOUS
 62
     7
 10
-95.943235
 20
212.55434
 42
-0.013500074
  0
VERTEX
  8
0
  6
CONTINUOUS
 62
     7
 10
-95.89122
 20
210.63382
 42
0
  0
SEQEND
  8
0
  0
POLYLINE
  8
0
  6
CONTINUOUS
 62
     7
 66
     1
 10
0
 20
0
  0
VERTEX
  8
0
  6
CONTINUOUS
 62
     7
 10
-109.85201
 20
216.3688
 42
0.013138069
  0
VERTEX
  8
0
  6
CONTINUOUS
 62
     7
 10
-110.10728
 20
214.46741
 42
0.013285875
  0
VERTEX
  8
0
  6
CONTINUOUS
 62
     7
 10
-110.26187
 20
212.55434
 42
0.013500074
  0
VERTEX
  8
0
  6
CONTINUOUS
 62
     7
 10
-110.31389
 20
210.63382
 42
0
  0
SEQEND
  8
0
  0
POLYLINE
  8
0
  6
CONTINUOUS
 62
     7
 66
     1
 10
0
 20
0
  0
VERTEX
  8
0
  6
CONTINUOUS
 62
     7
 10
-109.85201
 20
218.15863
 42
-0.050243496
  0
VERTEX
  8
0
  6
CONTINUOUS
 62
     7
 10
-110.26035
 20
220.06932
 42
-0.054947182
  0
VERTEX
  8
0
  6
CONTINUOUS
 62
     7
 10
-110.26008
 20
222.02373
 42
-0.050155644
  0
VERTEX
  8
0
  6
CONTINUOUS
 62
     7
 10
-109.85201
 20
223.93382
 42
0
  0
SEQEND
  8
0
  0
POLYLINE
  8
0
  6
CONTINUOUS
 62
     7
 66
     1
 10
0
 20
0
  0
VERTEX
  8
0
  6
CONTINUOUS
 62
     7
 10
-96.353104
 20
203.10901
 42
-0.050243631
  0
VERTEX
  8
0
  6
CONTINUOUS
 62
     7
 10
-95.944758
 20
201.19831
 42
-0.054947064
  0
VERTEX
  8
0
  6
CONTINUOUS
 62
     7
 10
-95.945033
 20
199.2439
 42
-0.050155593
  0
VERTEX
  8
0
  6
CONTINUOUS
 62
     7
 10
-96.353104
 20
197.3338
 42
0
  0
SEQEND
  8
0
  0
POLYLINE
  8
0
  6
CONTINUOUS
 62
     7
 66
     1
 10
0
 20
0
  0
VERTEX
  8
0
  6
CONTINUOUS
 62
     7
 10
-96.353104
 20
204.89883
 42
0.013138069
  0
VERTEX
  8
0
  6
CONTINUOUS
 62
     7
 10
-96.097824
 20
206.80023
 42
0.013285875
  0
VERTEX
  8
0
  6
CONTINUOUS
 62
     7
 10
-95.943235
 20
208.7133
 42
0.013500074
  0
VERTEX
  8
0
  6
CONTINUOUS
 62
     7
 10
-95.89122
 20
210.63382
 42
0
  0
SEQEND
  8
0
  0
POLYLINE
  8
0
  6
CONTINUOUS
 62
     7
 66
     1
 10
0
 20
0
  0
VERTEX
  8
0
  6
CONTINUOUS
 62
     7
 10
-109.85201
 20
204.89883
 42
-0.013138069
  0
VERTEX
  8
0
  6
CONTINUOUS
 62
     7
 10
-110.10728
 20
206.80023
 42
-0.013285875
  0
VERTEX
  8
0
  6
CONTINUOUS
 62
     7
 10
-110.26187
 20
208.7133
 42
-0.013500074
  0
VERTEX
  8
0
  6
CONTINUOUS
 62
     7
 10
-110.31389
 20
210.63382
 42
0
  0
SEQEND
  8
0
  0
POLYLINE
  8
0
  6
CONTINUOUS
 62
     7
 66
     1
 10
0
 20
0
  0
VERTEX
  8
0
  6
CONTINUOUS
 62
     7
 10
-109.85201
 20
203.10901
 42
0.050247136
  0
VERTEX
  8
0
  6
CONTINUOUS
 62
     7
 10
-110.26033
 20
201.19831
 42
0.054938951
  0
VERTEX
  8
0
  6
CONTINUOUS
 62
     7
 10
-110.26005
 20
199.2439
 42
0.050159115
  0
VERTEX
  8
0
  6
CONTINUOUS
 62
     7
 10
-109.85201
 20
197.3338
 42
0
  0
SEQEND
  8
0
  0
POLYLINE
  8
0
  6
CONTINUOUS
 62
     7
 66
     1
 10
0
 20
0
  0
VERTEX
  8
0
  6
CONTINUOUS
 62
     7
 10
-109.31389
 20
145.63382
 42
-0.016924364
  0
VERTEX
  8
0
  6
CONTINUOUS
 62
     7
 10
-109.2223
 20
148.3267
 42
-0.01653495
  0
VERTEX
  8
0
  6
CONTINUOUS
 62
     7
 10
-108.95095
 20
151.00738
 42
-0.016230051
  0
VERTEX
  8
0
  6
CONTINUOUS
 62
     7
 10
-108.5056
 20
153.65939
 42
0
  0
SEQEND
  8
0
  0
POLYLINE
  8
0
  6
CONTINUOUS
 62
     7
 66
     1
 10
0
 20
0
  0
VERTEX
  8
0
  6
CONTINUOUS
 62
     7
 10
-95.699524
 20
163.53383
 42
-0.060911958
  0
VERTEX
  8
0
  6
CONTINUOUS
 62
     7
 10
-94.98737
 20
160.8787
 42
-0.069925366
  0
VERTEX
  8
0
  6
CONTINUOUS
 62
     7
 10
-94.987144
 20
158.13201
 42
-0.060971343
  0
VERTEX
  8
0
  6
CONTINUOUS
 62
     7
 10
-95.699524
 20
155.47743
 42
0
  0
SEQEND
  8
0
  0
POLYLINE
  8
0
  6
CONTINUOUS
 62
     7
 66
     1
 10
0
 20
0
  0
VERTEX
  8
0
  6
CONTINUOUS
 62
     7
 10
-108.5056
 20
155.47743
 42
-0.060980074
  0
VERTEX
  8
0
  6
CONTINUOUS
 62
     7
 10
-109.21804
 20
158.13242
 42
-0.069926301
  0
VERTEX
  8
0
  6
CONTINUOUS
 62
     7
 10
-109.2177
 20
160.8791
 42
-0.060900889
  0
VERTEX
  8
0
  6
CONTINUOUS
 62
     7
 10
-108.5056
 20
163.5338
 42
0
  0
SEQEND
  8
0
  0
POLYLINE
  8
0
  6
CONTINUOUS
 62
     7
 66
     1
 10
0
 20
0
  0
VERTEX
  8
0
  6
CONTINUOUS
 62
     7
 10
-95.699524
 20
153.65939
 42
-0.01624566
  0
VERTEX
  8
0
  6
CONTINUOUS
 62
     7
 10
-95.253825
 20
151.00482
 42
-0.016520531
  0
VERTEX
  8
0
  6
CONTINUOUS
 62
     7
 10
-94.982796
 20
148.32651
 42
-0.016923645
  0
VERTEX
  8
0
  6
CONTINUOUS
 62
     7
 10
-94.89122
 20
145.63382
 42
0
  0
SEQEND
  8
0
  0
POLYLINE
  8
0
  6
CONTINUOUS
 62
     7
 66
     1
 10
0
 20
0
  0
VERTEX
  8
0
  6
CONTINUOUS
 62
     7
 10
-109.31389
 20
145.63382
 42
0.016924364
  0
VERTEX
  8
0
  6
CONTINUOUS
 62
     7
 10
-109.2223
 20
142.94094
 42
0.01653495
  0
VERTEX
  8
0
  6
CONTINUOUS
 62
     7
 10
-108.95095
 20
140.26026
 42
0.016230051
  0
VERTEX
  8
0
  6
CONTINUOUS
 62
     7
 10
-108.5056
 20
137.60825
 42
0
  0
SEQEND
  8
0
  0
POLYLINE
  8
0
  6
CONTINUOUS
 62
     7
 66
     1
 10
0
 20
0
  0
VERTEX
  8
0
  6
CONTINUOUS
 62
     7
 10
-95.699524
 20
127.73383
 42
0.060910734
  0
VERTEX
  8
0
  6
CONTINUOUS
 62
     7
 10
-94.987358
 20
130.38895
 42
0.069928351
  0
VERTEX
  8
0
  6
CONTINUOUS
 62
     7
 10
-94.987133
 20
133.13563
 42
0.060969987
  0
VERTEX
  8
0
  6
CONTINUOUS
 62
     7
 10
-95.699524
 20
135.79021
 42
0
  0
SEQEND
  8
0
  0
POLYLINE
  8
0
  6
CONTINUOUS
 62
     7
 66
     1
 10
0
 20
0
  0
VERTEX
  8
0
  6
CONTINUOUS
 62
     7
 10
-108.5056
 20
135.79021
 42
0.060980192
  0
VERTEX
  8
0
  6
CONTINUOUS
 62
     7
 10
-109.21804
 20
133.13521
 42
0.069926221
  0
VERTEX
  8
0
  6
CONTINUOUS
 62
     7
 10
-109.21769
 20
130.38853
 42
0.060900827
  0
VERTEX
  8
0
  6
CONTINUOUS
 62
     7
 10
-108.5056
 20
127.73383
 42
0
  0
SEQEND
  8
0
  0
POLYLINE
  8
0
  6
CONTINUOUS
 62
     7
 66
     1
 10
0
 20
0
  0
VERTEX
  8
0
  6
CONTINUOUS
 62
     7
 10
-95.699524
 20
137.60825
 42
0.01624566
  0
VERTEX
  8
0
  6
CONTINUOUS
 62
     7
 10
-95.253825
 20
140.26282
 42
0.016520531
  0
VERTEX
  8
0
  6
CONTINUOUS
 62
     7
 10
-94.982796
 20
142.94113
 42
0.016923645
  0
VERTEX
  8
0
  6
CONTINUOUS
 62
     7
 10
-94.89122
 20
145.63382
 42
0
  0
SEQEND
  8
0
  0
POLYLINE
  8
0
  6
CONTINUOUS
 62
     7
 66
     1
 10
0
 20
0
  0
VERTEX
  8
0
  6
CONTINUOUS
 62
     7
 10
-131.80833
 20
130.04536
 42
0.083552705
  0
VERTEX
  8
0
  6
CONTINUOUS
 62
     7
 10
-130.75684
 20
132.5769
 42
0.11298575
  0
VERTEX
  8
0
  6
CONTINUOUS
 62
     7
 10
-130.75685
 20
135.30807
 42
0.083551944
  0
VERTEX
  8
0
  6
CONTINUOUS
 62
     7
 10
-131.80833
 20
137.83958
 42
0
  0
SEQEND
  8
0
  0
POLYLINE
  8
0
  6
CONTINUOUS
 62
     7
 66
     1
 10
0
 20
0
  0
VERTEX
  8
0
  6
CONTINUOUS
 62
     7
 10
-131.80833
 20
137.83958
 42
0.023918388
  0
VERTEX
  8
0
  6
CONTINUOUS
 62
     7
 10
-131.14949
 20
140.39379
 42
0.02485215
  0
VERTEX
  8
0
  6
CONTINUOUS
 62
     7
 10
-130.74228
 20
142.99922
 42
0.026233737
  0
VERTEX
  8
0
  6
CONTINUOUS
 62
     7
 10
-130.60255
 20
145.63382
 42
0
  0
SEQEND
  8
0
  0
POLYLINE
  8
0
  6
CONTINUOUS
 62
     7
 66
     1
 10
0
 20
0
  0
VERTEX
  8
0
  6
CONTINUOUS
 62
     7
 10
-131.80833
 20
161.22224
 42
-0.083552794
  0
VERTEX
  8
0
  6
CONTINUOUS
 62
     7
 10
-130.75684
 20
158.69072
 42
-0.11298546
  0
VERTEX
  8
0
  6
CONTINUOUS
 62
     7
 10
-130.75685
 20
155.95958
 42
-0.083552134
  0
VERTEX
  8
0
  6
CONTINUOUS
 62
     7
 10
-131.80833
 20
153.42805
 42
0
  0
SEQEND
  8
0
  0
POLYLINE
  8
0
  6
CONTINUOUS
 62
     7
 66
     1
 10
0
 20
0
  0
VERTEX
  8
0
  6
CONTINUOUS
 62
     7
 10
-131.80833
 20
153.42805
 42
-0.023918388
  0
VERTEX
  8
0
  6
CONTINUOUS
 62
     7
 10
-131.14949
 20
150.87385
 42
-0.02485215
  0
VERTEX
  8
0
  6
CONTINUOUS
 62
     7
 10
-130.74228
 20
148.26842
 42
-0.026233737
  0
VERTEX
  8
0
  6
CONTINUOUS
 62
     7
 10
-130.60255
 20
145.63382
 42
0
  0
SEQEND
  8
0
  0
POLYLINE
  8
0
  6
CONTINUOUS
 62
     7
 66
     1
 10
0
 20
0
  0
VERTEX
  8
0
  6
CONTINUOUS
 62
     7
 10
-131.80833
 20
195.04535
 42
0.08355266
  0
VERTEX
  8
0
  6
CONTINUOUS
 62
     7
 10
-130.75684
 20
197.57689
 42
0.1129859
  0
VERTEX
  8
0
  6
CONTINUOUS
 62
     7
 10
-130.75685
 20
200.30807
 42
0.083551849
  0
VERTEX
  8
0
  6
CONTINUOUS
 62
     7
 10
-131.80833
 20
202.83958
 42
0
  0
SEQEND
  8
0
  0
POLYLINE
  8
0
  6
CONTINUOUS
 62
     7
 66
     1
 10
0
 20
0
  0
VERTEX
  8
0
  6
CONTINUOUS
 62
     7
 10
-131.80833
 20
202.83958
 42
0.023918388
  0
VERTEX
  8
0
  6
CONTINUOUS
 62
     7
 10
-131.14949
 20
205.39379
 42
0.02485215
  0
VERTEX
  8
0
  6
CONTINUOUS
 62
     7
 10
-130.74228
 20
207.99922
 42
0.026233737
  0
VERTEX
  8
0
  6
CONTINUOUS
 62
     7
 10
-130.60255
 20
210.63382
 42
0
  0
SEQEND
  8
0
  0
POLYLINE
  8
0
  6
CONTINUOUS
 62
     7
 66
     1
 10
0
 20
0
  0
VERTEX
  8
0
  6
CONTINUOUS
 62
     7
 10
-131.80833
 20
226.22231
 42
-0.083552616
  0
VERTEX
  8
0
  6
CONTINUOUS
 62
     7
 10
-130.75685
 20
223.69076
 42
-0.11298605
  0
VERTEX
  8
0
  6
CONTINUOUS
 62
     7
 10
-130.75685
 20
220.95957
 42
-0.083551754
  0
VERTEX
  8
0
  6
CONTINUOUS
 62
     7
 10
-131.80833
 20
218.42805
 42
0
  0
SEQEND
  8
0
  0
POLYLINE
  8
0
  6
CONTINUOUS
 62
     7
 66
     1
 10
0
 20
0
  0
VERTEX
  8
0
  6
CONTINUOUS
 62
     7
 10
-131.80833
 20
218.42805
 42
-0.023918388
  0
VERTEX
  8
0
  6
CONTINUOUS
 62
     7
 10
-131.14949
 20
215.87385
 42
-0.02485215
  0
VERTEX
  8
0
  6
CONTINUOUS
 62
     7
 10
-130.74228
 20
213.26842
 42
-0.026233737
  0
VERTEX
  8
0
  6
CONTINUOUS
 62
     7
 10
-130.60255
 20
210.63382
 42
0
  0
SEQEND
  8
0
  0
POLYLINE
  8
0
  6
CONTINUOUS
 62
     7
 66
     1
 10
0
 20
0
  0
VERTEX
  8
0
  6
CONTINUOUS
 62
     7
 10
-128.60255
 20
70.633812
 42
-0.026226742
  0
VERTEX
  8
0
  6
CONTINUOUS
 62
     7
 10
-128.76806
 20
67.512135
 42
-0.024858821
  0
VERTEX
  8
0
  6
CONTINUOUS
 62
     7
 10
-129.25076
 20
64.423416
 42
-0.023918812
  0
VERTEX
  8
0
  6
CONTINUOUS
 62
     7
 10
-130.03162
 20
61.396202
 42
0
  0
SEQEND
  8
0
  0
POLYLINE
  8
0
  6
CONTINUOUS
 62
     7
 66
     1
 10
0
 20
0
  0
VERTEX
  8
0
  6
CONTINUOUS
 62
     7
 10
-130.03162
 20
61.396202
 42
-0.083553525
  0
VERTEX
  8
0
  6
CONTINUOUS
 62
     7
 10
-128.78541
 20
58.395856
 42
-0.11298387
  0
VERTEX
  8
0
  6
CONTINUOUS
 62
     7
 10
-128.78542
 20
55.158913
 42
-0.083552764
  0
VERTEX
  8
0
  6
CONTINUOUS
 62
     7
 10
-130.03162
 20
52.158592
 42
0
  0
SEQEND
  8
0
  0
POLYLINE
  8
0
  6
CONTINUOUS
 62
     7
 66
     1
 10
0
 20
0
  0
VERTEX
  8
0
  6
CONTINUOUS
 62
     7
 10
-128.60255
 20
70.633812
 42
0.026226742
  0
VERTEX
  8
0
  6
CONTINUOUS
 62
     7
 10
-128.76806
 20
73.755489
 42
0.024858821
  0
VERTEX
  8
0
  6
CONTINUOUS
 62
     7
 10
-129.25076
 20
76.844207
 42
0.023918812
  0
VERTEX
  8
0
  6
CONTINUOUS
 62
     7
 10
-130.03162
 20
79.871422
 42
0
  0
SEQEND
  8
0
  0
POLYLINE
  8
0
  6
CONTINUOUS
 62
     7
 66
     1
 10
0
 20
0
  0
VERTEX
  8
0
  6
CONTINUOUS
 62
     7
 10
-130.03162
 20
79.871422
 42
0.083553525
  0
VERTEX
  8
0
  6
CONTINUOUS
 62
     7
 10
-128.78541
 20
82.871768
 42
0.11298387
  0
VERTEX
  8
0
  6
CONTINUOUS
 62
     7
 10
-128.78542
 20
86.108711
 42
0.083552764
  0
VERTEX
  8
0
  6
CONTINUOUS
 62
     7
 10
-130.03162
 20
89.109032
 42
0
  0
SEQEND
  8
0
  0
POLYLINE
  8
0
  6
CONTINUOUS
 62
     7
 66
     1
 10
0
 20
0
  0
VERTEX
  8
0
  6
CONTINUOUS
 62
     7
 10
-106.31389
 20
70.633812
 42
-0.016924364
  0
VERTEX
  8
0
  6
CONTINUOUS
 62
     7
 10
-106.2223
 20
73.326689
 42
-0.01653495
  0
VERTEX
  8
0
  6
CONTINUOUS
 62
     7
 10
-105.95095
 20
76.007373
 42
-0.016230051
  0
VERTEX
  8
0
  6
CONTINUOUS
 62
     7
 10
-105.5056
 20
78.659386
 42
0
  0
SEQEND
  8
0
  0
POLYLINE
  8
0
  6
CONTINUOUS
 62
     7
 66
     1
 10
0
 20
0
  0
VERTEX
  8
0
  6
CONTINUOUS
 62
     7
 10
-92.699524
 20
88.533806
 42
-0.060911841
  0
VERTEX
  8
0
  6
CONTINUOUS
 62
     7
 10
-91.987371
 20
85.878679
 42
-0.069925438
  0
VERTEX
  8
0
  6
CONTINUOUS
 62
     7
 10
-91.987143
 20
83.131999
 42
-0.060971411
  0
VERTEX
  8
0
  6
CONTINUOUS
 62
     7
 10
-92.699524
 20
80.477425
 42
0
  0
SEQEND
  8
0
  0
POLYLINE
  8
0
  6
CONTINUOUS
 62
     7
 66
     1
 10
0
 20
0
  0
VERTEX
  8
0
  6
CONTINUOUS
 62
     7
 10
-105.5056
 20
80.477425
 42
-0.060980339
  0
VERTEX
  8
0
  6
CONTINUOUS
 62
     7
 10
-106.21804
 20
83.132417
 42
-0.069926213
  0
VERTEX
  8
0
  6
CONTINUOUS
 62
     7
 10
-106.21769
 20
85.8791
 42
-0.060900688
  0
VERTEX
  8
0
  6
CONTINUOUS
 62
     7
 10
-105.5056
 20
88.533806
 42
0
  0
SEQEND
  8
0
  0
POLYLINE
  8
0
  6
CONTINUOUS
 62
     7
 66
     1
 10
0
 20
0
  0
VERTEX
  8
0
  6
CONTINUOUS
 62
     7
 10
-92.699524
 20
78.659386
 42
-0.016246285
  0
VERTEX
  8
0
  6
CONTINUOUS
 62
     7
 10
-92.253829
 20
76.004811
 42
-0.016520534
  0
VERTEX
  8
0
  6
CONTINUOUS
 62
     7
 10
-91.982808
 20
73.326505
 42
-0.016923018
  0
VERTEX
  8
0
  6
CONTINUOUS
 62
     7
 10
-91.891235
 20
70.633812
 42
0
  0
SEQEND
  8
0
  0
POLYLINE
  8
0
  6
CONTINUOUS
 62
     7
 66
     1
 10
0
 20
0
  0
VERTEX
  8
0
  6
CONTINUOUS
 62
     7
 10
-106.31389
 20
70.633812
 42
0.016924364
  0
VERTEX
  8
0
  6
CONTINUOUS
 62
     7
 10
-106.2223
 20
67.940935
 42
0.01653495
  0
VERTEX
  8
0
  6
CONTINUOUS
 62
     7
 10
-105.95095
 20
65.260251
 42
0.016230051
  0
VERTEX
  8
0
  6
CONTINUOUS
 62
     7
 10
-105.5056
 20
62.608238
 42
0
  0
SEQEND
  8
0
  0
POLYLINE
  8
0
  6
CONTINUOUS
 62
     7
 66
     1
 10
0
 20
0
  0
VERTEX
  8
0
  6
CONTINUOUS
 62
     7
 10
-92.699524
 20
52.733818
 42
0.060910734
  0
VERTEX
  8
0
  6
CONTINUOUS
 62
     7
 10
-91.987358
 20
55.388943
 42
0.069928351
  0
VERTEX
  8
0
  6
CONTINUOUS
 62
     7
 10
-91.987133
 20
58.135624
 42
0.060969987
  0
VERTEX
  8
0
  6
CONTINUOUS
 62
     7
 10
-92.699524
 20
60.790199
 42
0
  0
SEQEND
  8
0
  0
POLYLINE
  8
0
  6
CONTINUOUS
 62
     7
 66
     1
 10
0
 20
0
  0
VERTEX
  8
0
  6
CONTINUOUS
 62
     7
 10
-105.5056
 20
60.790199
 42
0.060980192
  0
VERTEX
  8
0
  6
CONTINUOUS
 62
     7
 10
-106.21804
 20
58.135205
 42
0.069926221
  0
VERTEX
  8
0
  6
CONTINUOUS
 62
     7
 10
-106.21769
 20
55.388522
 42
0.060900827
  0
VERTEX
  8
0
  6
CONTINUOUS
 62
     7
 10
-105.5056
 20
52.733818
 42
0
  0
SEQEND
  8
0
  0
POLYLINE
  8
0
  6
CONTINUOUS
 62
     7
 66
     1
 10
0
 20
0
  0
VERTEX
  8
0
  6
CONTINUOUS
 62
     7
 10
-92.699524
 20
62.608238
 42
0.016246285
  0
VERTEX
  8
0
  6
CONTINUOUS
 62
     7
 10
-92.253829
 20
65.262813
 42
0.016520534
  0
VERTEX
  8
0
  6
CONTINUOUS
 62
     7
 10
-91.982808
 20
67.941119
 42
0.016923018
  0
VERTEX
  8
0
  6
CONTINUOUS
 62
     7
 10
-91.891235
 20
70.633812
 42
0
  0
SEQEND
  8
0
  0
TEXT
  8
0
  6
CONTINUOUS
 62
     7
 10
-176.10388
 20
271.3978
 40
5
 41
0.84326416
  1
ＭＲ－Ｊ　　給水栓用ソケット
  0
TEXT
  8
0
  6
CONTINUOUS
 62
     7
 10
-128.47955
 20
168.31838
 40
4.8000002
 41
1.0084034
  1
20X1/2
  0
TEXT
  8
0
  6
CONTINUOUS
 62
     7
 10
-129.32661
 20
230.57661
 40
4.8000002
 41
1.0084034
  1
13X1/2
  0
TEXT
  8
0
  6
CONTINUOUS
 62
     7
 10
-126.78545
 20
93.777933
 40
4.8000002
 41
1.0084034
  1
20X3/4
  0
LINE
  8
1
  6
CONTINUOUS
 62
     7
 10
-210
 20
0
 11
0
 21
0
  0
LINE
  8
1
  6
CONTINUOUS
 62
     7
 10
-210
 20
297
 11
0
 21
297
  0
LINE
  8
1
  6
CONTINUOUS
 62
     7
 10
0
 20
297
 11
0
 21
0
  0
LINE
  8
1
  6
CONTINUOUS
 62
     7
 10
-210
 20
297
 11
-210
 21
0
  0
ENDSEC
  0
EOF
