  0
SECTION
  2
HEADER
  9
$EXTMAX
 10
0
 20
297
  9
$EXTMIN
 10
-420
 20
0
  0
ENDSEC
  0
SECTION
  2
TABLES
  0
TABLE
  2
LTYPE
 70
    22
  0
LTYPE
  2
CONTINUOUS
 70
    64
  3
Solid line
 72
    65
 73
     0
 40
0.000000
  0
LTYPE
  2
DASHED
 70
    64
  3
__ __ __ __ __ __ __ __ __ __ __ __ __ __ __
 72
    65
 73
     2
 40
3.500000
 49
2.000000
 49
-1.500000
  0
LTYPE
  2
CENTER
 70
    64
  3
____ _ ____ _ ____ _ ____ _ ____ _ ____ _ ____
 72
    65
 73
     4
 40
17.500000
 49
13.000000
 49
-1.500000
 49
1.500000
 49
-1.500000
  0
LTYPE
  2
PHANTOM
 70
    64
  3
_____ _ _ _____ _ _ _____ _ _ _____ _ _ ____  
 72
    65
 73
     6
 40
15.500000
 49
8.000000
 49
-1.500000
 49
1.500000
 49
-1.500000
 49
1.500000
 49
-1.500000
  0
LTYPE
  2
DOT
 70
    64
  3
. . . . . . . . . . . . . . . . . . . . . . . .
 72
    65
 73
     2
 40
0.25
 49
0.0
 49
-0.25
  0
ENDTAB
  0
TABLE
  2
LAYER
 70
     2
  0
LAYER
  2
0
 70
     0
 62
     7
  6
CONTINUOUS
  0
LAYER
  2
1
 70
     0
 62
     7
  6
CONTINUOUS
  0
ENDTAB
  0
TABLE
  2
STYLE
 70
     1
  0
STYLE
  2
STANDARD
 70
     0
 40
0.000000
 41
1.000000
 50
0.000000
 71
     0
 42
0.200000
  3
txt
  4
BIGFONT
  0
ENDTAB
  0
TABLE
  2
VIEW
 70
     0
  0
ENDTAB
  0
ENDSEC
  0
SECTION
  2
BLOCKS
  0
ENDSEC
  0
SECTION
  2
ENTITIES
  0
POINT
  8
0
  6
CONTINUOUS
 62
     7
 10
-86.485718
 20
228.08835
  0
POINT
  8
0
  6
CONTINUOUS
 62
     7
 10
-191.9285
 20
233.56589
  0
POINT
  8
0
  6
CONTINUOUS
 62
     7
 10
-296.91479
 20
231.74004
  0
POINT
  8
0
  6
CONTINUOUS
 62
     7
 10
-377.25214
 20
233.56589
  0
POINT
  8
0
  6
CONTINUOUS
 62
     7
 10
-367.10187
 20
122.92052
  0
POINT
  8
0
  6
CONTINUOUS
 62
     7
 10
-274.14639
 20
123.87883
  0
POINT
  8
0
  6
CONTINUOUS
 62
     7
 10
-173.52452
 20
122.92052
  0
POINT
  8
0
  6
CONTINUOUS
 62
     7
 10
-78.652466
 20
123.87883
  0
LINE
  8
0
  6
CONTINUOUS
 62
     7
 10
-366.16858
 20
275.29315
 11
-364.16858
 21
275.29315
  0
LINE
  8
0
  6
CONTINUOUS
 62
     7
 10
-366.16858
 20
280.15808
 11
-364.16858
 21
280.15808
  0
LINE
  8
0
  6
CONTINUOUS
 62
     7
 10
-364.66858
 20
280.15808
 11
-364.66858
 21
275.29315
  0
LINE
  8
0
  6
CONTINUOUS
 62
     7
 10
-365.66858
 20
280.15808
 11
-365.66858
 21
275.29315
  0
LINE
  8
0
  6
CONTINUOUS
 62
     7
 10
-140.9285
 20
233.56589
 11
-140.9285
 21
254.06589
  0
LINE
  8
0
  6
CONTINUOUS
 62
     7
 10
-142.4296
 20
244.21295
 11
-142.4296
 21
245.99588
  0
LINE
  8
0
  6
CONTINUOUS
 62
     7
 10
-155.42738
 20
244.21295
 11
-142.4296
 21
244.21295
  0
LINE
  8
0
  6
CONTINUOUS
 62
     7
 10
-155.42738
 20
245.99585
 11
-142.4296
 21
245.99585
  0
LINE
  8
0
  6
CONTINUOUS
 62
     7
 10
-155.42738
 20
244.21295
 11
-155.42738
 21
245.99585
  0
LINE
  8
0
  6
CONTINUOUS
 62
     7
 10
-156.9285
 20
233.56589
 11
-156.9285
 21
254.06589
  0
LINE
  8
0
  6
CONTINUOUS
 62
     7
 10
-156.9285
 20
254.06589
 11
-155.42738
 21
256.66589
  0
LINE
  8
0
  6
CONTINUOUS
 62
     7
 10
-155.42738
 20
256.66586
 11
-142.4296
 21
256.66586
  0
LINE
  8
0
  6
CONTINUOUS
 62
     7
 10
-142.42958
 20
256.66587
 11
-140.92847
 21
254.06586
  0
LINE
  8
0
  6
CONTINUOUS
 62
     7
 10
-140.9285
 20
233.56589
 11
-140.9285
 21
213.06589
  0
LINE
  8
0
  6
CONTINUOUS
 62
     7
 10
-142.4296
 20
222.91882
 11
-142.4296
 21
221.13591
  0
LINE
  8
0
  6
CONTINUOUS
 62
     7
 10
-155.42738
 20
222.91882
 11
-142.4296
 21
222.91882
  0
LINE
  8
0
  6
CONTINUOUS
 62
     7
 10
-155.42738
 20
221.13591
 11
-142.4296
 21
221.13591
  0
LINE
  8
0
  6
CONTINUOUS
 62
     7
 10
-155.42738
 20
222.91882
 11
-155.42738
 21
221.13591
  0
LINE
  8
0
  6
CONTINUOUS
 62
     7
 10
-156.9285
 20
233.56589
 11
-156.9285
 21
213.06589
  0
LINE
  8
0
  6
CONTINUOUS
 62
     7
 10
-156.9285
 20
213.06588
 11
-155.42738
 21
210.46587
  0
LINE
  8
0
  6
CONTINUOUS
 62
     7
 10
-155.42738
 20
210.4659
 11
-142.4296
 21
210.4659
  0
LINE
  8
0
  6
CONTINUOUS
 62
     7
 10
-142.4296
 20
210.4659
 11
-140.92848
 21
213.0659
  0
LINE
  8
0
  6
CONTINUOUS
 62
     7
 10
-236.89696
 20
129.61382
 11
-236.89696
 21
131.40364
  0
LINE
  8
0
  6
CONTINUOUS
 62
     7
 10
-236.89696
 20
129.61382
 11
-250.39586
 21
129.61382
  0
LINE
  8
0
  6
CONTINUOUS
 62
     7
 10
-236.89696
 20
131.40364
 11
-250.39586
 21
131.40364
  0
LINE
  8
0
  6
CONTINUOUS
 62
     7
 10
-250.39586
 20
129.61382
 11
-250.39586
 21
131.40364
  0
LINE
  8
0
  6
CONTINUOUS
 62
     7
 10
-251.14641
 20
123.87883
 11
-251.14641
 21
135.87883
  0
LINE
  8
0
  6
CONTINUOUS
 62
     7
 10
-250.39588
 20
137.17882
 11
-251.14643
 21
135.87881
  0
LINE
  8
0
  6
CONTINUOUS
 62
     7
 10
-236.89696
 20
137.17883
 11
-250.39586
 21
137.17883
  0
LINE
  8
0
  6
CONTINUOUS
 62
     7
 10
-236.14642
 20
135.87879
 11
-236.89698
 21
137.17881
  0
LINE
  8
0
  6
CONTINUOUS
 62
     7
 10
-236.14641
 20
123.87883
 11
-236.14641
 21
135.87883
  0
LINE
  8
0
  6
CONTINUOUS
 62
     7
 10
-236.89696
 20
118.14384
 11
-236.89696
 21
116.35402
  0
LINE
  8
0
  6
CONTINUOUS
 62
     7
 10
-236.89696
 20
118.14384
 11
-250.39586
 21
118.14384
  0
LINE
  8
0
  6
CONTINUOUS
 62
     7
 10
-236.89696
 20
116.35402
 11
-250.39586
 21
116.35402
  0
LINE
  8
0
  6
CONTINUOUS
 62
     7
 10
-250.39586
 20
118.14384
 11
-250.39586
 21
116.35402
  0
LINE
  8
0
  6
CONTINUOUS
 62
     7
 10
-251.14641
 20
123.87883
 11
-251.14641
 21
111.87883
  0
LINE
  8
0
  6
CONTINUOUS
 62
     7
 10
-250.39586
 20
110.57884
 11
-251.14641
 21
111.87884
  0
LINE
  8
0
  6
CONTINUOUS
 62
     7
 10
-236.89696
 20
110.57881
 11
-250.39586
 21
110.57881
  0
LINE
  8
0
  6
CONTINUOUS
 62
     7
 10
-236.14642
 20
111.87884
 11
-236.89697
 21
110.57883
  0
LINE
  8
0
  6
CONTINUOUS
 62
     7
 10
-236.14641
 20
123.87883
 11
-236.14641
 21
111.87883
  0
LINE
  8
0
  6
CONTINUOUS
 62
     7
 10
-39.74942
 20
141.77883
 11
-38.652466
 21
139.87882
  0
LINE
  8
0
  6
CONTINUOUS
 62
     7
 10
-52.555511
 20
141.77882
 11
-39.74942
 21
141.77882
  0
LINE
  8
0
  6
CONTINUOUS
 62
     7
 10
-53.652466
 20
139.87881
 11
-52.555511
 21
141.77881
  0
LINE
  8
0
  6
CONTINUOUS
 62
     7
 10
-53.652466
 20
123.87883
 11
-53.652466
 21
139.87883
  0
LINE
  8
0
  6
CONTINUOUS
 62
     7
 10
-52.555511
 20
131.9044
 11
-52.555511
 21
133.72244
  0
LINE
  8
0
  6
CONTINUOUS
 62
     7
 10
-52.555511
 20
133.72244
 11
-39.74942
 21
133.72244
  0
LINE
  8
0
  6
CONTINUOUS
 62
     7
 10
-52.555511
 20
131.9044
 11
-39.74942
 21
131.9044
  0
LINE
  8
0
  6
CONTINUOUS
 62
     7
 10
-38.652466
 20
123.87883
 11
-38.652466
 21
139.87883
  0
LINE
  8
0
  6
CONTINUOUS
 62
     7
 10
-39.74942
 20
131.9044
 11
-39.74942
 21
133.72244
  0
LINE
  8
0
  6
CONTINUOUS
 62
     7
 10
-39.74942
 20
105.97881
 11
-38.652435
 21
107.87882
  0
LINE
  8
0
  6
CONTINUOUS
 62
     7
 10
-52.555511
 20
105.97884
 11
-39.74942
 21
105.97884
  0
LINE
  8
0
  6
CONTINUOUS
 62
     7
 10
-53.652466
 20
107.87882
 11
-52.555511
 21
105.97883
  0
LINE
  8
0
  6
CONTINUOUS
 62
     7
 10
-53.652466
 20
123.87883
 11
-53.652466
 21
107.87883
  0
LINE
  8
0
  6
CONTINUOUS
 62
     7
 10
-52.555511
 20
115.85326
 11
-52.555511
 21
114.03522
  0
LINE
  8
0
  6
CONTINUOUS
 62
     7
 10
-52.555511
 20
114.03522
 11
-39.74942
 21
114.03522
  0
LINE
  8
0
  6
CONTINUOUS
 62
     7
 10
-52.555511
 20
115.85326
 11
-39.74942
 21
115.85326
  0
LINE
  8
0
  6
CONTINUOUS
 62
     7
 10
-38.652466
 20
123.87883
 11
-38.652466
 21
107.87883
  0
LINE
  8
0
  6
CONTINUOUS
 62
     7
 10
-39.74942
 20
115.85326
 11
-39.74942
 21
114.03522
  0
LINE
  8
0
  6
CONTINUOUS
 62
     7
 10
-358.09158
 20
222.81589
 11
-360.75214
 21
222.81589
  0
LINE
  8
0
  6
CONTINUOUS
 62
     7
 10
-358.09158
 20
244.31589
 11
-366.25214
 21
244.31589
  0
LINE
  8
0
  6
CONTINUOUS
 62
     7
 10
-354.25214
 20
244.06589
 11
-357.65857
 21
244.06589
  0
LINE
  8
0
  6
CONTINUOUS
 62
     7
 10
-354.25214
 20
223.06589
 11
-357.65857
 21
223.06589
  0
LINE
  8
0
  6
CONTINUOUS
 62
     7
 10
-354.25214
 20
223.8779
 11
-356.25214
 21
223.8779
  0
LINE
  8
0
  6
CONTINUOUS
 62
     7
 10
-354.25214
 20
243.25391
 11
-356.25214
 21
243.25391
  0
LINE
  8
0
  6
CONTINUOUS
 62
     7
 10
-356.25216
 20
223.87791
 11
-357.65858
 21
223.06592
  0
LINE
  8
0
  6
CONTINUOUS
 62
     7
 10
-356.25214
 20
243.25391
 11
-357.65856
 21
244.0659
  0
LINE
  8
0
  6
CONTINUOUS
 62
     7
 10
-356.25214
 20
223.06589
 11
-356.25214
 21
244.06589
  0
LINE
  8
0
  6
CONTINUOUS
 62
     7
 10
-357.65856
 20
244.0659
 11
-358.09158
 21
244.3159
  0
LINE
  8
0
  6
CONTINUOUS
 62
     7
 10
-357.65858
 20
223.06592
 11
-358.09159
 21
222.81592
  0
LINE
  8
0
  6
CENTER
 62
     7
 10
-392.35172
 20
233.56589
 11
-331.65591
 21
233.56589
  0
LINE
  8
0
  6
CONTINUOUS
 62
     7
 10
-393.25214
 20
204.56589
 11
-361.25214
 21
204.56589
  0
LINE
  8
0
  6
CONTINUOUS
 62
     7
 10
-393.25214
 20
204.56589
 11
-393.25214
 21
206.56589
  0
LINE
  8
0
  6
CONTINUOUS
 62
     7
 10
-361.25214
 20
204.56589
 11
-361.25214
 21
206.56589
  0
LINE
  8
0
  6
CONTINUOUS
 62
     7
 10
-390.75214
 20
212.56589
 11
-363.75214
 21
212.56589
  0
LINE
  8
0
  6
CONTINUOUS
 62
     7
 10
-390.75214
 20
212.56589
 11
-390.75214
 21
219.81589
  0
LINE
  8
0
  6
CONTINUOUS
 62
     7
 10
-363.75214
 20
212.56589
 11
-363.75214
 21
219.81589
  0
LINE
  8
0
  6
CONTINUOUS
 62
     7
 10
-363.75214
 20
212.56589
 11
-361.66367
 21
211.36011
  0
LINE
  8
0
  6
CONTINUOUS
 62
     7
 10
-392.84061
 20
211.36011
 11
-392.84061
 21
206.56589
  0
LINE
  8
0
  6
CONTINUOUS
 62
     7
 10
-361.6637
 20
211.36011
 11
-361.6637
 21
206.56589
  0
LINE
  8
0
  6
CONTINUOUS
 62
     7
 10
-385.04639
 20
211.36011
 11
-385.04639
 21
206.56589
  0
LINE
  8
0
  6
CONTINUOUS
 62
     7
 10
-369.45792
 20
211.36011
 11
-369.45792
 21
206.56589
  0
LINE
  8
0
  6
CONTINUOUS
 62
     7
 10
-393.25214
 20
206.56589
 11
-361.25214
 21
206.56589
  0
LINE
  8
0
  6
CONTINUOUS
 62
     7
 10
-392.8406
 20
211.36012
 11
-390.75214
 21
212.56589
  0
LINE
  8
0
  6
CENTER
 62
     7
 10
-377.25214
 20
199.56589
 11
-377.25214
 21
247.18832
  0
LINE
  8
0
  6
CENTER
 62
     7
 10
-313.58136
 20
231.74004
 11
-248.86858
 21
231.74004
  0
LINE
  8
0
  6
CONTINUOUS
 62
     7
 10
-281.41479
 20
245.99004
 11
-272.75424
 21
245.99004
  0
LINE
  8
0
  6
CONTINUOUS
 62
     7
 10
-270.91479
 20
245.74004
 11
-270.91479
 21
217.74004
  0
LINE
  8
0
  6
CONTINUOUS
 62
     7
 10
-272.32123
 20
217.74004
 11
-268.91479
 21
217.74004
  0
LINE
  8
0
  6
CONTINUOUS
 62
     7
 10
-277.91479
 20
217.49004
 11
-272.75424
 21
217.49004
  0
LINE
  8
0
  6
CONTINUOUS
 62
     7
 10
-270.91479
 20
218.55203
 11
-268.91479
 21
218.55203
  0
LINE
  8
0
  6
CONTINUOUS
 62
     7
 10
-270.91479
 20
244.92802
 11
-268.91479
 21
244.92802
  0
LINE
  8
0
  6
CONTINUOUS
 62
     7
 10
-272.32123
 20
245.74004
 11
-268.91479
 21
245.74004
  0
LINE
  8
0
  6
CONTINUOUS
 62
     7
 10
-272.75425
 20
217.49005
 11
-272.32124
 21
217.74005
  0
LINE
  8
0
  6
CONTINUOUS
 62
     7
 10
-272.75422
 20
245.99002
 11
-272.32121
 21
245.74002
  0
LINE
  8
0
  6
CONTINUOUS
 62
     7
 10
-272.32121
 20
245.74002
 11
-270.91479
 21
244.92802
  0
LINE
  8
0
  6
CONTINUOUS
 62
     7
 10
-272.32124
 20
217.74005
 11
-270.91481
 21
218.55205
  0
LINE
  8
0
  6
CENTER
 62
     7
 10
-296.91479
 20
247.53545
 11
-296.91479
 21
192.74004
  0
LINE
  8
0
  6
CONTINUOUS
 62
     7
 10
-280.91479
 20
214.49004
 11
-280.91479
 21
207.74004
  0
LINE
  8
0
  6
CONTINUOUS
 62
     7
 10
-312.91479
 20
214.49004
 11
-312.91479
 21
207.74004
  0
LINE
  8
0
  6
CONTINUOUS
 62
     7
 10
-317.41479
 20
197.74004
 11
-276.41479
 21
197.74004
  0
LINE
  8
0
  6
CONTINUOUS
 62
     7
 10
-312.91479
 20
207.74004
 11
-280.91479
 21
207.74004
  0
LINE
  8
0
  6
CONTINUOUS
 62
     7
 10
-317.41479
 20
200.74004
 11
-317.41479
 21
197.74004
  0
LINE
  8
0
  6
CONTINUOUS
 62
     7
 10
-276.41479
 20
200.74004
 11
-276.41479
 21
197.74004
  0
LINE
  8
0
  6
CONTINUOUS
 62
     7
 10
-315.39001
 20
206.31097
 11
-315.39001
 21
200.74004
  0
LINE
  8
0
  6
CONTINUOUS
 62
     7
 10
-278.43961
 20
206.31097
 11
-278.43961
 21
200.74004
  0
LINE
  8
0
  6
CONTINUOUS
 62
     7
 10
-280.91479
 20
207.74002
 11
-278.43958
 21
206.31096
  0
LINE
  8
0
  6
CONTINUOUS
 62
     7
 10
-306.1524
 20
206.31097
 11
-306.1524
 21
200.74004
  0
LINE
  8
0
  6
CONTINUOUS
 62
     7
 10
-287.67719
 20
206.31097
 11
-287.67719
 21
200.74004
  0
LINE
  8
0
  6
CONTINUOUS
 62
     7
 10
-317.41479
 20
200.74004
 11
-276.41479
 21
200.74004
  0
LINE
  8
0
  6
CONTINUOUS
 62
     7
 10
-315.39002
 20
206.31099
 11
-312.91481
 21
207.74005
  0
LINE
  8
0
  6
CENTER
 62
     7
 10
-216.60736
 20
233.56589
 11
-133.73227
 21
233.56589
  0
LINE
  8
0
  6
CONTINUOUS
 62
     7
 10
-174.9285
 20
250.56589
 11
-161.66052
 21
250.56589
  0
LINE
  8
0
  6
CONTINUOUS
 62
     7
 10
-168.9285
 20
216.56589
 11
-161.66054
 21
216.56589
  0
LINE
  8
0
  6
CONTINUOUS
 62
     7
 10
-159.9285
 20
251.56589
 11
-156.9285
 21
251.56589
  0
LINE
  8
0
  6
CONTINUOUS
 62
     7
 10
-159.9285
 20
215.56589
 11
-156.9285
 21
215.56589
  0
LINE
  8
0
  6
CONTINUOUS
 62
     7
 10
-160.81395
 20
250.75388
 11
-156.9285
 21
250.75388
  0
LINE
  8
0
  6
CONTINUOUS
 62
     7
 10
-160.81398
 20
216.37788
 11
-156.9285
 21
216.37788
  0
LINE
  8
0
  6
CENTER
 62
     7
 10
-191.9285
 20
250.75388
 11
-191.9285
 21
188.56589
  0
LINE
  8
0
  6
CONTINUOUS
 62
     7
 10
-216.42851
 20
193.56589
 11
-167.4285
 21
193.56589
  0
LINE
  8
0
  6
CONTINUOUS
 62
     7
 10
-216.42851
 20
197.56589
 11
-216.42851
 21
193.56589
  0
LINE
  8
0
  6
CONTINUOUS
 62
     7
 10
-167.4285
 20
197.56589
 11
-167.4285
 21
193.56589
  0
LINE
  8
0
  6
CONTINUOUS
 62
     7
 10
-212.42851
 20
205.56589
 11
-171.4285
 21
205.56589
  0
LINE
  8
0
  6
CONTINUOUS
 62
     7
 10
-211.92851
 20
213.56589
 11
-211.92851
 21
205.56589
  0
LINE
  8
0
  6
CONTINUOUS
 62
     7
 10
-171.9285
 20
213.56589
 11
-171.9285
 21
205.56589
  0
LINE
  8
0
  6
CONTINUOUS
 62
     7
 10
-168.25714
 20
203.73489
 11
-168.25714
 21
197.56589
  0
LINE
  8
0
  6
CONTINUOUS
 62
     7
 10
-215.59987
 20
203.73489
 11
-215.59987
 21
197.56589
  0
LINE
  8
0
  6
CONTINUOUS
 62
     7
 10
-203.76418
 20
203.73489
 11
-203.76418
 21
197.56589
  0
LINE
  8
0
  6
CONTINUOUS
 62
     7
 10
-180.09282
 20
203.73489
 11
-180.09282
 21
197.56589
  0
LINE
  8
0
  6
CONTINUOUS
 62
     7
 10
-215.59985
 20
203.73488
 11
-212.42848
 21
205.56587
  0
LINE
  8
0
  6
CONTINUOUS
 62
     7
 10
-171.42848
 20
205.56587
 11
-168.25713
 21
203.73489
  0
LINE
  8
0
  6
CONTINUOUS
 62
     7
 10
-216.42851
 20
197.56589
 11
-167.4285
 21
197.56589
  0
LINE
  8
0
  6
CENTER
 62
     7
 10
-101.11386
 20
228.08835
 11
-38.264496
 21
228.08835
  0
LINE
  8
0
  6
CONTINUOUS
 62
     7
 10
-68.485718
 20
242.33833
 11
-65.325165
 21
242.33833
  0
LINE
  8
0
  6
CONTINUOUS
 62
     7
 10
-63.485733
 20
242.08833
 11
-63.485733
 21
214.08835
  0
LINE
  8
0
  6
CONTINUOUS
 62
     7
 10
-64.892151
 20
214.08835
 11
-61.485733
 21
214.08835
  0
LINE
  8
0
  6
CONTINUOUS
 62
     7
 10
-69.985718
 20
213.83835
 11
-65.325165
 21
213.83835
  0
LINE
  8
0
  6
CONTINUOUS
 62
     7
 10
-63.485733
 20
214.90034
 11
-61.485733
 21
214.90034
  0
LINE
  8
0
  6
CONTINUOUS
 62
     7
 10
-63.485733
 20
241.27635
 11
-61.485733
 21
241.27635
  0
LINE
  8
0
  6
CONTINUOUS
 62
     7
 10
-64.892151
 20
242.08833
 11
-61.485733
 21
242.08833
  0
LINE
  8
0
  6
CONTINUOUS
 62
     7
 10
-65.325165
 20
213.83836
 11
-64.892151
 21
214.08836
  0
LINE
  8
0
  6
CONTINUOUS
 62
     7
 10
-65.32515
 20
242.33835
 11
-64.892136
 21
242.08835
  0
LINE
  8
0
  6
CONTINUOUS
 62
     7
 10
-64.892136
 20
242.08835
 11
-63.485718
 21
241.27635
  0
LINE
  8
0
  6
CONTINUOUS
 62
     7
 10
-64.892151
 20
214.08836
 11
-63.485718
 21
214.90036
  0
LINE
  8
0
  6
CENTER
 62
     7
 10
-86.485718
 20
241.27635
 11
-86.485718
 21
191.08835
  0
LINE
  8
0
  6
CONTINUOUS
 62
     7
 10
-102.48572
 20
196.08835
 11
-70.485718
 21
196.08835
  0
LINE
  8
0
  6
CONTINUOUS
 62
     7
 10
-102.48572
 20
196.08835
 11
-102.48572
 21
198.08835
  0
LINE
  8
0
  6
CONTINUOUS
 62
     7
 10
-99.985718
 20
204.08835
 11
-72.985718
 21
204.08835
  0
LINE
  8
0
  6
CONTINUOUS
 62
     7
 10
-99.985718
 20
204.08835
 11
-99.985718
 21
210.83835
  0
LINE
  8
0
  6
CONTINUOUS
 62
     7
 10
-72.985718
 20
204.08835
 11
-72.985718
 21
210.83835
  0
LINE
  8
0
  6
CONTINUOUS
 62
     7
 10
-72.985718
 20
204.08833
 11
-70.897247
 21
202.88256
  0
LINE
  8
0
  6
CONTINUOUS
 62
     7
 10
-102.07419
 20
202.88257
 11
-102.07419
 21
198.08835
  0
LINE
  8
0
  6
CONTINUOUS
 62
     7
 10
-94.279938
 20
202.88257
 11
-94.279938
 21
198.08835
  0
LINE
  8
0
  6
CONTINUOUS
 62
     7
 10
-78.691498
 20
202.88257
 11
-78.691498
 21
198.08835
  0
LINE
  8
0
  6
CONTINUOUS
 62
     7
 10
-102.48572
 20
198.08835
 11
-70.485718
 21
198.08835
  0
LINE
  8
0
  6
CONTINUOUS
 62
     7
 10
-102.07417
 20
202.88256
 11
-99.985718
 21
204.08833
  0
LINE
  8
0
  6
CONTINUOUS
 62
     7
 10
-70.897263
 20
202.88257
 11
-70.897263
 21
198.08835
  0
LINE
  8
0
  6
CONTINUOUS
 62
     7
 10
-70.485718
 20
196.08835
 11
-70.485718
 21
198.08835
  0
LINE
  8
0
  6
CENTER
 62
     7
 10
-98.319
 20
123.87883
 11
-31.828278
 21
123.87883
  0
LINE
  8
0
  6
CONTINUOUS
 62
     7
 10
-60.652466
 20
138.12883
 11
-57.491882
 21
138.12883
  0
LINE
  8
0
  6
CONTINUOUS
 62
     7
 10
-62.152466
 20
109.62883
 11
-57.491882
 21
109.62883
  0
LINE
  8
0
  6
CENTER
 62
     7
 10
-78.652466
 20
137.06683
 11
-78.652466
 21
17.12883
  0
LINE
  8
0
  6
CONTINUOUS
 62
     7
 10
-94.652466
 20
23.87883
 11
-62.652466
 21
23.87883
  0
LINE
  8
0
  6
CONTINUOUS
 62
     7
 10
-94.652466
 20
23.87883
 11
-94.652466
 21
25.87883
  0
LINE
  8
0
  6
CONTINUOUS
 62
     7
 10
-92.152466
 20
31.87883
 11
-65.152466
 21
31.87883
  0
LINE
  8
0
  6
CONTINUOUS
 62
     7
 10
-92.152466
 20
31.87883
 11
-92.152466
 21
106.62883
  0
LINE
  8
0
  6
CONTINUOUS
 62
     7
 10
-65.152466
 20
31.87883
 11
-65.152466
 21
106.62883
  0
LINE
  8
0
  6
CONTINUOUS
 62
     7
 10
-65.15242
 20
31.878815
 11
-63.06398
 21
30.67305
  0
LINE
  8
0
  6
CONTINUOUS
 62
     7
 10
-94.240906
 20
30.67305
 11
-94.240906
 21
25.87883
  0
LINE
  8
0
  6
CONTINUOUS
 62
     7
 10
-86.446686
 20
30.67305
 11
-86.446686
 21
25.87883
  0
LINE
  8
0
  6
CONTINUOUS
 62
     7
 10
-70.858215
 20
30.67305
 11
-70.858215
 21
25.87883
  0
LINE
  8
0
  6
CONTINUOUS
 62
     7
 10
-94.652466
 20
25.87883
 11
-62.652466
 21
25.87883
  0
LINE
  8
0
  6
CONTINUOUS
 62
     7
 10
-94.240906
 20
30.67305
 11
-92.152451
 21
31.878815
  0
LINE
  8
0
  6
CONTINUOUS
 62
     7
 10
-63.063995
 20
30.67305
 11
-63.063995
 21
25.87883
  0
LINE
  8
0
  6
CONTINUOUS
 62
     7
 10
-62.652466
 20
23.87883
 11
-62.652466
 21
25.87883
  0
LINE
  8
0
  6
CONTINUOUS
 62
     7
 10
-57.058868
 20
109.87883
 11
-53.652466
 21
109.87883
  0
LINE
  8
0
  6
CONTINUOUS
 62
     7
 10
-55.652466
 20
110.69083
 11
-53.652466
 21
110.69083
  0
LINE
  8
0
  6
CONTINUOUS
 62
     7
 10
-55.652466
 20
137.87883
 11
-55.652466
 21
109.87883
  0
LINE
  8
0
  6
CONTINUOUS
 62
     7
 10
-55.652466
 20
137.06683
 11
-53.652466
 21
137.06683
  0
LINE
  8
0
  6
CONTINUOUS
 62
     7
 10
-57.058868
 20
137.87883
 11
-53.652466
 21
137.87883
  0
LINE
  8
0
  6
CONTINUOUS
 62
     7
 10
-57.491898
 20
109.62885
 11
-57.058884
 21
109.87885
  0
LINE
  8
0
  6
CONTINUOUS
 62
     7
 10
-57.491882
 20
138.12882
 11
-57.058868
 21
137.87882
  0
LINE
  8
0
  6
CONTINUOUS
 62
     7
 10
-57.058868
 20
137.87882
 11
-55.652451
 21
137.06683
  0
LINE
  8
0
  6
CONTINUOUS
 62
     7
 10
-57.058884
 20
109.87885
 11
-55.652451
 21
110.69085
  0
LINE
  8
0
  6
CENTER
 62
     7
 10
-193.19106
 20
122.92052
 11
-127.6154
 21
122.92052
  0
LINE
  8
0
  6
CONTINUOUS
 62
     7
 10
-155.52452
 20
137.17053
 11
-152.36394
 21
137.17053
  0
LINE
  8
0
  6
CONTINUOUS
 62
     7
 10
-157.02452
 20
108.67052
 11
-152.36394
 21
108.67052
  0
LINE
  8
0
  6
CENTER
 62
     7
 10
-173.52452
 20
136.10854
 11
-173.52452
 21
47.920517
  0
LINE
  8
0
  6
CONTINUOUS
 62
     7
 10
-189.52452
 20
52.920517
 11
-157.52452
 21
52.920517
  0
LINE
  8
0
  6
CONTINUOUS
 62
     7
 10
-189.52452
 20
52.920517
 11
-189.52452
 21
54.920517
  0
LINE
  8
0
  6
CONTINUOUS
 62
     7
 10
-187.02452
 20
60.920517
 11
-160.02452
 21
60.920517
  0
LINE
  8
0
  6
CONTINUOUS
 62
     7
 10
-187.02452
 20
60.920517
 11
-187.02452
 21
105.67052
  0
LINE
  8
0
  6
CONTINUOUS
 62
     7
 10
-160.02452
 20
60.920517
 11
-160.02452
 21
105.67052
  0
LINE
  8
0
  6
CONTINUOUS
 62
     7
 10
-160.02451
 20
60.920517
 11
-157.93604
 21
59.714737
  0
LINE
  8
0
  6
CONTINUOUS
 62
     7
 10
-189.11296
 20
59.714737
 11
-189.11296
 21
54.920517
  0
LINE
  8
0
  6
CONTINUOUS
 62
     7
 10
-181.31874
 20
59.714737
 11
-181.31874
 21
54.920517
  0
LINE
  8
0
  6
CONTINUOUS
 62
     7
 10
-165.73027
 20
59.714737
 11
-165.73027
 21
54.920517
  0
LINE
  8
0
  6
CONTINUOUS
 62
     7
 10
-189.52452
 20
54.920517
 11
-157.52452
 21
54.920517
  0
LINE
  8
0
  6
CONTINUOUS
 62
     7
 10
-189.11297
 20
59.714737
 11
-187.0245
 21
60.920517
  0
LINE
  8
0
  6
CONTINUOUS
 62
     7
 10
-157.93605
 20
59.714737
 11
-157.93605
 21
54.920517
  0
LINE
  8
0
  6
CONTINUOUS
 62
     7
 10
-157.52452
 20
52.920517
 11
-157.52452
 21
54.920517
  0
LINE
  8
0
  6
CONTINUOUS
 62
     7
 10
-151.93092
 20
108.92052
 11
-148.52452
 21
108.92052
  0
LINE
  8
0
  6
CONTINUOUS
 62
     7
 10
-150.52452
 20
109.73251
 11
-148.52452
 21
109.73251
  0
LINE
  8
0
  6
CONTINUOUS
 62
     7
 10
-150.52452
 20
136.92053
 11
-150.52452
 21
108.92052
  0
LINE
  8
0
  6
CONTINUOUS
 62
     7
 10
-150.52452
 20
136.10854
 11
-148.52452
 21
136.10854
  0
LINE
  8
0
  6
CONTINUOUS
 62
     7
 10
-151.93092
 20
136.92053
 11
-148.52452
 21
136.92053
  0
LINE
  8
0
  6
CONTINUOUS
 62
     7
 10
-152.36397
 20
108.67054
 11
-151.93095
 21
108.92054
  0
LINE
  8
0
  6
CONTINUOUS
 62
     7
 10
-152.36394
 20
137.17052
 11
-151.93092
 21
136.92052
  0
LINE
  8
0
  6
CONTINUOUS
 62
     7
 10
-151.93092
 20
136.92052
 11
-150.52451
 21
136.10852
  0
LINE
  8
0
  6
CONTINUOUS
 62
     7
 10
-151.93095
 20
108.92054
 11
-150.52452
 21
109.73254
  0
LINE
  8
0
  6
CONTINUOUS
 62
     7
 10
-254.98586
 20
113.12883
 11
-257.64639
 21
113.12883
  0
LINE
  8
0
  6
CONTINUOUS
 62
     7
 10
-254.98586
 20
134.62883
 11
-263.14639
 21
134.62883
  0
LINE
  8
0
  6
CONTINUOUS
 62
     7
 10
-251.14641
 20
134.37883
 11
-254.55284
 21
134.37883
  0
LINE
  8
0
  6
CONTINUOUS
 62
     7
 10
-251.14641
 20
113.37883
 11
-254.55284
 21
113.37883
  0
LINE
  8
0
  6
CONTINUOUS
 62
     7
 10
-251.14641
 20
114.19084
 11
-253.14641
 21
114.19084
  0
LINE
  8
0
  6
CONTINUOUS
 62
     7
 10
-251.14641
 20
133.56683
 11
-253.14641
 21
133.56683
  0
LINE
  8
0
  6
CONTINUOUS
 62
     7
 10
-253.14642
 20
114.19084
 11
-254.55286
 21
113.37883
  0
LINE
  8
0
  6
CONTINUOUS
 62
     7
 10
-253.14642
 20
133.56683
 11
-254.55284
 21
134.37883
  0
LINE
  8
0
  6
CONTINUOUS
 62
     7
 10
-253.14641
 20
113.37883
 11
-253.14641
 21
134.37883
  0
LINE
  8
0
  6
CONTINUOUS
 62
     7
 10
-254.55284
 20
134.37883
 11
-254.98586
 21
134.62883
  0
LINE
  8
0
  6
CONTINUOUS
 62
     7
 10
-254.55286
 20
113.37883
 11
-254.98587
 21
113.12883
  0
LINE
  8
0
  6
CENTER
 62
     7
 10
-289.24597
 20
123.87883
 11
-230.3441
 21
123.87883
  0
LINE
  8
0
  6
CENTER
 62
     7
 10
-274.14639
 20
17.259048
 11
-274.14639
 21
137.50125
  0
LINE
  8
0
  6
CONTINUOUS
 62
     7
 10
-290.14639
 20
23.87883
 11
-258.14639
 21
23.87883
  0
LINE
  8
0
  6
CONTINUOUS
 62
     7
 10
-290.14639
 20
23.87883
 11
-290.14639
 21
25.87883
  0
LINE
  8
0
  6
CONTINUOUS
 62
     7
 10
-258.14639
 20
23.87883
 11
-258.14639
 21
25.87883
  0
LINE
  8
0
  6
CONTINUOUS
 62
     7
 10
-287.64639
 20
31.87883
 11
-260.64639
 21
31.87883
  0
LINE
  8
0
  6
CONTINUOUS
 62
     7
 10
-287.64639
 20
31.87883
 11
-287.64639
 21
110.12883
  0
LINE
  8
0
  6
CONTINUOUS
 62
     7
 10
-260.64639
 20
31.87883
 11
-260.64639
 21
110.12883
  0
LINE
  8
0
  6
CONTINUOUS
 62
     7
 10
-260.64641
 20
31.878845
 11
-258.55794
 21
30.673065
  0
LINE
  8
0
  6
CONTINUOUS
 62
     7
 10
-289.73486
 20
30.67305
 11
-289.73486
 21
25.87883
  0
LINE
  8
0
  6
CONTINUOUS
 62
     7
 10
-258.55795
 20
30.67305
 11
-258.55795
 21
25.87883
  0
LINE
  8
0
  6
CONTINUOUS
 62
     7
 10
-281.94064
 20
30.67305
 11
-281.94064
 21
25.87883
  0
LINE
  8
0
  6
CONTINUOUS
 62
     7
 10
-266.35217
 20
30.67305
 11
-266.35217
 21
25.87883
  0
LINE
  8
0
  6
CONTINUOUS
 62
     7
 10
-290.14639
 20
25.87883
 11
-258.14639
 21
25.87883
  0
LINE
  8
0
  6
CONTINUOUS
 62
     7
 10
-289.73487
 20
30.67305
 11
-287.64643
 21
31.878815
  0
LINE
  8
0
  6
CONTINUOUS
 62
     7
 10
-347.94131
 20
112.17052
 11
-350.60187
 21
112.17052
  0
LINE
  8
0
  6
CONTINUOUS
 62
     7
 10
-347.94131
 20
133.67053
 11
-356.10187
 21
133.67053
  0
LINE
  8
0
  6
CONTINUOUS
 62
     7
 10
-344.10187
 20
133.42053
 11
-347.5083
 21
133.42053
  0
LINE
  8
0
  6
CONTINUOUS
 62
     7
 10
-344.10187
 20
112.42052
 11
-347.5083
 21
112.42052
  0
LINE
  8
0
  6
CONTINUOUS
 62
     7
 10
-344.10187
 20
113.23254
 11
-346.10187
 21
113.23254
  0
LINE
  8
0
  6
CONTINUOUS
 62
     7
 10
-344.10187
 20
132.60854
 11
-346.10187
 21
132.60854
  0
LINE
  8
0
  6
CONTINUOUS
 62
     7
 10
-346.10186
 20
113.23254
 11
-347.5083
 21
112.42053
  0
LINE
  8
0
  6
CONTINUOUS
 62
     7
 10
-346.10188
 20
132.60854
 11
-347.5083
 21
133.42054
  0
LINE
  8
0
  6
CONTINUOUS
 62
     7
 10
-346.10187
 20
112.42052
 11
-346.10187
 21
133.42053
  0
LINE
  8
0
  6
CONTINUOUS
 62
     7
 10
-347.5083
 20
133.42054
 11
-347.94131
 21
133.67054
  0
LINE
  8
0
  6
CONTINUOUS
 62
     7
 10
-347.5083
 20
112.42053
 11
-347.94132
 21
112.17053
  0
LINE
  8
0
  6
CENTER
 62
     7
 10
-382.20145
 20
122.92052
 11
-321.58102
 21
122.92052
  0
LINE
  8
0
  6
CENTER
 62
     7
 10
-367.10187
 20
47.920532
 11
-367.10187
 21
136.54295
  0
LINE
  8
0
  6
CONTINUOUS
 62
     7
 10
-383.10187
 20
52.920532
 11
-351.10187
 21
52.920532
  0
LINE
  8
0
  6
CONTINUOUS
 62
     7
 10
-383.10187
 20
52.920532
 11
-383.10187
 21
54.920532
  0
LINE
  8
0
  6
CONTINUOUS
 62
     7
 10
-351.10187
 20
52.920532
 11
-351.10187
 21
54.920532
  0
LINE
  8
0
  6
CONTINUOUS
 62
     7
 10
-380.60187
 20
60.920532
 11
-353.60187
 21
60.920532
  0
LINE
  8
0
  6
CONTINUOUS
 62
     7
 10
-380.60187
 20
60.920532
 11
-380.60187
 21
109.17052
  0
LINE
  8
0
  6
CONTINUOUS
 62
     7
 10
-353.60187
 20
60.920532
 11
-353.60187
 21
109.17052
  0
LINE
  8
0
  6
CONTINUOUS
 62
     7
 10
-353.60188
 20
60.920532
 11
-351.5134
 21
59.714752
  0
LINE
  8
0
  6
CONTINUOUS
 62
     7
 10
-382.69034
 20
59.714752
 11
-382.69034
 21
54.920532
  0
LINE
  8
0
  6
CONTINUOUS
 62
     7
 10
-351.51343
 20
59.714752
 11
-351.51343
 21
54.920532
  0
LINE
  8
0
  6
CONTINUOUS
 62
     7
 10
-374.89612
 20
59.714752
 11
-374.89612
 21
54.920532
  0
LINE
  8
0
  6
CONTINUOUS
 62
     7
 10
-359.30765
 20
59.714752
 11
-359.30765
 21
54.920532
  0
LINE
  8
0
  6
CONTINUOUS
 62
     7
 10
-383.10187
 20
54.920532
 11
-351.10187
 21
54.920532
  0
LINE
  8
0
  6
CONTINUOUS
 62
     7
 10
-382.69032
 20
59.714752
 11
-380.60188
 21
60.920517
  0
LINE
  8
0
  6
CONTINUOUS
 62
     7
 10
-340.00269
 20
239.30087
 11
-340.00269
 21
241.0907
  0
LINE
  8
0
  6
CONTINUOUS
 62
     7
 10
-340.00269
 20
239.30087
 11
-353.50159
 21
239.30087
  0
LINE
  8
0
  6
CONTINUOUS
 62
     7
 10
-340.00269
 20
241.0907
 11
-353.50159
 21
241.0907
  0
LINE
  8
0
  6
CONTINUOUS
 62
     7
 10
-353.50159
 20
239.30087
 11
-353.50159
 21
241.0907
  0
LINE
  8
0
  6
CONTINUOUS
 62
     7
 10
-354.25214
 20
233.56589
 11
-354.25214
 21
245.56589
  0
LINE
  8
0
  6
CONTINUOUS
 62
     7
 10
-353.50158
 20
246.86587
 11
-354.25213
 21
245.56586
  0
LINE
  8
0
  6
CONTINUOUS
 62
     7
 10
-340.00269
 20
246.86588
 11
-353.50159
 21
246.86588
  0
LINE
  8
0
  6
CONTINUOUS
 62
     7
 10
-339.25213
 20
245.56588
 11
-340.00268
 21
246.86587
  0
LINE
  8
0
  6
CONTINUOUS
 62
     7
 10
-339.25214
 20
233.56589
 11
-339.25214
 21
245.56589
  0
LINE
  8
0
  6
CONTINUOUS
 62
     7
 10
-340.00269
 20
227.8309
 11
-340.00269
 21
226.04108
  0
LINE
  8
0
  6
CONTINUOUS
 62
     7
 10
-340.00269
 20
227.8309
 11
-353.50159
 21
227.8309
  0
LINE
  8
0
  6
CONTINUOUS
 62
     7
 10
-340.00269
 20
226.04108
 11
-353.50159
 21
226.04108
  0
LINE
  8
0
  6
CONTINUOUS
 62
     7
 10
-353.50159
 20
227.8309
 11
-353.50159
 21
226.04108
  0
LINE
  8
0
  6
CONTINUOUS
 62
     7
 10
-354.25214
 20
233.56589
 11
-354.25214
 21
221.56589
  0
LINE
  8
0
  6
CONTINUOUS
 62
     7
 10
-353.50158
 20
220.2659
 11
-354.25214
 21
221.56591
  0
LINE
  8
0
  6
CONTINUOUS
 62
     7
 10
-340.00269
 20
220.26587
 11
-353.50159
 21
220.26587
  0
LINE
  8
0
  6
CONTINUOUS
 62
     7
 10
-339.25214
 20
221.56591
 11
-340.0027
 21
220.2659
  0
LINE
  8
0
  6
CONTINUOUS
 62
     7
 10
-339.25214
 20
233.56589
 11
-339.25214
 21
221.56589
  0
LINE
  8
0
  6
CONTINUOUS
 62
     7
 10
-329.85242
 20
128.65552
 11
-329.85242
 21
130.44534
  0
LINE
  8
0
  6
CONTINUOUS
 62
     7
 10
-329.85242
 20
128.65552
 11
-343.35132
 21
128.65552
  0
LINE
  8
0
  6
CONTINUOUS
 62
     7
 10
-329.85242
 20
130.44534
 11
-343.35132
 21
130.44534
  0
LINE
  8
0
  6
CONTINUOUS
 62
     7
 10
-343.35132
 20
128.65552
 11
-343.35132
 21
130.44534
  0
LINE
  8
0
  6
CONTINUOUS
 62
     7
 10
-344.10187
 20
122.92052
 11
-344.10187
 21
134.92053
  0
LINE
  8
0
  6
CONTINUOUS
 62
     7
 10
-343.35131
 20
136.2205
 11
-344.10187
 21
134.9205
  0
LINE
  8
0
  6
CONTINUOUS
 62
     7
 10
-329.85242
 20
136.22054
 11
-343.35132
 21
136.22054
  0
LINE
  8
0
  6
CONTINUOUS
 62
     7
 10
-329.10186
 20
134.92049
 11
-329.85243
 21
136.22051
  0
LINE
  8
0
  6
CONTINUOUS
 62
     7
 10
-329.10187
 20
122.92052
 11
-329.10187
 21
134.92053
  0
LINE
  8
0
  6
CONTINUOUS
 62
     7
 10
-329.85242
 20
117.18554
 11
-329.85242
 21
115.39571
  0
LINE
  8
0
  6
CONTINUOUS
 62
     7
 10
-329.85242
 20
117.18554
 11
-343.35132
 21
117.18554
  0
LINE
  8
0
  6
CONTINUOUS
 62
     7
 10
-329.85242
 20
115.39571
 11
-343.35132
 21
115.39571
  0
LINE
  8
0
  6
CONTINUOUS
 62
     7
 10
-343.35132
 20
117.18554
 11
-343.35132
 21
115.39571
  0
LINE
  8
0
  6
CONTINUOUS
 62
     7
 10
-344.10187
 20
122.92052
 11
-344.10187
 21
110.92052
  0
LINE
  8
0
  6
CONTINUOUS
 62
     7
 10
-343.35131
 20
109.62054
 11
-344.10186
 21
110.92053
  0
LINE
  8
0
  6
CONTINUOUS
 62
     7
 10
-329.85242
 20
109.62051
 11
-343.35132
 21
109.62051
  0
LINE
  8
0
  6
CONTINUOUS
 62
     7
 10
-329.10187
 20
110.92055
 11
-329.85243
 21
109.62054
  0
LINE
  8
0
  6
CONTINUOUS
 62
     7
 10
-329.10187
 20
122.92052
 11
-329.10187
 21
110.92052
  0
LINE
  8
0
  6
CONTINUOUS
 62
     7
 10
-255.01176
 20
223.71446
 11
-255.01176
 21
221.89642
  0
LINE
  8
0
  6
CONTINUOUS
 62
     7
 10
-253.91479
 20
231.74004
 11
-253.91479
 21
215.74004
  0
LINE
  8
0
  6
CONTINUOUS
 62
     7
 10
-267.81784
 20
223.71446
 11
-255.01176
 21
223.71446
  0
LINE
  8
0
  6
CONTINUOUS
 62
     7
 10
-267.81784
 20
221.89642
 11
-255.01176
 21
221.89642
  0
LINE
  8
0
  6
CONTINUOUS
 62
     7
 10
-267.81784
 20
223.71446
 11
-267.81784
 21
221.89642
  0
LINE
  8
0
  6
CONTINUOUS
 62
     7
 10
-268.91479
 20
231.74004
 11
-268.91479
 21
215.74004
  0
LINE
  8
0
  6
CONTINUOUS
 62
     7
 10
-268.9148
 20
215.74005
 11
-267.81784
 21
213.84007
  0
LINE
  8
0
  6
CONTINUOUS
 62
     7
 10
-267.81784
 20
213.84004
 11
-255.01176
 21
213.84004
  0
LINE
  8
0
  6
CONTINUOUS
 62
     7
 10
-255.01175
 20
213.84003
 11
-253.91478
 21
215.74003
  0
LINE
  8
0
  6
CONTINUOUS
 62
     7
 10
-255.01176
 20
239.76561
 11
-255.01176
 21
241.58363
  0
LINE
  8
0
  6
CONTINUOUS
 62
     7
 10
-253.91479
 20
231.74004
 11
-253.91479
 21
247.74004
  0
LINE
  8
0
  6
CONTINUOUS
 62
     7
 10
-267.81784
 20
239.76561
 11
-255.01176
 21
239.76561
  0
LINE
  8
0
  6
CONTINUOUS
 62
     7
 10
-267.81784
 20
241.58363
 11
-255.01176
 21
241.58363
  0
LINE
  8
0
  6
CONTINUOUS
 62
     7
 10
-267.81784
 20
239.76561
 11
-267.81784
 21
241.58363
  0
LINE
  8
0
  6
CONTINUOUS
 62
     7
 10
-268.91479
 20
231.74004
 11
-268.91479
 21
247.74004
  0
LINE
  8
0
  6
CONTINUOUS
 62
     7
 10
-268.91479
 20
247.74002
 11
-267.81783
 21
249.64002
  0
LINE
  8
0
  6
CONTINUOUS
 62
     7
 10
-267.81784
 20
249.64003
 11
-255.01176
 21
249.64003
  0
LINE
  8
0
  6
CONTINUOUS
 62
     7
 10
-255.01176
 20
249.64004
 11
-253.91479
 21
247.74004
  0
LINE
  8
0
  6
CONTINUOUS
 62
     7
 10
-47.582703
 20
220.06277
 11
-47.582703
 21
218.24474
  0
LINE
  8
0
  6
CONTINUOUS
 62
     7
 10
-46.485718
 20
228.08835
 11
-46.485718
 21
212.08835
  0
LINE
  8
0
  6
CONTINUOUS
 62
     7
 10
-60.388779
 20
220.06277
 11
-47.582703
 21
220.06277
  0
LINE
  8
0
  6
CONTINUOUS
 62
     7
 10
-60.388779
 20
218.24474
 11
-47.582703
 21
218.24474
  0
LINE
  8
0
  6
CONTINUOUS
 62
     7
 10
-60.388779
 20
220.06277
 11
-60.388779
 21
218.24474
  0
LINE
  8
0
  6
CONTINUOUS
 62
     7
 10
-61.485733
 20
228.08835
 11
-61.485733
 21
212.08835
  0
LINE
  8
0
  6
CONTINUOUS
 62
     7
 10
-61.485733
 20
212.08833
 11
-60.388763
 21
210.18834
  0
LINE
  8
0
  6
CONTINUOUS
 62
     7
 10
-60.388779
 20
210.18835
 11
-47.582703
 21
210.18835
  0
LINE
  8
0
  6
CONTINUOUS
 62
     7
 10
-47.582703
 20
210.18833
 11
-46.485718
 21
212.08834
  0
LINE
  8
0
  6
CONTINUOUS
 62
     7
 10
-47.582703
 20
236.11391
 11
-47.582703
 21
237.93196
  0
LINE
  8
0
  6
CONTINUOUS
 62
     7
 10
-46.485718
 20
228.08835
 11
-46.485718
 21
244.08833
  0
LINE
  8
0
  6
CONTINUOUS
 62
     7
 10
-60.388779
 20
236.11391
 11
-47.582703
 21
236.11391
  0
LINE
  8
0
  6
CONTINUOUS
 62
     7
 10
-60.388779
 20
237.93196
 11
-47.582703
 21
237.93196
  0
LINE
  8
0
  6
CONTINUOUS
 62
     7
 10
-60.388779
 20
236.11391
 11
-60.388779
 21
237.93196
  0
LINE
  8
0
  6
CONTINUOUS
 62
     7
 10
-61.485733
 20
228.08835
 11
-61.485733
 21
244.08833
  0
LINE
  8
0
  6
CONTINUOUS
 62
     7
 10
-61.485733
 20
244.08833
 11
-60.388763
 21
245.98833
  0
LINE
  8
0
  6
CONTINUOUS
 62
     7
 10
-60.388779
 20
245.98833
 11
-47.582703
 21
245.98833
  0
LINE
  8
0
  6
CONTINUOUS
 62
     7
 10
-47.582703
 20
245.98834
 11
-46.485718
 21
244.08834
  0
LINE
  8
0
  6
CONTINUOUS
 62
     7
 10
-134.62151
 20
114.89495
 11
-134.62151
 21
113.07691
  0
LINE
  8
0
  6
CONTINUOUS
 62
     7
 10
-133.52452
 20
122.92052
 11
-133.52452
 21
106.92052
  0
LINE
  8
0
  6
CONTINUOUS
 62
     7
 10
-147.42757
 20
114.89495
 11
-134.62148
 21
114.89495
  0
LINE
  8
0
  6
CONTINUOUS
 62
     7
 10
-147.42757
 20
113.07691
 11
-134.62148
 21
113.07691
  0
LINE
  8
0
  6
CONTINUOUS
 62
     7
 10
-147.42757
 20
114.89495
 11
-147.42757
 21
113.07691
  0
LINE
  8
0
  6
CONTINUOUS
 62
     7
 10
-148.52452
 20
122.92052
 11
-148.52452
 21
106.92052
  0
LINE
  8
0
  6
CONTINUOUS
 62
     7
 10
-148.52452
 20
106.92052
 11
-147.42757
 21
105.02055
  0
LINE
  8
0
  6
CONTINUOUS
 62
     7
 10
-147.42757
 20
105.02053
 11
-134.62148
 21
105.02053
  0
LINE
  8
0
  6
CONTINUOUS
 62
     7
 10
-134.62148
 20
105.02051
 11
-133.52451
 21
106.92052
  0
LINE
  8
0
  6
CONTINUOUS
 62
     7
 10
-134.62151
 20
130.94611
 11
-134.62151
 21
132.76414
  0
LINE
  8
0
  6
CONTINUOUS
 62
     7
 10
-133.52452
 20
122.92052
 11
-133.52452
 21
138.92053
  0
LINE
  8
0
  6
CONTINUOUS
 62
     7
 10
-147.42757
 20
130.94611
 11
-134.62151
 21
130.94611
  0
LINE
  8
0
  6
CONTINUOUS
 62
     7
 10
-147.42757
 20
132.76414
 11
-134.62151
 21
132.76414
  0
LINE
  8
0
  6
CONTINUOUS
 62
     7
 10
-147.42757
 20
130.94611
 11
-147.42757
 21
132.76414
  0
LINE
  8
0
  6
CONTINUOUS
 62
     7
 10
-148.52452
 20
122.92052
 11
-148.52452
 21
138.92053
  0
LINE
  8
0
  6
CONTINUOUS
 62
     7
 10
-148.52452
 20
138.92051
 11
-147.42755
 21
140.8205
  0
LINE
  8
0
  6
CONTINUOUS
 62
     7
 10
-147.42757
 20
140.82053
 11
-134.62151
 21
140.82053
  0
LINE
  8
0
  6
CONTINUOUS
 62
     7
 10
-134.62149
 20
140.82052
 11
-133.52452
 21
138.92051
  0
ARC
  8
0
  6
CONTINUOUS
 62
     7
 10
-360.75214
 20
219.81589
 40
3
 50
90.000003
 51
180.00001
  0
ARC
  8
0
  6
CONTINUOUS
 62
     7
 10
-366.25214
 20
219.81589
 40
24.5
 50
90.000003
 51
180.00001
  0
ARC
  8
0
  6
CONTINUOUS
 62
     7
 10
-277.91479
 20
214.49004
 40
3
 50
90.000003
 51
180.00001
  0
ARC
  8
0
  6
CONTINUOUS
 62
     7
 10
-281.41479
 20
214.49004
 40
31.5
 50
90.000003
 51
180.00001
  0
ARC
  8
0
  6
CONTINUOUS
 62
     7
 10
-174.9285
 20
213.56589
 40
37
 50
90.000003
 51
180.00001
  0
ARC
  8
0
  6
CONTINUOUS
 62
     7
 10
-168.9285
 20
213.56589
 40
3
 50
90.000003
 51
180.00001
  0
ARC
  8
0
  6
CONTINUOUS
 62
     7
 10
-161.66052
 20
252.56589
 40
2
 50
270
 51
329.99999
  0
ARC
  8
0
  6
CONTINUOUS
 62
     7
 10
-161.66054
 20
214.56589
 40
2
 50
30.000001
 51
90.000003
  0
ARC
  8
0
  6
CONTINUOUS
 62
     7
 10
-69.985718
 20
210.83835
 40
3
 50
90.000003
 51
180.00001
  0
ARC
  8
0
  6
CONTINUOUS
 62
     7
 10
-68.485718
 20
210.83835
 40
31.5
 50
90.000003
 51
180.00001
  0
ARC
  8
0
  6
CONTINUOUS
 62
     7
 10
-60.652466
 20
106.62883
 40
31.5
 50
90.000003
 51
180.00001
  0
ARC
  8
0
  6
CONTINUOUS
 62
     7
 10
-62.152466
 20
106.62883
 40
3
 50
90.000003
 51
180.00001
  0
ARC
  8
0
  6
CONTINUOUS
 62
     7
 10
-155.52452
 20
105.67052
 40
31.5
 50
90.000003
 51
180.00001
  0
ARC
  8
0
  6
CONTINUOUS
 62
     7
 10
-157.02452
 20
105.67052
 40
3
 50
90.000003
 51
180.00001
  0
ARC
  8
0
  6
CONTINUOUS
 62
     7
 10
-257.64639
 20
110.12883
 40
3
 50
90.000003
 51
180.00001
  0
ARC
  8
0
  6
CONTINUOUS
 62
     7
 10
-263.14639
 20
110.12883
 40
24.5
 50
90.000003
 51
180.00001
  0
ARC
  8
0
  6
CONTINUOUS
 62
     7
 10
-350.60187
 20
109.17052
 40
3
 50
90.000003
 51
180.00001
  0
ARC
  8
0
  6
CONTINUOUS
 62
     7
 10
-356.10187
 20
109.17052
 40
24.5
 50
90.000003
 51
180.00001
  0
POLYLINE
  8
0
  6
CONTINUOUS
 62
     7
 66
     1
 10
0
 20
0
  0
VERTEX
  8
0
  6
CONTINUOUS
 62
     7
 10
-141.21718
 20
233.56589
 42
0.01916166
  0
VERTEX
  8
0
  6
CONTINUOUS
 62
     7
 10
-141.35505
 20
237.14177
 42
0.018603478
  0
VERTEX
  8
0
  6
CONTINUOUS
 62
     7
 10
-141.76219
 20
240.69712
 42
0.018212825
  0
VERTEX
  8
0
  6
CONTINUOUS
 62
     7
 10
-142.4296
 20
244.21295
 42
0
  0
SEQEND
  8
0
  0
POLYLINE
  8
0
  6
CONTINUOUS
 62
     7
 66
     1
 10
0
 20
0
  0
VERTEX
  8
0
  6
CONTINUOUS
 62
     7
 10
-142.4296
 20
245.99588
 42
0.067338301
  0
VERTEX
  8
0
  6
CONTINUOUS
 62
     7
 10
-141.36349
 20
249.50112
 42
0.08004843
  0
VERTEX
  8
0
  6
CONTINUOUS
 62
     7
 10
-141.36379
 20
253.16052
 42
0.067284207
  0
VERTEX
  8
0
  6
CONTINUOUS
 62
     7
 10
-142.4296
 20
256.66586
 42
0
  0
SEQEND
  8
0
  0
POLYLINE
  8
0
  6
CONTINUOUS
 62
     7
 66
     1
 10
0
 20
0
  0
VERTEX
  8
0
  6
CONTINUOUS
 62
     7
 10
-155.42738
 20
245.99585
 42
-0.067338708
  0
VERTEX
  8
0
  6
CONTINUOUS
 62
     7
 10
-156.49351
 20
249.50109
 42
-0.080051056
  0
VERTEX
  8
0
  6
CONTINUOUS
 62
     7
 10
-156.49322
 20
253.16051
 42
-0.067284902
  0
VERTEX
  8
0
  6
CONTINUOUS
 62
     7
 10
-155.42738
 20
256.66586
 42
0
  0
SEQEND
  8
0
  0
POLYLINE
  8
0
  6
CONTINUOUS
 62
     7
 66
     1
 10
0
 20
0
  0
VERTEX
  8
0
  6
CONTINUOUS
 62
     7
 10
-156.63983
 20
233.56589
 42
-0.019162265
  0
VERTEX
  8
0
  6
CONTINUOUS
 62
     7
 10
-156.50196
 20
237.14177
 42
-0.018603814
  0
VERTEX
  8
0
  6
CONTINUOUS
 62
     7
 10
-156.09481
 20
240.69712
 42
-0.018212906
  0
VERTEX
  8
0
  6
CONTINUOUS
 62
     7
 10
-155.42738
 20
244.21295
 42
0
  0
SEQEND
  8
0
  0
POLYLINE
  8
0
  6
CONTINUOUS
 62
     7
 66
     1
 10
0
 20
0
  0
VERTEX
  8
0
  6
CONTINUOUS
 62
     7
 10
-141.21718
 20
233.56589
 42
-0.01916166
  0
VERTEX
  8
0
  6
CONTINUOUS
 62
     7
 10
-141.35505
 20
229.99001
 42
-0.018603478
  0
VERTEX
  8
0
  6
CONTINUOUS
 62
     7
 10
-141.76219
 20
226.43466
 42
-0.018212825
  0
VERTEX
  8
0
  6
CONTINUOUS
 62
     7
 10
-142.4296
 20
222.91882
 42
0
  0
SEQEND
  8
0
  0
POLYLINE
  8
0
  6
CONTINUOUS
 62
     7
 66
     1
 10
0
 20
0
  0
VERTEX
  8
0
  6
CONTINUOUS
 62
     7
 10
-142.4296
 20
221.13591
 42
-0.06733835
  0
VERTEX
  8
0
  6
CONTINUOUS
 62
     7
 10
-141.36349
 20
217.63066
 42
-0.080048299
  0
VERTEX
  8
0
  6
CONTINUOUS
 62
     7
 10
-141.36379
 20
213.97125
 42
-0.067284259
  0
VERTEX
  8
0
  6
CONTINUOUS
 62
     7
 10
-142.4296
 20
210.4659
 42
0
  0
SEQEND
  8
0
  0
POLYLINE
  8
0
  6
CONTINUOUS
 62
     7
 66
     1
 10
0
 20
0
  0
VERTEX
  8
0
  6
CONTINUOUS
 62
     7
 10
-155.42738
 20
221.13591
 42
0.06733981
  0
VERTEX
  8
0
  6
CONTINUOUS
 62
     7
 10
-156.4935
 20
217.63067
 42
0.080048861
  0
VERTEX
  8
0
  6
CONTINUOUS
 62
     7
 10
-156.49321
 20
213.97125
 42
0.067285709
  0
VERTEX
  8
0
  6
CONTINUOUS
 62
     7
 10
-155.42738
 20
210.4659
 42
0
  0
SEQEND
  8
0
  0
POLYLINE
  8
0
  6
CONTINUOUS
 62
     7
 66
     1
 10
0
 20
0
  0
VERTEX
  8
0
  6
CONTINUOUS
 62
     7
 10
-156.63983
 20
233.56589
 42
0.019162265
  0
VERTEX
  8
0
  6
CONTINUOUS
 62
     7
 10
-156.50196
 20
229.99001
 42
0.018603814
  0
VERTEX
  8
0
  6
CONTINUOUS
 62
     7
 10
-156.09481
 20
226.43466
 42
0.018212906
  0
VERTEX
  8
0
  6
CONTINUOUS
 62
     7
 10
-155.42738
 20
222.91882
 42
0
  0
SEQEND
  8
0
  0
POLYLINE
  8
0
  6
CONTINUOUS
 62
     7
 66
     1
 10
0
 20
0
  0
VERTEX
  8
0
  6
CONTINUOUS
 62
     7
 10
-236.89696
 20
131.40364
 42
0.050247002
  0
VERTEX
  8
0
  6
CONTINUOUS
 62
     7
 10
-236.48863
 20
133.31433
 42
0.054939068
  0
VERTEX
  8
0
  6
CONTINUOUS
 62
     7
 10
-236.48891
 20
135.26874
 42
0.050159166
  0
VERTEX
  8
0
  6
CONTINUOUS
 62
     7
 10
-236.89696
 20
137.17883
 42
0
  0
SEQEND
  8
0
  0
POLYLINE
  8
0
  6
CONTINUOUS
 62
     7
 66
     1
 10
0
 20
0
  0
VERTEX
  8
0
  6
CONTINUOUS
 62
     7
 10
-236.89696
 20
129.61382
 42
-0.013139827
  0
VERTEX
  8
0
  6
CONTINUOUS
 62
     7
 10
-236.64169
 20
127.71242
 42
-0.013285881
  0
VERTEX
  8
0
  6
CONTINUOUS
 62
     7
 10
-236.48711
 20
125.79935
 42
-0.013498311
  0
VERTEX
  8
0
  6
CONTINUOUS
 62
     7
 10
-236.4351
 20
123.87883
 42
0
  0
SEQEND
  8
0
  0
POLYLINE
  8
0
  6
CONTINUOUS
 62
     7
 66
     1
 10
0
 20
0
  0
VERTEX
  8
0
  6
CONTINUOUS
 62
     7
 10
-250.39586
 20
129.61382
 42
0.013138069
  0
VERTEX
  8
0
  6
CONTINUOUS
 62
     7
 10
-250.65114
 20
127.71242
 42
0.013285875
  0
VERTEX
  8
0
  6
CONTINUOUS
 62
     7
 10
-250.80573
 20
125.79935
 42
0.013500074
  0
VERTEX
  8
0
  6
CONTINUOUS
 62
     7
 10
-250.85774
 20
123.87883
 42
0
  0
SEQEND
  8
0
  0
POLYLINE
  8
0
  6
CONTINUOUS
 62
     7
 66
     1
 10
0
 20
0
  0
VERTEX
  8
0
  6
CONTINUOUS
 62
     7
 10
-250.39586
 20
131.40364
 42
-0.050243496
  0
VERTEX
  8
0
  6
CONTINUOUS
 62
     7
 10
-250.8042
 20
133.31433
 42
-0.054947182
  0
VERTEX
  8
0
  6
CONTINUOUS
 62
     7
 10
-250.80393
 20
135.26874
 42
-0.050155644
  0
VERTEX
  8
0
  6
CONTINUOUS
 62
     7
 10
-250.39586
 20
137.17883
 42
0
  0
SEQEND
  8
0
  0
POLYLINE
  8
0
  6
CONTINUOUS
 62
     7
 66
     1
 10
0
 20
0
  0
VERTEX
  8
0
  6
CONTINUOUS
 62
     7
 10
-236.89696
 20
116.35402
 42
-0.050247136
  0
VERTEX
  8
0
  6
CONTINUOUS
 62
     7
 10
-236.48863
 20
114.44332
 42
-0.054938951
  0
VERTEX
  8
0
  6
CONTINUOUS
 62
     7
 10
-236.48891
 20
112.48891
 42
-0.050159115
  0
VERTEX
  8
0
  6
CONTINUOUS
 62
     7
 10
-236.89696
 20
110.57881
 42
0
  0
SEQEND
  8
0
  0
POLYLINE
  8
0
  6
CONTINUOUS
 62
     7
 66
     1
 10
0
 20
0
  0
VERTEX
  8
0
  6
CONTINUOUS
 62
     7
 10
-236.89696
 20
118.14384
 42
0.013139827
  0
VERTEX
  8
0
  6
CONTINUOUS
 62
     7
 10
-236.64169
 20
120.04524
 42
0.013285881
  0
VERTEX
  8
0
  6
CONTINUOUS
 62
     7
 10
-236.48711
 20
121.95831
 42
0.013498311
  0
VERTEX
  8
0
  6
CONTINUOUS
 62
     7
 10
-236.4351
 20
123.87883
 42
0
  0
SEQEND
  8
0
  0
POLYLINE
  8
0
  6
CONTINUOUS
 62
     7
 66
     1
 10
0
 20
0
  0
VERTEX
  8
0
  6
CONTINUOUS
 62
     7
 10
-250.39586
 20
118.14384
 42
-0.013138069
  0
VERTEX
  8
0
  6
CONTINUOUS
 62
     7
 10
-250.65114
 20
120.04524
 42
-0.013285875
  0
VERTEX
  8
0
  6
CONTINUOUS
 62
     7
 10
-250.80573
 20
121.95831
 42
-0.013500074
  0
VERTEX
  8
0
  6
CONTINUOUS
 62
     7
 10
-250.85774
 20
123.87883
 42
0
  0
SEQEND
  8
0
  0
POLYLINE
  8
0
  6
CONTINUOUS
 62
     7
 66
     1
 10
0
 20
0
  0
VERTEX
  8
0
  6
CONTINUOUS
 62
     7
 10
-250.39586
 20
116.35402
 42
0.050243631
  0
VERTEX
  8
0
  6
CONTINUOUS
 62
     7
 10
-250.8042
 20
114.44332
 42
0.054947064
  0
VERTEX
  8
0
  6
CONTINUOUS
 62
     7
 10
-250.80393
 20
112.48891
 42
0.050155593
  0
VERTEX
  8
0
  6
CONTINUOUS
 62
     7
 10
-250.39586
 20
110.57881
 42
0
  0
SEQEND
  8
0
  0
POLYLINE
  8
0
  6
CONTINUOUS
 62
     7
 66
     1
 10
0
 20
0
  0
VERTEX
  8
0
  6
CONTINUOUS
 62
     7
 10
-53.363796
 20
123.87883
 42
-0.016924364
  0
VERTEX
  8
0
  6
CONTINUOUS
 62
     7
 10
-53.272211
 20
126.57171
 42
-0.01653495
  0
VERTEX
  8
0
  6
CONTINUOUS
 62
     7
 10
-53.000856
 20
129.25239
 42
-0.016230051
  0
VERTEX
  8
0
  6
CONTINUOUS
 62
     7
 10
-52.555508
 20
131.9044
 42
0
  0
SEQEND
  8
0
  0
POLYLINE
  8
0
  6
CONTINUOUS
 62
     7
 66
     1
 10
0
 20
0
  0
VERTEX
  8
0
  6
CONTINUOUS
 62
     7
 10
-39.749432
 20
141.77882
 42
-0.060911984
  0
VERTEX
  8
0
  6
CONTINUOUS
 62
     7
 10
-39.037277
 20
139.1237
 42
-0.069925443
  0
VERTEX
  8
0
  6
CONTINUOUS
 62
     7
 10
-39.037052
 20
136.37702
 42
-0.060971265
  0
VERTEX
  8
0
  6
CONTINUOUS
 62
     7
 10
-39.749432
 20
133.72244
 42
0
  0
SEQEND
  8
0
  0
POLYLINE
  8
0
  6
CONTINUOUS
 62
     7
 66
     1
 10
0
 20
0
  0
VERTEX
  8
0
  6
CONTINUOUS
 62
     7
 10
-52.555508
 20
133.72244
 42
-0.060980192
  0
VERTEX
  8
0
  6
CONTINUOUS
 62
     7
 10
-53.267944
 20
136.37744
 42
-0.069926221
  0
VERTEX
  8
0
  6
CONTINUOUS
 62
     7
 10
-53.267603
 20
139.12412
 42
-0.060900827
  0
VERTEX
  8
0
  6
CONTINUOUS
 62
     7
 10
-52.555508
 20
141.77882
 42
0
  0
SEQEND
  8
0
  0
POLYLINE
  8
0
  6
CONTINUOUS
 62
     7
 66
     1
 10
0
 20
0
  0
VERTEX
  8
0
  6
CONTINUOUS
 62
     7
 10
-39.749432
 20
131.9044
 42
-0.01624566
  0
VERTEX
  8
0
  6
CONTINUOUS
 62
     7
 10
-39.303733
 20
129.24983
 42
-0.016520531
  0
VERTEX
  8
0
  6
CONTINUOUS
 62
     7
 10
-39.032704
 20
126.57152
 42
-0.016923645
  0
VERTEX
  8
0
  6
CONTINUOUS
 62
     7
 10
-38.941128
 20
123.87883
 42
0
  0
SEQEND
  8
0
  0
POLYLINE
  8
0
  6
CONTINUOUS
 62
     7
 66
     1
 10
0
 20
0
  0
VERTEX
  8
0
  6
CONTINUOUS
 62
     7
 10
-53.363796
 20
123.87883
 42
0.016924364
  0
VERTEX
  8
0
  6
CONTINUOUS
 62
     7
 10
-53.272211
 20
121.18595
 42
0.01653495
  0
VERTEX
  8
0
  6
CONTINUOUS
 62
     7
 10
-53.000856
 20
118.50527
 42
0.016230051
  0
VERTEX
  8
0
  6
CONTINUOUS
 62
     7
 10
-52.555508
 20
115.85326
 42
0
  0
SEQEND
  8
0
  0
POLYLINE
  8
0
  6
CONTINUOUS
 62
     7
 66
     1
 10
0
 20
0
  0
VERTEX
  8
0
  6
CONTINUOUS
 62
     7
 10
-39.749432
 20
105.97884
 42
0.060910734
  0
VERTEX
  8
0
  6
CONTINUOUS
 62
     7
 10
-39.037266
 20
108.63396
 42
0.069928351
  0
VERTEX
  8
0
  6
CONTINUOUS
 62
     7
 10
-39.037041
 20
111.38064
 42
0.060969987
  0
VERTEX
  8
0
  6
CONTINUOUS
 62
     7
 10
-39.749432
 20
114.03522
 42
0
  0
SEQEND
  8
0
  0
POLYLINE
  8
0
  6
CONTINUOUS
 62
     7
 66
     1
 10
0
 20
0
  0
VERTEX
  8
0
  6
CONTINUOUS
 62
     7
 10
-52.555508
 20
114.03522
 42
0.060980192
  0
VERTEX
  8
0
  6
CONTINUOUS
 62
     7
 10
-53.267944
 20
111.38022
 42
0.069926221
  0
VERTEX
  8
0
  6
CONTINUOUS
 62
     7
 10
-53.267603
 20
108.63354
 42
0.060900827
  0
VERTEX
  8
0
  6
CONTINUOUS
 62
     7
 10
-52.555508
 20
105.97884
 42
0
  0
SEQEND
  8
0
  0
POLYLINE
  8
0
  6
CONTINUOUS
 62
     7
 66
     1
 10
0
 20
0
  0
VERTEX
  8
0
  6
CONTINUOUS
 62
     7
 10
-39.749432
 20
115.85326
 42
0.01624566
  0
VERTEX
  8
0
  6
CONTINUOUS
 62
     7
 10
-39.303733
 20
118.50783
 42
0.016520531
  0
VERTEX
  8
0
  6
CONTINUOUS
 62
     7
 10
-39.032704
 20
121.18614
 42
0.016923645
  0
VERTEX
  8
0
  6
CONTINUOUS
 62
     7
 10
-38.941128
 20
123.87883
 42
0
  0
SEQEND
  8
0
  0
POLYLINE
  8
0
  6
CONTINUOUS
 62
     7
 66
     1
 10
0
 20
0
  0
VERTEX
  8
0
  6
CONTINUOUS
 62
     7
 10
-361.6637
 20
211.36011
 42
0.083552919
  0
VERTEX
  8
0
  6
CONTINUOUS
 62
     7
 10
-364.19523
 20
212.4116
 42
0.1129852
  0
VERTEX
  8
0
  6
CONTINUOUS
 62
     7
 10
-366.92639
 20
212.41159
 42
0.083552259
  0
VERTEX
  8
0
  6
CONTINUOUS
 62
     7
 10
-369.45792
 20
211.36011
 42
0
  0
SEQEND
  8
0
  0
POLYLINE
  8
0
  6
CONTINUOUS
 62
     7
 66
     1
 10
0
 20
0
  0
VERTEX
  8
0
  6
CONTINUOUS
 62
     7
 10
-369.45792
 20
211.36011
 42
0.048742543
  0
VERTEX
  8
0
  6
CONTINUOUS
 62
     7
 10
-374.61774
 20
212.42619
 42
0.053025003
  0
VERTEX
  8
0
  6
CONTINUOUS
 62
     7
 10
-379.88605
 20
212.42624
 42
0.048747229
  0
VERTEX
  8
0
  6
CONTINUOUS
 62
     7
 10
-385.04639
 20
211.36011
 42
0
  0
SEQEND
  8
0
  0
POLYLINE
  8
0
  6
CONTINUOUS
 62
     7
 66
     1
 10
0
 20
0
  0
VERTEX
  8
0
  6
CONTINUOUS
 62
     7
 10
-385.04639
 20
211.36011
 42
0.083552919
  0
VERTEX
  8
0
  6
CONTINUOUS
 62
     7
 10
-387.57792
 20
212.4116
 42
0.1129852
  0
VERTEX
  8
0
  6
CONTINUOUS
 62
     7
 10
-390.30908
 20
212.41159
 42
0.083552259
  0
VERTEX
  8
0
  6
CONTINUOUS
 62
     7
 10
-392.84061
 20
211.36011
 42
0
  0
SEQEND
  8
0
  0
POLYLINE
  8
0
  6
CONTINUOUS
 62
     7
 66
     1
 10
0
 20
0
  0
VERTEX
  8
0
  6
CONTINUOUS
 62
     7
 10
-315.39001
 20
206.31097
 42
-0.083553525
  0
VERTEX
  8
0
  6
CONTINUOUS
 62
     7
 10
-312.38967
 20
207.55718
 42
-0.11298387
  0
VERTEX
  8
0
  6
CONTINUOUS
 62
     7
 10
-309.15273
 20
207.55717
 42
-0.083552764
  0
VERTEX
  8
0
  6
CONTINUOUS
 62
     7
 10
-306.1524
 20
206.31097
 42
0
  0
SEQEND
  8
0
  0
POLYLINE
  8
0
  6
CONTINUOUS
 62
     7
 66
     1
 10
0
 20
0
  0
VERTEX
  8
0
  6
CONTINUOUS
 62
     7
 10
-306.1524
 20
206.31097
 42
-0.048742861
  0
VERTEX
  8
0
  6
CONTINUOUS
 62
     7
 10
-300.03705
 20
207.57447
 42
-0.05302425
  0
VERTEX
  8
0
  6
CONTINUOUS
 62
     7
 10
-293.79312
 20
207.57453
 42
-0.048747548
  0
VERTEX
  8
0
  6
CONTINUOUS
 62
     7
 10
-287.67719
 20
206.31097
 42
0
  0
SEQEND
  8
0
  0
POLYLINE
  8
0
  6
CONTINUOUS
 62
     7
 66
     1
 10
0
 20
0
  0
VERTEX
  8
0
  6
CONTINUOUS
 62
     7
 10
-287.67719
 20
206.31097
 42
-0.0835536
  0
VERTEX
  8
0
  6
CONTINUOUS
 62
     7
 10
-284.67685
 20
207.55718
 42
-0.11298362
  0
VERTEX
  8
0
  6
CONTINUOUS
 62
     7
 10
-281.43993
 20
207.55717
 42
-0.083552925
  0
VERTEX
  8
0
  6
CONTINUOUS
 62
     7
 10
-278.43961
 20
206.31097
 42
0
  0
SEQEND
  8
0
  0
POLYLINE
  8
0
  6
CONTINUOUS
 62
     7
 66
     1
 10
0
 20
0
  0
VERTEX
  8
0
  6
CONTINUOUS
 62
     7
 10
-215.59987
 20
203.73489
 42
-0.083553091
  0
VERTEX
  8
0
  6
CONTINUOUS
 62
     7
 10
-211.75567
 20
205.3316
 42
-0.11298488
  0
VERTEX
  8
0
  6
CONTINUOUS
 62
     7
 10
-207.60834
 20
205.33159
 42
-0.083552331
  0
VERTEX
  8
0
  6
CONTINUOUS
 62
     7
 10
-203.76418
 20
203.73489
 42
0
  0
SEQEND
  8
0
  0
POLYLINE
  8
0
  6
CONTINUOUS
 62
     7
 66
     1
 10
0
 20
0
  0
VERTEX
  8
0
  6
CONTINUOUS
 62
     7
 10
-203.76418
 20
203.73489
 42
-0.048742617
  0
VERTEX
  8
0
  6
CONTINUOUS
 62
     7
 10
-195.92889
 20
205.35375
 42
-0.05302481
  0
VERTEX
  8
0
  6
CONTINUOUS
 62
     7
 10
-187.92885
 20
205.35383
 42
-0.048747309
  0
VERTEX
  8
0
  6
CONTINUOUS
 62
     7
 10
-180.09282
 20
203.73489
 42
0
  0
SEQEND
  8
0
  0
POLYLINE
  8
0
  6
CONTINUOUS
 62
     7
 66
     1
 10
0
 20
0
  0
VERTEX
  8
0
  6
CONTINUOUS
 62
     7
 10
-180.09282
 20
203.73489
 42
-0.08355298
  0
VERTEX
  8
0
  6
CONTINUOUS
 62
     7
 10
-176.24863
 20
205.3316
 42
-0.11298515
  0
VERTEX
  8
0
  6
CONTINUOUS
 62
     7
 10
-172.10129
 20
205.33159
 42
-0.083552186
  0
VERTEX
  8
0
  6
CONTINUOUS
 62
     7
 10
-168.25714
 20
203.73489
 42
0
  0
SEQEND
  8
0
  0
POLYLINE
  8
0
  6
CONTINUOUS
 62
     7
 66
     1
 10
0
 20
0
  0
VERTEX
  8
0
  6
CONTINUOUS
 62
     7
 10
-78.69149
 20
202.88257
 42
0.048742431
  0
VERTEX
  8
0
  6
CONTINUOUS
 62
     7
 10
-83.851315
 20
203.94865
 42
0.053025239
  0
VERTEX
  8
0
  6
CONTINUOUS
 62
     7
 10
-89.119639
 20
203.9487
 42
0.048747119
  0
VERTEX
  8
0
  6
CONTINUOUS
 62
     7
 10
-94.279945
 20
202.88257
 42
0
  0
SEQEND
  8
0
  0
POLYLINE
  8
0
  6
CONTINUOUS
 62
     7
 66
     1
 10
0
 20
0
  0
VERTEX
  8
0
  6
CONTINUOUS
 62
     7
 10
-94.279945
 20
202.88257
 42
0.08355266
  0
VERTEX
  8
0
  6
CONTINUOUS
 62
     7
 10
-96.811488
 20
203.93406
 42
0.1129859
  0
VERTEX
  8
0
  6
CONTINUOUS
 62
     7
 10
-99.542667
 20
203.93405
 42
0.083551849
  0
VERTEX
  8
0
  6
CONTINUOUS
 62
     7
 10
-102.07418
 20
202.88257
 42
0
  0
SEQEND
  8
0
  0
POLYLINE
  8
0
  6
CONTINUOUS
 62
     7
 66
     1
 10
0
 20
0
  0
VERTEX
  8
0
  6
CONTINUOUS
 62
     7
 10
-70.897263
 20
202.88257
 42
0.083552682
  0
VERTEX
  8
0
  6
CONTINUOUS
 62
     7
 10
-73.428802
 20
203.93406
 42
0.11298583
  0
VERTEX
  8
0
  6
CONTINUOUS
 62
     7
 10
-76.159976
 20
203.93405
 42
0.083551896
  0
VERTEX
  8
0
  6
CONTINUOUS
 62
     7
 10
-78.69149
 20
202.88257
 42
0
  0
SEQEND
  8
0
  0
POLYLINE
  8
0
  6
CONTINUOUS
 62
     7
 66
     1
 10
0
 20
0
  0
VERTEX
  8
0
  6
CONTINUOUS
 62
     7
 10
-70.858215
 20
30.673046
 42
0.048742415
  0
VERTEX
  8
0
  6
CONTINUOUS
 62
     7
 10
-76.018047
 20
31.739123
 42
0.053025267
  0
VERTEX
  8
0
  6
CONTINUOUS
 62
     7
 10
-81.286382
 20
31.739175
 42
0.048747094
  0
VERTEX
  8
0
  6
CONTINUOUS
 62
     7
 10
-86.446686
 20
30.673046
 42
0
  0
SEQEND
  8
0
  0
POLYLINE
  8
0
  6
CONTINUOUS
 62
     7
 66
     1
 10
0
 20
0
  0
VERTEX
  8
0
  6
CONTINUOUS
 62
     7
 10
-86.446686
 20
30.673046
 42
0.08355249
  0
VERTEX
  8
0
  6
CONTINUOUS
 62
     7
 10
-88.978224
 20
31.724535
 42
0.11298631
  0
VERTEX
  8
0
  6
CONTINUOUS
 62
     7
 10
-91.709405
 20
31.724531
 42
0.083551629
  0
VERTEX
  8
0
  6
CONTINUOUS
 62
     7
 10
-94.240906
 20
30.673046
 42
0
  0
SEQEND
  8
0
  0
POLYLINE
  8
0
  6
CONTINUOUS
 62
     7
 66
     1
 10
0
 20
0
  0
VERTEX
  8
0
  6
CONTINUOUS
 62
     7
 10
-63.063992
 20
30.673046
 42
0.083552479
  0
VERTEX
  8
0
  6
CONTINUOUS
 62
     7
 10
-65.595531
 20
31.724534
 42
0.11298635
  0
VERTEX
  8
0
  6
CONTINUOUS
 62
     7
 10
-68.326715
 20
31.724531
 42
0.083551605
  0
VERTEX
  8
0
  6
CONTINUOUS
 62
     7
 10
-70.858215
 20
30.673046
 42
0
  0
SEQEND
  8
0
  0
POLYLINE
  8
0
  6
CONTINUOUS
 62
     7
 66
     1
 10
0
 20
0
  0
VERTEX
  8
0
  6
CONTINUOUS
 62
     7
 10
-165.73027
 20
59.714741
 42
0.048742415
  0
VERTEX
  8
0
  6
CONTINUOUS
 62
     7
 10
-170.8901
 20
60.780817
 42
0.053025267
  0
VERTEX
  8
0
  6
CONTINUOUS
 62
     7
 10
-176.15844
 20
60.780869
 42
0.048747094
  0
VERTEX
  8
0
  6
CONTINUOUS
 62
     7
 10
-181.31874
 20
59.714741
 42
0
  0
SEQEND
  8
0
  0
POLYLINE
  8
0
  6
CONTINUOUS
 62
     7
 66
     1
 10
0
 20
0
  0
VERTEX
  8
0
  6
CONTINUOUS
 62
     7
 10
-181.31874
 20
59.714741
 42
0.08355249
  0
VERTEX
  8
0
  6
CONTINUOUS
 62
     7
 10
-183.85028
 20
60.766229
 42
0.11298631
  0
VERTEX
  8
0
  6
CONTINUOUS
 62
     7
 10
-186.58146
 20
60.766226
 42
0.083551629
  0
VERTEX
  8
0
  6
CONTINUOUS
 62
     7
 10
-189.11296
 20
59.714741
 42
0
  0
SEQEND
  8
0
  0
POLYLINE
  8
0
  6
CONTINUOUS
 62
     7
 66
     1
 10
0
 20
0
  0
VERTEX
  8
0
  6
CONTINUOUS
 62
     7
 10
-157.93605
 20
59.714741
 42
0.08355249
  0
VERTEX
  8
0
  6
CONTINUOUS
 62
     7
 10
-160.46759
 20
60.766229
 42
0.11298631
  0
VERTEX
  8
0
  6
CONTINUOUS
 62
     7
 10
-163.19877
 20
60.766226
 42
0.083551629
  0
VERTEX
  8
0
  6
CONTINUOUS
 62
     7
 10
-165.73027
 20
59.714741
 42
0
  0
SEQEND
  8
0
  0
POLYLINE
  8
0
  6
CONTINUOUS
 62
     7
 66
     1
 10
0
 20
0
  0
VERTEX
  8
0
  6
CONTINUOUS
 62
     7
 10
-258.55795
 20
30.67305
 42
0.083552919
  0
VERTEX
  8
0
  6
CONTINUOUS
 62
     7
 10
-261.08949
 20
31.724543
 42
0.1129852
  0
VERTEX
  8
0
  6
CONTINUOUS
 62
     7
 10
-263.82064
 20
31.724537
 42
0.083552259
  0
VERTEX
  8
0
  6
CONTINUOUS
 62
     7
 10
-266.35217
 20
30.67305
 42
0
  0
SEQEND
  8
0
  0
POLYLINE
  8
0
  6
CONTINUOUS
 62
     7
 66
     1
 10
0
 20
0
  0
VERTEX
  8
0
  6
CONTINUOUS
 62
     7
 10
-266.35217
 20
30.67305
 42
0.048742543
  0
VERTEX
  8
0
  6
CONTINUOUS
 62
     7
 10
-271.512
 20
31.739128
 42
0.053025003
  0
VERTEX
  8
0
  6
CONTINUOUS
 62
     7
 10
-276.78031
 20
31.739179
 42
0.048747229
  0
VERTEX
  8
0
  6
CONTINUOUS
 62
     7
 10
-281.94064
 20
30.67305
 42
0
  0
SEQEND
  8
0
  0
POLYLINE
  8
0
  6
CONTINUOUS
 62
     7
 66
     1
 10
0
 20
0
  0
VERTEX
  8
0
  6
CONTINUOUS
 62
     7
 10
-281.94064
 20
30.67305
 42
0.083552919
  0
VERTEX
  8
0
  6
CONTINUOUS
 62
     7
 10
-284.47218
 20
31.724543
 42
0.1129852
  0
VERTEX
  8
0
  6
CONTINUOUS
 62
     7
 10
-287.20333
 20
31.724537
 42
0.083552259
  0
VERTEX
  8
0
  6
CONTINUOUS
 62
     7
 10
-289.73486
 20
30.67305
 42
0
  0
SEQEND
  8
0
  0
POLYLINE
  8
0
  6
CONTINUOUS
 62
     7
 66
     1
 10
0
 20
0
  0
VERTEX
  8
0
  6
CONTINUOUS
 62
     7
 10
-351.51343
 20
59.714748
 42
0.083552919
  0
VERTEX
  8
0
  6
CONTINUOUS
 62
     7
 10
-354.04496
 20
60.766242
 42
0.1129852
  0
VERTEX
  8
0
  6
CONTINUOUS
 62
     7
 10
-356.77612
 20
60.766235
 42
0.083552259
  0
VERTEX
  8
0
  6
CONTINUOUS
 62
     7
 10
-359.30765
 20
59.714748
 42
0
  0
SEQEND
  8
0
  0
POLYLINE
  8
0
  6
CONTINUOUS
 62
     7
 66
     1
 10
0
 20
0
  0
VERTEX
  8
0
  6
CONTINUOUS
 62
     7
 10
-359.30765
 20
59.714748
 42
0.048742543
  0
VERTEX
  8
0
  6
CONTINUOUS
 62
     7
 10
-364.46748
 20
60.780827
 42
0.053025003
  0
VERTEX
  8
0
  6
CONTINUOUS
 62
     7
 10
-369.73578
 20
60.780878
 42
0.048747229
  0
VERTEX
  8
0
  6
CONTINUOUS
 62
     7
 10
-374.89612
 20
59.714748
 42
0
  0
SEQEND
  8
0
  0
POLYLINE
  8
0
  6
CONTINUOUS
 62
     7
 66
     1
 10
0
 20
0
  0
VERTEX
  8
0
  6
CONTINUOUS
 62
     7
 10
-374.89612
 20
59.714748
 42
0.083552919
  0
VERTEX
  8
0
  6
CONTINUOUS
 62
     7
 10
-377.42765
 20
60.766242
 42
0.1129852
  0
VERTEX
  8
0
  6
CONTINUOUS
 62
     7
 10
-380.15881
 20
60.766235
 42
0.083552259
  0
VERTEX
  8
0
  6
CONTINUOUS
 62
     7
 10
-382.69034
 20
59.714748
 42
0
  0
SEQEND
  8
0
  0
POLYLINE
  8
0
  6
CONTINUOUS
 62
     7
 66
     1
 10
0
 20
0
  0
VERTEX
  8
0
  6
CONTINUOUS
 62
     7
 10
-340.00269
 20
241.0907
 42
0.050243631
  0
VERTEX
  8
0
  6
CONTINUOUS
 62
     7
 10
-339.59434
 20
243.0014
 42
0.054947064
  0
VERTEX
  8
0
  6
CONTINUOUS
 62
     7
 10
-339.59461
 20
244.95581
 42
0.050155593
  0
VERTEX
  8
0
  6
CONTINUOUS
 62
     7
 10
-340.00269
 20
246.86591
 42
0
  0
SEQEND
  8
0
  0
POLYLINE
  8
0
  6
CONTINUOUS
 62
     7
 66
     1
 10
0
 20
0
  0
VERTEX
  8
0
  6
CONTINUOUS
 62
     7
 10
-340.00269
 20
239.30087
 42
-0.013138069
  0
VERTEX
  8
0
  6
CONTINUOUS
 62
     7
 10
-339.74741
 20
237.39948
 42
-0.013285875
  0
VERTEX
  8
0
  6
CONTINUOUS
 62
     7
 10
-339.59282
 20
235.48641
 42
-0.013500074
  0
VERTEX
  8
0
  6
CONTINUOUS
 62
     7
 10
-339.5408
 20
233.56589
 42
0
  0
SEQEND
  8
0
  0
POLYLINE
  8
0
  6
CONTINUOUS
 62
     7
 66
     1
 10
0
 20
0
  0
VERTEX
  8
0
  6
CONTINUOUS
 62
     7
 10
-353.50159
 20
239.30087
 42
0.013139827
  0
VERTEX
  8
0
  6
CONTINUOUS
 62
     7
 10
-353.75686
 20
237.39948
 42
0.013285881
  0
VERTEX
  8
0
  6
CONTINUOUS
 62
     7
 10
-353.91143
 20
235.48641
 42
0.013498311
  0
VERTEX
  8
0
  6
CONTINUOUS
 62
     7
 10
-353.96344
 20
233.56589
 42
0
  0
SEQEND
  8
0
  0
POLYLINE
  8
0
  6
CONTINUOUS
 62
     7
 66
     1
 10
0
 20
0
  0
VERTEX
  8
0
  6
CONTINUOUS
 62
     7
 10
-353.50159
 20
241.0907
 42
-0.050243361
  0
VERTEX
  8
0
  6
CONTINUOUS
 62
     7
 10
-353.90993
 20
243.00139
 42
-0.054947299
  0
VERTEX
  8
0
  6
CONTINUOUS
 62
     7
 10
-353.90966
 20
244.95579
 42
-0.050155695
  0
VERTEX
  8
0
  6
CONTINUOUS
 62
     7
 10
-353.50159
 20
246.86588
 42
0
  0
SEQEND
  8
0
  0
POLYLINE
  8
0
  6
CONTINUOUS
 62
     7
 66
     1
 10
0
 20
0
  0
VERTEX
  8
0
  6
CONTINUOUS
 62
     7
 10
-340.00269
 20
226.04108
 42
-0.050243631
  0
VERTEX
  8
0
  6
CONTINUOUS
 62
     7
 10
-339.59434
 20
224.13038
 42
-0.054947064
  0
VERTEX
  8
0
  6
CONTINUOUS
 62
     7
 10
-339.59461
 20
222.17597
 42
-0.050155593
  0
VERTEX
  8
0
  6
CONTINUOUS
 62
     7
 10
-340.00269
 20
220.26587
 42
0
  0
SEQEND
  8
0
  0
POLYLINE
  8
0
  6
CONTINUOUS
 62
     7
 66
     1
 10
0
 20
0
  0
VERTEX
  8
0
  6
CONTINUOUS
 62
     7
 10
-340.00269
 20
227.8309
 42
0.013138069
  0
VERTEX
  8
0
  6
CONTINUOUS
 62
     7
 10
-339.74741
 20
229.73229
 42
0.013285875
  0
VERTEX
  8
0
  6
CONTINUOUS
 62
     7
 10
-339.59282
 20
231.64537
 42
0.013500074
  0
VERTEX
  8
0
  6
CONTINUOUS
 62
     7
 10
-339.5408
 20
233.56589
 42
0
  0
SEQEND
  8
0
  0
POLYLINE
  8
0
  6
CONTINUOUS
 62
     7
 66
     1
 10
0
 20
0
  0
VERTEX
  8
0
  6
CONTINUOUS
 62
     7
 10
-353.50159
 20
227.8309
 42
-0.013139827
  0
VERTEX
  8
0
  6
CONTINUOUS
 62
     7
 10
-353.75686
 20
229.73229
 42
-0.013285881
  0
VERTEX
  8
0
  6
CONTINUOUS
 62
     7
 10
-353.91143
 20
231.64536
 42
-0.013498311
  0
VERTEX
  8
0
  6
CONTINUOUS
 62
     7
 10
-353.96344
 20
233.56589
 42
0
  0
SEQEND
  8
0
  0
POLYLINE
  8
0
  6
CONTINUOUS
 62
     7
 66
     1
 10
0
 20
0
  0
VERTEX
  8
0
  6
CONTINUOUS
 62
     7
 10
-353.50159
 20
226.04108
 42
0.050247136
  0
VERTEX
  8
0
  6
CONTINUOUS
 62
     7
 10
-353.90991
 20
224.13038
 42
0.054938951
  0
VERTEX
  8
0
  6
CONTINUOUS
 62
     7
 10
-353.90964
 20
222.17597
 42
0.050159115
  0
VERTEX
  8
0
  6
CONTINUOUS
 62
     7
 10
-353.50159
 20
220.26587
 42
0
  0
SEQEND
  8
0
  0
POLYLINE
  8
0
  6
CONTINUOUS
 62
     7
 66
     1
 10
0
 20
0
  0
VERTEX
  8
0
  6
CONTINUOUS
 62
     7
 10
-329.85242
 20
130.44534
 42
0.050247002
  0
VERTEX
  8
0
  6
CONTINUOUS
 62
     7
 10
-329.44409
 20
132.35604
 42
0.054939068
  0
VERTEX
  8
0
  6
CONTINUOUS
 62
     7
 10
-329.44437
 20
134.31044
 42
0.050159166
  0
VERTEX
  8
0
  6
CONTINUOUS
 62
     7
 10
-329.85242
 20
136.22054
 42
0
  0
SEQEND
  8
0
  0
POLYLINE
  8
0
  6
CONTINUOUS
 62
     7
 66
     1
 10
0
 20
0
  0
VERTEX
  8
0
  6
CONTINUOUS
 62
     7
 10
-329.85242
 20
128.65552
 42
-0.013139871
  0
VERTEX
  8
0
  6
CONTINUOUS
 62
     7
 10
-329.59715
 20
126.75412
 42
-0.013285855
  0
VERTEX
  8
0
  6
CONTINUOUS
 62
     7
 10
-329.44257
 20
124.84105
 42
-0.013498288
  0
VERTEX
  8
0
  6
CONTINUOUS
 62
     7
 10
-329.39056
 20
122.92052
 42
0
  0
SEQEND
  8
0
  0
POLYLINE
  8
0
  6
CONTINUOUS
 62
     7
 66
     1
 10
0
 20
0
  0
VERTEX
  8
0
  6
CONTINUOUS
 62
     7
 10
-343.35132
 20
128.65552
 42
0.013138113
  0
VERTEX
  8
0
  6
CONTINUOUS
 62
     7
 10
-343.6066
 20
126.75412
 42
0.013285849
  0
VERTEX
  8
0
  6
CONTINUOUS
 62
     7
 10
-343.76119
 20
124.84105
 42
0.01350005
  0
VERTEX
  8
0
  6
CONTINUOUS
 62
     7
 10
-343.8132
 20
122.92052
 42
0
  0
SEQEND
  8
0
  0
POLYLINE
  8
0
  6
CONTINUOUS
 62
     7
 66
     1
 10
0
 20
0
  0
VERTEX
  8
0
  6
CONTINUOUS
 62
     7
 10
-343.35132
 20
130.44534
 42
-0.050243496
  0
VERTEX
  8
0
  6
CONTINUOUS
 62
     7
 10
-343.75966
 20
132.35604
 42
-0.054947182
  0
VERTEX
  8
0
  6
CONTINUOUS
 62
     7
 10
-343.75939
 20
134.31044
 42
-0.050155644
  0
VERTEX
  8
0
  6
CONTINUOUS
 62
     7
 10
-343.35132
 20
136.22054
 42
0
  0
SEQEND
  8
0
  0
POLYLINE
  8
0
  6
CONTINUOUS
 62
     7
 66
     1
 10
0
 20
0
  0
VERTEX
  8
0
  6
CONTINUOUS
 62
     7
 10
-329.85242
 20
115.39571
 42
-0.050247136
  0
VERTEX
  8
0
  6
CONTINUOUS
 62
     7
 10
-329.44409
 20
113.48501
 42
-0.054938951
  0
VERTEX
  8
0
  6
CONTINUOUS
 62
     7
 10
-329.44437
 20
111.5306
 42
-0.050159115
  0
VERTEX
  8
0
  6
CONTINUOUS
 62
     7
 10
-329.85242
 20
109.62051
 42
0
  0
SEQEND
  8
0
  0
POLYLINE
  8
0
  6
CONTINUOUS
 62
     7
 66
     1
 10
0
 20
0
  0
VERTEX
  8
0
  6
CONTINUOUS
 62
     7
 10
-329.85242
 20
117.18554
 42
0.013139827
  0
VERTEX
  8
0
  6
CONTINUOUS
 62
     7
 10
-329.59715
 20
119.08693
 42
0.013285881
  0
VERTEX
  8
0
  6
CONTINUOUS
 62
     7
 10
-329.44257
 20
121
 42
0.013498311
  0
VERTEX
  8
0
  6
CONTINUOUS
 62
     7
 10
-329.39056
 20
122.92052
 42
0
  0
SEQEND
  8
0
  0
POLYLINE
  8
0
  6
CONTINUOUS
 62
     7
 66
     1
 10
0
 20
0
  0
VERTEX
  8
0
  6
CONTINUOUS
 62
     7
 10
-343.35132
 20
117.18554
 42
-0.013138069
  0
VERTEX
  8
0
  6
CONTINUOUS
 62
     7
 10
-343.6066
 20
119.08693
 42
-0.013285875
  0
VERTEX
  8
0
  6
CONTINUOUS
 62
     7
 10
-343.76119
 20
121
 42
-0.013500074
  0
VERTEX
  8
0
  6
CONTINUOUS
 62
     7
 10
-343.8132
 20
122.92052
 42
0
  0
SEQEND
  8
0
  0
POLYLINE
  8
0
  6
CONTINUOUS
 62
     7
 66
     1
 10
0
 20
0
  0
VERTEX
  8
0
  6
CONTINUOUS
 62
     7
 10
-343.35132
 20
115.39571
 42
0.050243631
  0
VERTEX
  8
0
  6
CONTINUOUS
 62
     7
 10
-343.75966
 20
113.48502
 42
0.054947064
  0
VERTEX
  8
0
  6
CONTINUOUS
 62
     7
 10
-343.75939
 20
111.5306
 42
0.050155593
  0
VERTEX
  8
0
  6
CONTINUOUS
 62
     7
 10
-343.35132
 20
109.62051
 42
0
  0
SEQEND
  8
0
  0
POLYLINE
  8
0
  6
CONTINUOUS
 62
     7
 66
     1
 10
0
 20
0
  0
VERTEX
  8
0
  6
CONTINUOUS
 62
     7
 10
-255.01176
 20
223.71446
 42
0.01624566
  0
VERTEX
  8
0
  6
CONTINUOUS
 62
     7
 10
-254.56607
 20
226.36904
 42
0.016520531
  0
VERTEX
  8
0
  6
CONTINUOUS
 62
     7
 10
-254.29504
 20
229.04734
 42
0.016923645
  0
VERTEX
  8
0
  6
CONTINUOUS
 62
     7
 10
-254.20346
 20
231.74004
 42
0
  0
SEQEND
  8
0
  0
POLYLINE
  8
0
  6
CONTINUOUS
 62
     7
 66
     1
 10
0
 20
0
  0
VERTEX
  8
0
  6
CONTINUOUS
 62
     7
 10
-268.62613
 20
231.74004
 42
-0.016924364
  0
VERTEX
  8
0
  6
CONTINUOUS
 62
     7
 10
-268.53454
 20
234.43291
 42
-0.01653495
  0
VERTEX
  8
0
  6
CONTINUOUS
 62
     7
 10
-268.26319
 20
237.1136
 42
-0.016230051
  0
VERTEX
  8
0
  6
CONTINUOUS
 62
     7
 10
-267.81784
 20
239.76561
 42
0
  0
SEQEND
  8
0
  0
POLYLINE
  8
0
  6
CONTINUOUS
 62
     7
 66
     1
 10
0
 20
0
  0
VERTEX
  8
0
  6
CONTINUOUS
 62
     7
 10
-255.01176
 20
249.64003
 42
-0.060912244
  0
VERTEX
  8
0
  6
CONTINUOUS
 62
     7
 10
-254.29961
 20
246.9849
 42
-0.069925376
  0
VERTEX
  8
0
  6
CONTINUOUS
 62
     7
 10
-254.29939
 20
244.23822
 42
-0.060971052
  0
VERTEX
  8
0
  6
CONTINUOUS
 62
     7
 10
-255.01176
 20
241.58363
 42
0
  0
SEQEND
  8
0
  0
POLYLINE
  8
0
  6
CONTINUOUS
 62
     7
 66
     1
 10
0
 20
0
  0
VERTEX
  8
0
  6
CONTINUOUS
 62
     7
 10
-267.81784
 20
241.58363
 42
-0.060980309
  0
VERTEX
  8
0
  6
CONTINUOUS
 62
     7
 10
-268.53028
 20
244.23863
 42
-0.069926141
  0
VERTEX
  8
0
  6
CONTINUOUS
 62
     7
 10
-268.52993
 20
246.98532
 42
-0.060900766
  0
VERTEX
  8
0
  6
CONTINUOUS
 62
     7
 10
-267.81784
 20
249.64003
 42
0
  0
SEQEND
  8
0
  0
POLYLINE
  8
0
  6
CONTINUOUS
 62
     7
 66
     1
 10
0
 20
0
  0
VERTEX
  8
0
  6
CONTINUOUS
 62
     7
 10
-255.01176
 20
239.76561
 42
-0.01624566
  0
VERTEX
  8
0
  6
CONTINUOUS
 62
     7
 10
-254.56607
 20
237.11104
 42
-0.016520531
  0
VERTEX
  8
0
  6
CONTINUOUS
 62
     7
 10
-254.29504
 20
234.43273
 42
-0.016923645
  0
VERTEX
  8
0
  6
CONTINUOUS
 62
     7
 10
-254.20346
 20
231.74004
 42
0
  0
SEQEND
  8
0
  0
POLYLINE
  8
0
  6
CONTINUOUS
 62
     7
 66
     1
 10
0
 20
0
  0
VERTEX
  8
0
  6
CONTINUOUS
 62
     7
 10
-268.62613
 20
231.74004
 42
0.016924364
  0
VERTEX
  8
0
  6
CONTINUOUS
 62
     7
 10
-268.53454
 20
229.04716
 42
0.01653495
  0
VERTEX
  8
0
  6
CONTINUOUS
 62
     7
 10
-268.26319
 20
226.36647
 42
0.016230051
  0
VERTEX
  8
0
  6
CONTINUOUS
 62
     7
 10
-267.81784
 20
223.71446
 42
0
  0
SEQEND
  8
0
  0
POLYLINE
  8
0
  6
CONTINUOUS
 62
     7
 66
     1
 10
0
 20
0
  0
VERTEX
  8
0
  6
CONTINUOUS
 62
     7
 10
-255.01176
 20
213.84004
 42
0.060910734
  0
VERTEX
  8
0
  6
CONTINUOUS
 62
     7
 10
-254.2996
 20
216.49517
 42
0.069928351
  0
VERTEX
  8
0
  6
CONTINUOUS
 62
     7
 10
-254.29937
 20
219.24185
 42
0.060969987
  0
VERTEX
  8
0
  6
CONTINUOUS
 62
     7
 10
-255.01176
 20
221.89642
 42
0
  0
SEQEND
  8
0
  0
POLYLINE
  8
0
  6
CONTINUOUS
 62
     7
 66
     1
 10
0
 20
0
  0
VERTEX
  8
0
  6
CONTINUOUS
 62
     7
 10
-267.81784
 20
221.89642
 42
0.060980192
  0
VERTEX
  8
0
  6
CONTINUOUS
 62
     7
 10
-268.53028
 20
219.24143
 42
0.069926221
  0
VERTEX
  8
0
  6
CONTINUOUS
 62
     7
 10
-268.52994
 20
216.49475
 42
0.060900827
  0
VERTEX
  8
0
  6
CONTINUOUS
 62
     7
 10
-267.81784
 20
213.84004
 42
0
  0
SEQEND
  8
0
  0
POLYLINE
  8
0
  6
CONTINUOUS
 62
     7
 66
     1
 10
0
 20
0
  0
VERTEX
  8
0
  6
CONTINUOUS
 62
     7
 10
-47.582699
 20
220.06277
 42
0.016245973
  0
VERTEX
  8
0
  6
CONTINUOUS
 62
     7
 10
-47.137002
 20
222.71735
 42
0.016520532
  0
VERTEX
  8
0
  6
CONTINUOUS
 62
     7
 10
-46.865977
 20
225.39566
 42
0.016923332
  0
VERTEX
  8
0
  6
CONTINUOUS
 62
     7
 10
-46.774403
 20
228.08835
 42
0
  0
SEQEND
  8
0
  0
POLYLINE
  8
0
  6
CONTINUOUS
 62
     7
 66
     1
 10
0
 20
0
  0
VERTEX
  8
0
  6
CONTINUOUS
 62
     7
 10
-61.197063
 20
228.08835
 42
-0.016924412
  0
VERTEX
  8
0
  6
CONTINUOUS
 62
     7
 10
-61.105478
 20
230.78122
 42
-0.016534997
  0
VERTEX
  8
0
  6
CONTINUOUS
 62
     7
 10
-60.834123
 20
233.4619
 42
-0.016229967
  0
VERTEX
  8
0
  6
CONTINUOUS
 62
     7
 10
-60.388775
 20
236.11391
 42
0
  0
SEQEND
  8
0
  0
POLYLINE
  8
0
  6
CONTINUOUS
 62
     7
 66
     1
 10
0
 20
0
  0
VERTEX
  8
0
  6
CONTINUOUS
 62
     7
 10
-47.582699
 20
245.98836
 42
-0.060911333
  0
VERTEX
  8
0
  6
CONTINUOUS
 62
     7
 10
-46.87054
 20
243.33323
 42
-0.06992682
  0
VERTEX
  8
0
  6
CONTINUOUS
 62
     7
 10
-46.870313
 20
240.58654
 42
-0.060970704
  0
VERTEX
  8
0
  6
CONTINUOUS
 62
     7
 10
-47.582699
 20
237.93196
 42
0
  0
SEQEND
  8
0
  0
POLYLINE
  8
0
  6
CONTINUOUS
 62
     7
 66
     1
 10
0
 20
0
  0
VERTEX
  8
0
  6
CONTINUOUS
 62
     7
 10
-60.388775
 20
237.93196
 42
-0.060980074
  0
VERTEX
  8
0
  6
CONTINUOUS
 62
     7
 10
-61.10121
 20
240.58695
 42
-0.069926301
  0
VERTEX
  8
0
  6
CONTINUOUS
 62
     7
 10
-61.100871
 20
243.33363
 42
-0.060900889
  0
VERTEX
  8
0
  6
CONTINUOUS
 62
     7
 10
-60.388775
 20
245.98833
 42
0
  0
SEQEND
  8
0
  0
POLYLINE
  8
0
  6
CONTINUOUS
 62
     7
 66
     1
 10
0
 20
0
  0
VERTEX
  8
0
  6
CONTINUOUS
 62
     7
 10
-47.582699
 20
236.11391
 42
-0.016245885
  0
VERTEX
  8
0
  6
CONTINUOUS
 62
     7
 10
-47.137002
 20
233.45934
 42
-0.016520579
  0
VERTEX
  8
0
  6
CONTINUOUS
 62
     7
 10
-46.865977
 20
230.78104
 42
-0.016923383
  0
VERTEX
  8
0
  6
CONTINUOUS
 62
     7
 10
-46.774403
 20
228.08835
 42
0
  0
SEQEND
  8
0
  0
POLYLINE
  8
0
  6
CONTINUOUS
 62
     7
 66
     1
 10
0
 20
0
  0
VERTEX
  8
0
  6
CONTINUOUS
 62
     7
 10
-61.197063
 20
228.08835
 42
0.016924364
  0
VERTEX
  8
0
  6
CONTINUOUS
 62
     7
 10
-61.105478
 20
225.39547
 42
0.01653495
  0
VERTEX
  8
0
  6
CONTINUOUS
 62
     7
 10
-60.834123
 20
222.71479
 42
0.016230051
  0
VERTEX
  8
0
  6
CONTINUOUS
 62
     7
 10
-60.388775
 20
220.06277
 42
0
  0
SEQEND
  8
0
  0
POLYLINE
  8
0
  6
CONTINUOUS
 62
     7
 66
     1
 10
0
 20
0
  0
VERTEX
  8
0
  6
CONTINUOUS
 62
     7
 10
-47.582699
 20
210.18835
 42
0.060911359
  0
VERTEX
  8
0
  6
CONTINUOUS
 62
     7
 10
-46.870539
 20
212.84348
 42
0.069926897
  0
VERTEX
  8
0
  6
CONTINUOUS
 62
     7
 10
-46.870314
 20
215.59016
 42
0.060970626
  0
VERTEX
  8
0
  6
CONTINUOUS
 62
     7
 10
-47.582699
 20
218.24474
 42
0
  0
SEQEND
  8
0
  0
POLYLINE
  8
0
  6
CONTINUOUS
 62
     7
 66
     1
 10
0
 20
0
  0
VERTEX
  8
0
  6
CONTINUOUS
 62
     7
 10
-60.388775
 20
218.24474
 42
0.060980192
  0
VERTEX
  8
0
  6
CONTINUOUS
 62
     7
 10
-61.101211
 20
215.58974
 42
0.069926221
  0
VERTEX
  8
0
  6
CONTINUOUS
 62
     7
 10
-61.10087
 20
212.84306
 42
0.060900827
  0
VERTEX
  8
0
  6
CONTINUOUS
 62
     7
 10
-60.388775
 20
210.18835
 42
0
  0
SEQEND
  8
0
  0
POLYLINE
  8
0
  6
CONTINUOUS
 62
     7
 66
     1
 10
0
 20
0
  0
VERTEX
  8
0
  6
CONTINUOUS
 62
     7
 10
-134.62148
 20
114.89495
 42
0.016246285
  0
VERTEX
  8
0
  6
CONTINUOUS
 62
     7
 10
-134.17578
 20
117.54953
 42
0.016520534
  0
VERTEX
  8
0
  6
CONTINUOUS
 62
     7
 10
-133.90476
 20
120.22783
 42
0.016923018
  0
VERTEX
  8
0
  6
CONTINUOUS
 62
     7
 10
-133.81319
 20
122.92052
 42
0
  0
SEQEND
  8
0
  0
POLYLINE
  8
0
  6
CONTINUOUS
 62
     7
 66
     1
 10
0
 20
0
  0
VERTEX
  8
0
  6
CONTINUOUS
 62
     7
 10
-148.23586
 20
122.92052
 42
-0.01692434
  0
VERTEX
  8
0
  6
CONTINUOUS
 62
     7
 10
-148.14427
 20
125.6134
 42
-0.016534927
  0
VERTEX
  8
0
  6
CONTINUOUS
 62
     7
 10
-147.87291
 20
128.29409
 42
-0.016230093
  0
VERTEX
  8
0
  6
CONTINUOUS
 62
     7
 10
-147.42757
 20
130.94611
 42
0
  0
SEQEND
  8
0
  0
POLYLINE
  8
0
  6
CONTINUOUS
 62
     7
 66
     1
 10
0
 20
0
  0
VERTEX
  8
0
  6
CONTINUOUS
 62
     7
 10
-134.62151
 20
140.82053
 42
-0.060909484
  0
VERTEX
  8
0
  6
CONTINUOUS
 62
     7
 10
-133.90933
 20
138.1654
 42
-0.069931258
  0
VERTEX
  8
0
  6
CONTINUOUS
 62
     7
 10
-133.9091
 20
135.41872
 42
-0.060968709
  0
VERTEX
  8
0
  6
CONTINUOUS
 62
     7
 10
-134.62151
 20
132.76414
 42
0
  0
SEQEND
  8
0
  0
POLYLINE
  8
0
  6
CONTINUOUS
 62
     7
 66
     1
 10
0
 20
0
  0
VERTEX
  8
0
  6
CONTINUOUS
 62
     7
 10
-147.42757
 20
132.76414
 42
-0.060980192
  0
VERTEX
  8
0
  6
CONTINUOUS
 62
     7
 10
-148.14
 20
135.41914
 42
-0.069926221
  0
VERTEX
  8
0
  6
CONTINUOUS
 62
     7
 10
-148.13966
 20
138.16582
 42
-0.060900827
  0
VERTEX
  8
0
  6
CONTINUOUS
 62
     7
 10
-147.42757
 20
140.82053
 42
0
  0
SEQEND
  8
0
  0
POLYLINE
  8
0
  6
CONTINUOUS
 62
     7
 66
     1
 10
0
 20
0
  0
VERTEX
  8
0
  6
CONTINUOUS
 62
     7
 10
-134.62151
 20
130.94611
 42
-0.016245079
  0
VERTEX
  8
0
  6
CONTINUOUS
 62
     7
 10
-134.1758
 20
128.29153
 42
-0.016520504
  0
VERTEX
  8
0
  6
CONTINUOUS
 62
     7
 10
-133.90477
 20
125.61322
 42
-0.016924247
  0
VERTEX
  8
0
  6
CONTINUOUS
 62
     7
 10
-133.81319
 20
122.92052
 42
0
  0
SEQEND
  8
0
  0
POLYLINE
  8
0
  6
CONTINUOUS
 62
     7
 66
     1
 10
0
 20
0
  0
VERTEX
  8
0
  6
CONTINUOUS
 62
     7
 10
-148.23586
 20
122.92052
 42
0.016924364
  0
VERTEX
  8
0
  6
CONTINUOUS
 62
     7
 10
-148.14427
 20
120.22765
 42
0.01653495
  0
VERTEX
  8
0
  6
CONTINUOUS
 62
     7
 10
-147.87291
 20
117.54696
 42
0.016230051
  0
VERTEX
  8
0
  6
CONTINUOUS
 62
     7
 10
-147.42757
 20
114.89495
 42
0
  0
SEQEND
  8
0
  0
POLYLINE
  8
0
  6
CONTINUOUS
 62
     7
 66
     1
 10
0
 20
0
  0
VERTEX
  8
0
  6
CONTINUOUS
 62
     7
 10
-134.62148
 20
105.02053
 42
0.060911984
  0
VERTEX
  8
0
  6
CONTINUOUS
 62
     7
 10
-133.90932
 20
107.67566
 42
0.069925443
  0
VERTEX
  8
0
  6
CONTINUOUS
 62
     7
 10
-133.9091
 20
110.42234
 42
0.060971265
  0
VERTEX
  8
0
  6
CONTINUOUS
 62
     7
 10
-134.62148
 20
113.07691
 42
0
  0
SEQEND
  8
0
  0
POLYLINE
  8
0
  6
CONTINUOUS
 62
     7
 66
     1
 10
0
 20
0
  0
VERTEX
  8
0
  6
CONTINUOUS
 62
     7
 10
-147.42757
 20
113.07691
 42
0.060980192
  0
VERTEX
  8
0
  6
CONTINUOUS
 62
     7
 10
-148.14
 20
110.42192
 42
0.069926221
  0
VERTEX
  8
0
  6
CONTINUOUS
 62
     7
 10
-148.13966
 20
107.67523
 42
0.060900827
  0
VERTEX
  8
0
  6
CONTINUOUS
 62
     7
 10
-147.42757
 20
105.02053
 42
0
  0
SEQEND
  8
0
  0
TEXT
  8
0
  6
CONTINUOUS
 62
     7
 10
-388.09248
 20
275.26605
 40
5
 41
0.84349531
  1
ＭＲ－Ｊ　　給水栓用エルボ
  0
TEXT
  8
0
  6
CONTINUOUS
 62
     7
 10
-389.3189
 20
251.9763
 40
4.8000002
 41
1.0084034
  1
13X1/2
  0
TEXT
  8
0
  6
CONTINUOUS
 62
     7
 10
-308.64144
 20
252.52044
 40
4.8000002
 41
1.0084034
  1
20X3/4
  0
TEXT
  8
0
  6
CONTINUOUS
 62
     7
 10
-201.88
 20
256.87631
 40
4.8000002
 41
1.0129871
  1
25X1
  0
TEXT
  8
0
  6
CONTINUOUS
 62
     7
 10
-94.182121
 20
248.68873
 40
4.8000002
 41
1.0084034
  1
20X1/2
  0
TEXT
  8
0
  6
CONTINUOUS
 62
     7
 10
-91.264876
 20
147.46989
 40
4
 41
1.0049261
  1
20X1/2X100
  0
TEXT
  8
0
  6
CONTINUOUS
 62
     7
 10
-184.43812
 20
145.9671
 40
4
 41
1.0054945
  1
20X1/2X70
  0
TEXT
  8
0
  6
CONTINUOUS
 62
     7
 10
-284.6244
 20
145.9671
 40
4
 41
1.0049261
  1
13X1/2X100
  0
TEXT
  8
0
  6
CONTINUOUS
 62
     7
 10
-372.78834
 20
144.96524
 40
4
 41
1.0054945
  1
13X1/2X70
  0
LINE
  8
1
  6
CONTINUOUS
 62
     7
 10
0
 20
297
 11
0
 21
0
  0
LINE
  8
1
  6
CONTINUOUS
 62
     7
 10
-420
 20
297
 11
-420
 21
0
  0
LINE
  8
1
  6
CONTINUOUS
 62
     7
 10
-420
 20
0
 11
0
 21
0
  0
LINE
  8
1
  6
CONTINUOUS
 62
     7
 10
-420
 20
297
 11
0
 21
297
  0
LINE
  8
1
  6
CONTINUOUS
 62
     7
 10
-420
 20
297
 11
0
 21
297
  0
ARC
  8
1
  6
CONTINUOUS
 62
     7
 10
116.6
 20
10.178727
 40
0.40000001
 50
285
 51
0
  0
ENDSEC
  0
EOF
