  0
SECTION
  2
HEADER
  9
$EXTMAX
 10
0
 20
297
  9
$EXTMIN
 10
-210
 20
0
  0
ENDSEC
  0
SECTION
  2
TABLES
  0
TABLE
  2
LTYPE
 70
    22
  0
LTYPE
  2
CONTINUOUS
 70
    64
  3
Solid line
 72
    65
 73
     0
 40
0.000000
  0
LTYPE
  2
DASHED
 70
    64
  3
__ __ __ __ __ __ __ __ __ __ __ __ __ __ __
 72
    65
 73
     2
 40
3.500000
 49
2.000000
 49
-1.500000
  0
LTYPE
  2
CENTER
 70
    64
  3
____ _ ____ _ ____ _ ____ _ ____ _ ____ _ ____
 72
    65
 73
     4
 40
17.500000
 49
13.000000
 49
-1.500000
 49
1.500000
 49
-1.500000
  0
LTYPE
  2
PHANTOM
 70
    64
  3
_____ _ _ _____ _ _ _____ _ _ _____ _ _ ____  
 72
    65
 73
     6
 40
15.500000
 49
8.000000
 49
-1.500000
 49
1.500000
 49
-1.500000
 49
1.500000
 49
-1.500000
  0
LTYPE
  2
DOT
 70
    64
  3
. . . . . . . . . . . . . . . . . . . . . . . .
 72
    65
 73
     2
 40
0.25
 49
0.0
 49
-0.25
  0
ENDTAB
  0
TABLE
  2
LAYER
 70
     2
  0
LAYER
  2
0
 70
     0
 62
     7
  6
CONTINUOUS
  0
LAYER
  2
1
 70
     0
 62
     7
  6
CONTINUOUS
  0
ENDTAB
  0
TABLE
  2
STYLE
 70
     1
  0
STYLE
  2
STANDARD
 70
     0
 40
0.000000
 41
1.000000
 50
0.000000
 71
     0
 42
0.200000
  3
txt
  4
BIGFONT
  0
ENDTAB
  0
TABLE
  2
VIEW
 70
     0
  0
ENDTAB
  0
ENDSEC
  0
SECTION
  2
BLOCKS
  0
ENDSEC
  0
SECTION
  2
ENTITIES
  0
POINT
  8
0
  6
CONTINUOUS
 62
     7
 10
-100.87019
 20
216.4184
  0
POINT
  8
0
  6
CONTINUOUS
 62
     7
 10
-100.87019
 20
136.4184
  0
POINT
  8
0
  6
CONTINUOUS
 62
     7
 10
-100.87019
 20
46.418411
  0
POINT
  8
0
  6
CONTINUOUS
 62
     7
 10
-100.87019
 20
216.4184
  0
POINT
  8
0
  6
CONTINUOUS
 62
     7
 10
-100.87019
 20
46.418411
  0
LINE
  8
0
  6
CONTINUOUS
 62
     7
 10
-154.17996
 20
271.4249
 11
-152.17996
 21
271.4249
  0
LINE
  8
0
  6
CONTINUOUS
 62
     7
 10
-154.17996
 20
276.28983
 11
-152.17996
 21
276.28983
  0
LINE
  8
0
  6
CONTINUOUS
 62
     7
 10
-152.67996
 20
276.28983
 11
-152.67996
 21
271.4249
  0
LINE
  8
0
  6
CONTINUOUS
 62
     7
 10
-153.67996
 20
276.28983
 11
-153.67996
 21
271.4249
  0
LINE
  8
0
  6
CONTINUOUS
 62
     7
 10
-100.87019
 20
91.418411
 11
-121.37019
 21
91.418411
  0
LINE
  8
0
  6
CONTINUOUS
 62
     7
 10
-111.51725
 20
89.917313
 11
-113.30016
 21
89.917313
  0
LINE
  8
0
  6
CONTINUOUS
 62
     7
 10
-111.51725
 20
76.91951
 11
-111.51725
 21
89.917313
  0
LINE
  8
0
  6
CONTINUOUS
 62
     7
 10
-113.30016
 20
76.91951
 11
-113.30016
 21
89.917313
  0
LINE
  8
0
  6
CONTINUOUS
 62
     7
 10
-111.51725
 20
76.91951
 11
-113.30016
 21
76.91951
  0
LINE
  8
0
  6
CONTINUOUS
 62
     7
 10
-100.87019
 20
75.418411
 11
-121.37019
 21
75.418411
  0
LINE
  8
0
  6
CONTINUOUS
 62
     7
 10
-121.37018
 20
75.418381
 11
-123.97018
 21
76.919495
  0
LINE
  8
0
  6
CONTINUOUS
 62
     7
 10
-123.97018
 20
76.91951
 11
-123.97018
 21
89.917313
  0
LINE
  8
0
  6
CONTINUOUS
 62
     7
 10
-123.97017
 20
89.917282
 11
-121.37017
 21
91.418396
  0
LINE
  8
0
  6
CONTINUOUS
 62
     7
 10
-100.87019
 20
91.418411
 11
-80.370186
 21
91.418411
  0
LINE
  8
0
  6
CONTINUOUS
 62
     7
 10
-90.223122
 20
89.917313
 11
-88.440208
 21
89.917313
  0
LINE
  8
0
  6
CONTINUOUS
 62
     7
 10
-90.223122
 20
76.91954
 11
-90.223122
 21
89.917313
  0
LINE
  8
0
  6
CONTINUOUS
 62
     7
 10
-88.440208
 20
76.91954
 11
-88.440208
 21
89.917313
  0
LINE
  8
0
  6
CONTINUOUS
 62
     7
 10
-90.223122
 20
76.91951
 11
-88.440208
 21
76.91951
  0
LINE
  8
0
  6
CONTINUOUS
 62
     7
 10
-100.87019
 20
75.418411
 11
-80.370186
 21
75.418411
  0
LINE
  8
0
  6
CONTINUOUS
 62
     7
 10
-80.370188
 20
75.418396
 11
-77.770184
 21
76.91951
  0
LINE
  8
0
  6
CONTINUOUS
 62
     7
 10
-77.770195
 20
76.91954
 11
-77.770195
 21
89.917313
  0
LINE
  8
0
  6
CONTINUOUS
 62
     7
 10
-77.770193
 20
89.917297
 11
-80.370197
 21
91.418411
  0
LINE
  8
0
  6
CENTER
 62
     7
 10
-137.43925
 20
216.4184
 11
-63.225323
 21
216.4184
  0
LINE
  8
0
  6
CONTINUOUS
 62
     7
 10
-111.62019
 20
231.57896
 11
-111.62019
 21
229.1684
  0
LINE
  8
0
  6
CONTINUOUS
 62
     7
 10
-111.37019
 20
235.4184
 11
-111.37019
 21
232.01196
  0
LINE
  8
0
  6
CONTINUOUS
 62
     7
 10
-110.55817
 20
235.4184
 11
-110.55817
 21
233.4184
  0
LINE
  8
0
  6
CONTINUOUS
 62
     7
 10
-111.37019
 20
233.4184
 11
-100.87019
 21
233.4184
  0
LINE
  8
0
  6
CONTINUOUS
 62
     7
 10
-110.55818
 20
233.4184
 11
-111.37019
 21
232.01197
  0
LINE
  8
0
  6
CONTINUOUS
 62
     7
 10
-111.37019
 20
232.01197
 11
-111.62019
 21
231.57896
  0
LINE
  8
0
  6
CONTINUOUS
 62
     7
 10
-100.87019
 20
206.4184
 11
-107.57114
 21
206.4184
  0
LINE
  8
0
  6
CONTINUOUS
 62
     7
 10
-116.03077
 20
205.6684
 11
-108.87019
 21
205.6684
  0
LINE
  8
0
  6
CONTINUOUS
 62
     7
 10
-116.46378
 20
205.91844
 11
-116.03076
 21
205.66844
  0
LINE
  8
0
  6
CONTINUOUS
 62
     7
 10
-117.8702
 20
206.73044
 11
-116.46378
 21
205.91844
  0
LINE
  8
0
  6
CONTINUOUS
 62
     7
 10
-119.87019
 20
205.9184
 11
-116.46375
 21
205.9184
  0
LINE
  8
0
  6
CONTINUOUS
 62
     7
 10
-117.87019
 20
205.9184
 11
-117.87019
 21
226.9184
  0
LINE
  8
0
  6
CONTINUOUS
 62
     7
 10
-119.87019
 20
206.73041
 11
-117.87019
 21
206.73041
  0
LINE
  8
0
  6
CONTINUOUS
 62
     7
 10
-119.87019
 20
226.9184
 11
-116.46375
 21
226.9184
  0
LINE
  8
0
  6
CONTINUOUS
 62
     7
 10
-119.87019
 20
226.1064
 11
-117.87019
 21
226.1064
  0
LINE
  8
0
  6
CONTINUOUS
 62
     7
 10
-117.8702
 20
226.10641
 11
-116.46376
 21
226.91841
  0
LINE
  8
0
  6
CONTINUOUS
 62
     7
 10
-116.03077
 20
227.1684
 11
-113.62019
 21
227.1684
  0
LINE
  8
0
  6
CONTINUOUS
 62
     7
 10
-116.46376
 20
226.91841
 11
-116.03075
 21
227.16841
  0
LINE
  8
0
  6
CONTINUOUS
 62
     7
 10
-106.87019
 20
224.4184
 11
-100.87019
 21
224.4184
  0
LINE
  8
0
  6
CONTINUOUS
 62
     7
 10
-108.87019
 20
222.4184
 11
-108.87019
 21
205.6684
  0
LINE
  8
0
  6
CENTER
 62
     7
 10
-100.87019
 20
201.4184
 11
-100.87019
 21
253.66914
  0
LINE
  8
0
  6
CONTINUOUS
 62
     7
 10
-90.120186
 20
231.57896
 11
-90.120186
 21
229.1684
  0
LINE
  8
0
  6
CONTINUOUS
 62
     7
 10
-90.370186
 20
235.4184
 11
-90.370186
 21
232.01196
  0
LINE
  8
0
  6
CONTINUOUS
 62
     7
 10
-91.182198
 20
235.4184
 11
-91.182198
 21
233.4184
  0
LINE
  8
0
  6
CONTINUOUS
 62
     7
 10
-90.370186
 20
233.4184
 11
-100.87019
 21
233.4184
  0
LINE
  8
0
  6
CONTINUOUS
 62
     7
 10
-91.182212
 20
233.4184
 11
-90.370215
 21
232.01198
  0
LINE
  8
0
  6
CONTINUOUS
 62
     7
 10
-90.370215
 20
232.01198
 11
-90.120215
 21
231.57896
  0
LINE
  8
0
  6
CONTINUOUS
 62
     7
 10
-100.87019
 20
206.4184
 11
-94.169228
 21
206.4184
  0
LINE
  8
0
  6
CONTINUOUS
 62
     7
 10
-85.709633
 20
205.6684
 11
-92.870186
 21
205.6684
  0
LINE
  8
0
  6
CONTINUOUS
 62
     7
 10
-85.276634
 20
205.91842
 11
-85.709648
 21
205.66842
  0
LINE
  8
0
  6
CONTINUOUS
 62
     7
 10
-83.870203
 20
206.73043
 11
-85.276634
 21
205.91842
  0
LINE
  8
0
  6
CONTINUOUS
 62
     7
 10
-81.870186
 20
205.9184
 11
-85.276619
 21
205.9184
  0
LINE
  8
0
  6
CONTINUOUS
 62
     7
 10
-83.870186
 20
205.9184
 11
-83.870186
 21
226.9184
  0
LINE
  8
0
  6
CONTINUOUS
 62
     7
 10
-81.870186
 20
206.73041
 11
-83.870186
 21
206.73041
  0
LINE
  8
0
  6
CONTINUOUS
 62
     7
 10
-81.870186
 20
226.9184
 11
-85.276619
 21
226.9184
  0
LINE
  8
0
  6
CONTINUOUS
 62
     7
 10
-81.870186
 20
226.1064
 11
-83.870186
 21
226.1064
  0
LINE
  8
0
  6
CONTINUOUS
 62
     7
 10
-83.870201
 20
226.10642
 11
-85.276648
 21
226.91843
  0
LINE
  8
0
  6
CONTINUOUS
 62
     7
 10
-85.709633
 20
227.1684
 11
-88.120186
 21
227.1684
  0
LINE
  8
0
  6
CONTINUOUS
 62
     7
 10
-85.276648
 20
226.91843
 11
-85.70966
 21
227.16843
  0
LINE
  8
0
  6
CONTINUOUS
 62
     7
 10
-94.870186
 20
224.4184
 11
-100.87019
 21
224.4184
  0
LINE
  8
0
  6
CONTINUOUS
 62
     7
 10
-92.870186
 20
222.4184
 11
-92.870186
 21
205.6684
  0
LINE
  8
0
  6
CENTER
 62
     7
 10
-141.81636
 20
136.4184
 11
-59.868191
 21
136.4184
  0
LINE
  8
0
  6
CONTINUOUS
 62
     7
 10
-115.12019
 20
155.57895
 11
-115.12019
 21
152.6684
  0
LINE
  8
0
  6
CONTINUOUS
 62
     7
 10
-114.0582
 20
159.4184
 11
-114.0582
 21
157.4184
  0
LINE
  8
0
  6
CONTINUOUS
 62
     7
 10
-114.87019
 20
159.4184
 11
-114.87019
 21
156.01196
  0
LINE
  8
0
  6
CONTINUOUS
 62
     7
 10
-114.87019
 20
157.4184
 11
-100.87019
 21
157.4184
  0
LINE
  8
0
  6
CONTINUOUS
 62
     7
 10
-114.05822
 20
157.41839
 11
-114.87022
 21
156.01197
  0
LINE
  8
0
  6
CONTINUOUS
 62
     7
 10
-114.87022
 20
156.01197
 11
-115.12022
 21
155.57895
  0
LINE
  8
0
  6
CONTINUOUS
 62
     7
 10
-100.87019
 20
122.8684
 11
-110.35032
 21
122.8684
  0
LINE
  8
0
  6
CONTINUOUS
 62
     7
 10
-111.87019
 20
122.1684
 11
-120.03077
 21
122.1684
  0
LINE
  8
0
  6
CONTINUOUS
 62
     7
 10
-120.03077
 20
122.16842
 11
-120.46378
 21
122.41842
  0
LINE
  8
0
  6
CONTINUOUS
 62
     7
 10
-120.46378
 20
122.41842
 11
-121.8702
 21
123.23042
  0
LINE
  8
0
  6
CONTINUOUS
 62
     7
 10
-120.46378
 20
122.4184
 11
-123.87019
 21
122.4184
  0
LINE
  8
0
  6
CONTINUOUS
 62
     7
 10
-121.87019
 20
123.2304
 11
-123.87019
 21
123.2304
  0
LINE
  8
0
  6
CONTINUOUS
 62
     7
 10
-120.46378
 20
150.4184
 11
-123.87019
 21
150.4184
  0
LINE
  8
0
  6
CONTINUOUS
 62
     7
 10
-121.87019
 20
149.6064
 11
-123.87019
 21
149.6064
  0
LINE
  8
0
  6
CONTINUOUS
 62
     7
 10
-121.87019
 20
150.4184
 11
-121.87019
 21
122.4184
  0
LINE
  8
0
  6
CONTINUOUS
 62
     7
 10
-120.46378
 20
150.41842
 11
-121.8702
 21
149.60642
  0
LINE
  8
0
  6
CONTINUOUS
 62
     7
 10
-120.03077
 20
150.66842
 11
-120.46378
 21
150.41842
  0
LINE
  8
0
  6
CONTINUOUS
 62
     7
 10
-117.12019
 20
150.6684
 11
-120.03077
 21
150.6684
  0
LINE
  8
0
  6
CONTINUOUS
 62
     7
 10
-108.87019
 20
147.4184
 11
-100.87019
 21
147.4184
  0
LINE
  8
0
  6
CONTINUOUS
 62
     7
 10
-111.87019
 20
144.4184
 11
-111.87019
 21
122.1684
  0
LINE
  8
0
  6
CENTER
 62
     7
 10
-100.87019
 20
177.20993
 11
-100.87019
 21
117.8684
  0
LINE
  8
0
  6
CONTINUOUS
 62
     7
 10
-86.620186
 20
155.57895
 11
-86.620186
 21
152.6684
  0
LINE
  8
0
  6
CONTINUOUS
 62
     7
 10
-87.682198
 20
159.4184
 11
-87.682198
 21
157.4184
  0
LINE
  8
0
  6
CONTINUOUS
 62
     7
 10
-86.870186
 20
159.4184
 11
-86.870186
 21
156.01196
  0
LINE
  8
0
  6
CONTINUOUS
 62
     7
 10
-86.870186
 20
157.4184
 11
-100.87019
 21
157.4184
  0
LINE
  8
0
  6
CONTINUOUS
 62
     7
 10
-87.682196
 20
157.41838
 11
-86.870199
 21
156.01197
  0
LINE
  8
0
  6
CONTINUOUS
 62
     7
 10
-86.870199
 20
156.01197
 11
-86.620199
 21
155.57895
  0
LINE
  8
0
  6
CONTINUOUS
 62
     7
 10
-100.87019
 20
122.8684
 11
-91.390053
 21
122.8684
  0
LINE
  8
0
  6
CONTINUOUS
 62
     7
 10
-89.870186
 20
122.1684
 11
-81.709633
 21
122.1684
  0
LINE
  8
0
  6
CONTINUOUS
 62
     7
 10
-81.709648
 20
122.16842
 11
-81.276636
 21
122.41842
  0
LINE
  8
0
  6
CONTINUOUS
 62
     7
 10
-81.276636
 20
122.41842
 11
-79.870216
 21
123.23042
  0
LINE
  8
0
  6
CONTINUOUS
 62
     7
 10
-81.276619
 20
122.4184
 11
-77.870201
 21
122.4184
  0
LINE
  8
0
  6
CONTINUOUS
 62
     7
 10
-79.870186
 20
123.2304
 11
-77.870201
 21
123.2304
  0
LINE
  8
0
  6
CONTINUOUS
 62
     7
 10
-81.276619
 20
150.4184
 11
-77.870201
 21
150.4184
  0
LINE
  8
0
  6
CONTINUOUS
 62
     7
 10
-79.870186
 20
149.6064
 11
-77.870201
 21
149.6064
  0
LINE
  8
0
  6
CONTINUOUS
 62
     7
 10
-79.870186
 20
150.4184
 11
-79.870186
 21
122.4184
  0
LINE
  8
0
  6
CONTINUOUS
 62
     7
 10
-81.276632
 20
150.41841
 11
-79.870213
 21
149.60641
  0
LINE
  8
0
  6
CONTINUOUS
 62
     7
 10
-81.709644
 20
150.66841
 11
-81.276632
 21
150.41841
  0
LINE
  8
0
  6
CONTINUOUS
 62
     7
 10
-84.620186
 20
150.6684
 11
-81.709633
 21
150.6684
  0
LINE
  8
0
  6
CONTINUOUS
 62
     7
 10
-92.870186
 20
147.4184
 11
-100.87019
 21
147.4184
  0
LINE
  8
0
  6
CONTINUOUS
 62
     7
 10
-89.870186
 20
144.4184
 11
-89.870186
 21
122.1684
  0
LINE
  8
0
  6
CENTER
 62
     7
 10
-149.67551
 20
46.418411
 11
-49.88689
 21
46.418411
  0
LINE
  8
0
  6
CONTINUOUS
 62
     7
 10
-125.13813
 20
63.418411
 11
-119.87019
 21
63.418411
  0
LINE
  8
0
  6
CONTINUOUS
 62
     7
 10
-125.13815
 20
29.418411
 11
-115.87019
 21
29.418411
  0
LINE
  8
0
  6
CONTINUOUS
 62
     7
 10
-117.87019
 20
65.418411
 11
-117.87019
 21
70.686386
  0
LINE
  8
0
  6
CONTINUOUS
 62
     7
 10
-118.87019
 20
72.418411
 11
-100.87019
 21
72.418411
  0
LINE
  8
0
  6
CONTINUOUS
 62
     7
 10
-129.87019
 20
64.418411
 11
-126.87019
 21
64.418411
  0
LINE
  8
0
  6
CONTINUOUS
 62
     7
 10
-129.87019
 20
28.418411
 11
-126.87019
 21
28.418411
  0
LINE
  8
0
  6
CONTINUOUS
 62
     7
 10
-118.87019
 20
72.418411
 11
-118.87019
 21
75.418411
  0
LINE
  8
0
  6
CONTINUOUS
 62
     7
 10
-129.87019
 20
29.230392
 11
-125.9847
 21
29.230392
  0
LINE
  8
0
  6
CONTINUOUS
 62
     7
 10
-129.87019
 20
63.6064
 11
-125.9847
 21
63.6064
  0
LINE
  8
0
  6
CONTINUOUS
 62
     7
 10
-118.05819
 20
71.532944
 11
-118.05819
 21
75.418411
  0
LINE
  8
0
  6
CONTINUOUS
 62
     7
 10
-126.87019
 20
64.418411
 11
-126.87019
 21
28.418411
  0
LINE
  8
0
  6
CONTINUOUS
 62
     7
 10
-115.87019
 20
58.418411
 11
-115.87019
 21
29.230392
  0
LINE
  8
0
  6
CONTINUOUS
 62
     7
 10
-114.54731
 20
29.918411
 11
-100.87019
 21
29.918411
  0
LINE
  8
0
  6
CONTINUOUS
 62
     7
 10
-112.87019
 20
61.418411
 11
-100.87019
 21
61.418411
  0
LINE
  8
0
  6
CENTER
 62
     7
 10
-100.87019
 20
95.707741
 11
-100.87019
 21
24.918411
  0
LINE
  8
0
  6
CONTINUOUS
 62
     7
 10
-76.602242
 20
63.418411
 11
-81.870186
 21
63.418411
  0
LINE
  8
0
  6
CONTINUOUS
 62
     7
 10
-76.602226
 20
29.418411
 11
-85.870186
 21
29.418411
  0
LINE
  8
0
  6
CONTINUOUS
 62
     7
 10
-83.870186
 20
65.418411
 11
-83.870186
 21
70.686386
  0
LINE
  8
0
  6
CONTINUOUS
 62
     7
 10
-82.870186
 20
72.418411
 11
-100.87019
 21
72.418411
  0
LINE
  8
0
  6
CONTINUOUS
 62
     7
 10
-71.870186
 20
64.418411
 11
-74.870186
 21
64.418411
  0
LINE
  8
0
  6
CONTINUOUS
 62
     7
 10
-71.870186
 20
28.418411
 11
-74.870186
 21
28.418411
  0
LINE
  8
0
  6
CONTINUOUS
 62
     7
 10
-82.870186
 20
72.418411
 11
-82.870186
 21
75.418411
  0
LINE
  8
0
  6
CONTINUOUS
 62
     7
 10
-71.870186
 20
29.230392
 11
-75.755669
 21
29.230392
  0
LINE
  8
0
  6
CONTINUOUS
 62
     7
 10
-71.870186
 20
63.6064
 11
-75.755669
 21
63.6064
  0
LINE
  8
0
  6
CONTINUOUS
 62
     7
 10
-83.682182
 20
71.532944
 11
-83.682182
 21
75.418411
  0
LINE
  8
0
  6
CONTINUOUS
 62
     7
 10
-74.870186
 20
64.418411
 11
-74.870186
 21
28.418411
  0
LINE
  8
0
  6
CONTINUOUS
 62
     7
 10
-85.870186
 20
58.418411
 11
-85.870186
 21
29.230392
  0
LINE
  8
0
  6
CONTINUOUS
 62
     7
 10
-87.193062
 20
29.918411
 11
-100.87019
 21
29.918411
  0
LINE
  8
0
  6
CONTINUOUS
 62
     7
 10
-88.870186
 20
61.418411
 11
-100.87019
 21
61.418411
  0
LINE
  8
0
  6
CONTINUOUS
 62
     7
 10
-134.11964
 20
210.68341
 11
-134.11964
 21
208.89359
  0
LINE
  8
0
  6
CONTINUOUS
 62
     7
 10
-134.11964
 20
210.68341
 11
-120.62074
 21
210.68341
  0
LINE
  8
0
  6
CONTINUOUS
 62
     7
 10
-134.11964
 20
208.89359
 11
-120.62074
 21
208.89359
  0
LINE
  8
0
  6
CONTINUOUS
 62
     7
 10
-120.62074
 20
210.68341
 11
-120.62074
 21
208.89359
  0
LINE
  8
0
  6
CONTINUOUS
 62
     7
 10
-119.87019
 20
216.4184
 11
-119.87019
 21
204.4184
  0
LINE
  8
0
  6
CONTINUOUS
 62
     7
 10
-120.62075
 20
203.11843
 11
-119.8702
 21
204.41843
  0
LINE
  8
0
  6
CONTINUOUS
 62
     7
 10
-134.11964
 20
203.11839
 11
-120.62074
 21
203.11839
  0
LINE
  8
0
  6
CONTINUOUS
 62
     7
 10
-134.87019
 20
204.41842
 11
-134.11964
 21
203.11843
  0
LINE
  8
0
  6
CONTINUOUS
 62
     7
 10
-134.87019
 20
216.4184
 11
-134.87019
 21
204.4184
  0
LINE
  8
0
  6
CONTINUOUS
 62
     7
 10
-134.11964
 20
222.15338
 11
-134.11964
 21
223.94321
  0
LINE
  8
0
  6
CONTINUOUS
 62
     7
 10
-134.11964
 20
222.15338
 11
-120.62074
 21
222.15338
  0
LINE
  8
0
  6
CONTINUOUS
 62
     7
 10
-134.11964
 20
223.94321
 11
-120.62074
 21
223.94321
  0
LINE
  8
0
  6
CONTINUOUS
 62
     7
 10
-120.62074
 20
222.15338
 11
-120.62074
 21
223.94321
  0
LINE
  8
0
  6
CONTINUOUS
 62
     7
 10
-119.87019
 20
216.4184
 11
-119.87019
 21
228.4184
  0
LINE
  8
0
  6
CONTINUOUS
 62
     7
 10
-120.62075
 20
229.71841
 11
-119.87018
 21
228.41839
  0
LINE
  8
0
  6
CONTINUOUS
 62
     7
 10
-134.11964
 20
229.71841
 11
-120.62074
 21
229.71841
  0
LINE
  8
0
  6
CONTINUOUS
 62
     7
 10
-134.87019
 20
228.41839
 11
-134.11964
 21
229.71839
  0
LINE
  8
0
  6
CONTINUOUS
 62
     7
 10
-134.87019
 20
216.4184
 11
-134.87019
 21
228.4184
  0
LINE
  8
0
  6
CONTINUOUS
 62
     7
 10
-67.620735
 20
222.15338
 11
-67.620735
 21
223.94321
  0
LINE
  8
0
  6
CONTINUOUS
 62
     7
 10
-67.620735
 20
222.15338
 11
-81.119637
 21
222.15338
  0
LINE
  8
0
  6
CONTINUOUS
 62
     7
 10
-67.620735
 20
223.94321
 11
-81.119637
 21
223.94321
  0
LINE
  8
0
  6
CONTINUOUS
 62
     7
 10
-81.119637
 20
222.15338
 11
-81.119637
 21
223.94321
  0
LINE
  8
0
  6
CONTINUOUS
 62
     7
 10
-81.870186
 20
216.4184
 11
-81.870186
 21
228.4184
  0
LINE
  8
0
  6
CONTINUOUS
 62
     7
 10
-81.119631
 20
229.71839
 11
-81.870188
 21
228.41838
  0
LINE
  8
0
  6
CONTINUOUS
 62
     7
 10
-67.620735
 20
229.7184
 11
-81.119637
 21
229.7184
  0
LINE
  8
0
  6
CONTINUOUS
 62
     7
 10
-66.87019
 20
228.41839
 11
-67.620739
 21
229.71838
  0
LINE
  8
0
  6
CONTINUOUS
 62
     7
 10
-66.870186
 20
216.4184
 11
-66.870186
 21
228.4184
  0
LINE
  8
0
  6
CONTINUOUS
 62
     7
 10
-67.620735
 20
210.68341
 11
-67.620735
 21
208.89359
  0
LINE
  8
0
  6
CONTINUOUS
 62
     7
 10
-67.620735
 20
210.68341
 11
-81.119637
 21
210.68341
  0
LINE
  8
0
  6
CONTINUOUS
 62
     7
 10
-67.620735
 20
208.89359
 11
-81.119637
 21
208.89359
  0
LINE
  8
0
  6
CONTINUOUS
 62
     7
 10
-81.119637
 20
210.68341
 11
-81.119637
 21
208.89359
  0
LINE
  8
0
  6
CONTINUOUS
 62
     7
 10
-81.870186
 20
216.4184
 11
-81.870186
 21
204.4184
  0
LINE
  8
0
  6
CONTINUOUS
 62
     7
 10
-81.119635
 20
203.1184
 11
-81.870199
 21
204.41842
  0
LINE
  8
0
  6
CONTINUOUS
 62
     7
 10
-67.620735
 20
203.11838
 11
-81.119637
 21
203.11838
  0
LINE
  8
0
  6
CONTINUOUS
 62
     7
 10
-66.870193
 20
204.41842
 11
-67.62075
 21
203.11842
  0
LINE
  8
0
  6
CONTINUOUS
 62
     7
 10
-66.870186
 20
216.4184
 11
-66.870186
 21
204.4184
  0
LINE
  8
0
  6
CONTINUOUS
 62
     7
 10
-106.60517
 20
249.66783
 11
-108.395
 21
249.66783
  0
LINE
  8
0
  6
CONTINUOUS
 62
     7
 10
-106.60517
 20
249.66783
 11
-106.60517
 21
236.16896
  0
LINE
  8
0
  6
CONTINUOUS
 62
     7
 10
-108.395
 20
249.66783
 11
-108.395
 21
236.16896
  0
LINE
  8
0
  6
CONTINUOUS
 62
     7
 10
-106.60517
 20
236.16895
 11
-108.395
 21
236.16895
  0
LINE
  8
0
  6
CONTINUOUS
 62
     7
 10
-100.87019
 20
235.4184
 11
-112.87019
 21
235.4184
  0
LINE
  8
0
  6
CONTINUOUS
 62
     7
 10
-114.17017
 20
236.16897
 11
-112.87016
 21
235.4184
  0
LINE
  8
0
  6
CONTINUOUS
 62
     7
 10
-114.1702
 20
249.66783
 11
-114.1702
 21
236.16895
  0
LINE
  8
0
  6
CONTINUOUS
 62
     7
 10
-112.87017
 20
250.41843
 11
-114.17017
 21
249.66787
  0
LINE
  8
0
  6
CONTINUOUS
 62
     7
 10
-100.87019
 20
250.41838
 11
-112.87019
 21
250.41838
  0
LINE
  8
0
  6
CONTINUOUS
 62
     7
 10
-95.135201
 20
249.66783
 11
-93.345375
 21
249.66783
  0
LINE
  8
0
  6
CONTINUOUS
 62
     7
 10
-95.135201
 20
249.66783
 11
-95.135201
 21
236.16896
  0
LINE
  8
0
  6
CONTINUOUS
 62
     7
 10
-93.345375
 20
249.66783
 11
-93.345375
 21
236.16896
  0
LINE
  8
0
  6
CONTINUOUS
 62
     7
 10
-95.135201
 20
236.16895
 11
-93.345375
 21
236.16895
  0
LINE
  8
0
  6
CONTINUOUS
 62
     7
 10
-100.87019
 20
235.4184
 11
-88.870186
 21
235.4184
  0
LINE
  8
0
  6
CONTINUOUS
 62
     7
 10
-87.570189
 20
236.16896
 11
-88.870192
 21
235.41841
  0
LINE
  8
0
  6
CONTINUOUS
 62
     7
 10
-87.570168
 20
249.66786
 11
-87.570168
 21
236.16896
  0
LINE
  8
0
  6
CONTINUOUS
 62
     7
 10
-88.870191
 20
250.41841
 11
-87.570201
 21
249.66786
  0
LINE
  8
0
  6
CONTINUOUS
 62
     7
 10
-100.87019
 20
250.41838
 11
-88.870186
 21
250.41838
  0
LINE
  8
0
  6
CONTINUOUS
 62
     7
 10
-137.77323
 20
118.51841
 11
-138.8702
 21
120.41842
  0
LINE
  8
0
  6
CONTINUOUS
 62
     7
 10
-124.96714
 20
118.51841
 11
-137.77324
 21
118.51841
  0
LINE
  8
0
  6
CONTINUOUS
 62
     7
 10
-123.87017
 20
120.41841
 11
-124.96713
 21
118.51842
  0
LINE
  8
0
  6
CONTINUOUS
 62
     7
 10
-123.87019
 20
136.4184
 11
-123.87019
 21
120.4184
  0
LINE
  8
0
  6
CONTINUOUS
 62
     7
 10
-124.96714
 20
128.39282
 11
-124.96714
 21
126.57479
  0
LINE
  8
0
  6
CONTINUOUS
 62
     7
 10
-124.96714
 20
126.57479
 11
-137.77324
 21
126.57479
  0
LINE
  8
0
  6
CONTINUOUS
 62
     7
 10
-124.96714
 20
128.39282
 11
-137.77324
 21
128.39282
  0
LINE
  8
0
  6
CONTINUOUS
 62
     7
 10
-138.87019
 20
136.4184
 11
-138.87019
 21
120.4184
  0
LINE
  8
0
  6
CONTINUOUS
 62
     7
 10
-137.77324
 20
128.39282
 11
-137.77324
 21
126.57479
  0
LINE
  8
0
  6
CONTINUOUS
 62
     7
 10
-137.77321
 20
154.31841
 11
-138.87018
 21
152.4184
  0
LINE
  8
0
  6
CONTINUOUS
 62
     7
 10
-124.96714
 20
154.31839
 11
-137.77324
 21
154.31839
  0
LINE
  8
0
  6
CONTINUOUS
 62
     7
 10
-123.87018
 20
152.4184
 11
-124.96714
 21
154.31839
  0
LINE
  8
0
  6
CONTINUOUS
 62
     7
 10
-123.87019
 20
136.4184
 11
-123.87019
 21
152.4184
  0
LINE
  8
0
  6
CONTINUOUS
 62
     7
 10
-124.96714
 20
144.44397
 11
-124.96714
 21
146.26201
  0
LINE
  8
0
  6
CONTINUOUS
 62
     7
 10
-124.96714
 20
146.26201
 11
-137.77324
 21
146.26201
  0
LINE
  8
0
  6
CONTINUOUS
 62
     7
 10
-124.96714
 20
144.44397
 11
-137.77324
 21
144.44397
  0
LINE
  8
0
  6
CONTINUOUS
 62
     7
 10
-138.87019
 20
136.4184
 11
-138.87019
 21
152.4184
  0
LINE
  8
0
  6
CONTINUOUS
 62
     7
 10
-137.77324
 20
144.44397
 11
-137.77324
 21
146.26201
  0
LINE
  8
0
  6
CONTINUOUS
 62
     7
 10
-63.967163
 20
154.31841
 11
-62.870193
 21
152.4184
  0
LINE
  8
0
  6
CONTINUOUS
 62
     7
 10
-76.773232
 20
154.31839
 11
-63.967159
 21
154.31839
  0
LINE
  8
0
  6
CONTINUOUS
 62
     7
 10
-77.87019
 20
152.41839
 11
-76.773228
 21
154.31838
  0
LINE
  8
0
  6
CONTINUOUS
 62
     7
 10
-77.870201
 20
136.4184
 11
-77.870201
 21
152.4184
  0
LINE
  8
0
  6
CONTINUOUS
 62
     7
 10
-76.773232
 20
144.44397
 11
-76.773232
 21
146.26201
  0
LINE
  8
0
  6
CONTINUOUS
 62
     7
 10
-76.773232
 20
146.26201
 11
-63.967159
 21
146.26201
  0
LINE
  8
0
  6
CONTINUOUS
 62
     7
 10
-76.773232
 20
144.44397
 11
-63.967159
 21
144.44397
  0
LINE
  8
0
  6
CONTINUOUS
 62
     7
 10
-62.87019
 20
136.4184
 11
-62.87019
 21
152.4184
  0
LINE
  8
0
  6
CONTINUOUS
 62
     7
 10
-63.967159
 20
144.44397
 11
-63.967159
 21
146.26201
  0
LINE
  8
0
  6
CONTINUOUS
 62
     7
 10
-63.967155
 20
118.51839
 11
-62.870186
 21
120.4184
  0
LINE
  8
0
  6
CONTINUOUS
 62
     7
 10
-76.773232
 20
118.51841
 11
-63.967159
 21
118.51841
  0
LINE
  8
0
  6
CONTINUOUS
 62
     7
 10
-77.870184
 20
120.41839
 11
-76.77323
 21
118.51841
  0
LINE
  8
0
  6
CONTINUOUS
 62
     7
 10
-77.870201
 20
136.4184
 11
-77.870201
 21
120.4184
  0
LINE
  8
0
  6
CONTINUOUS
 62
     7
 10
-76.773232
 20
128.39282
 11
-76.773232
 21
126.57479
  0
LINE
  8
0
  6
CONTINUOUS
 62
     7
 10
-76.773232
 20
126.57479
 11
-63.967159
 21
126.57479
  0
LINE
  8
0
  6
CONTINUOUS
 62
     7
 10
-76.773232
 20
128.39282
 11
-63.967159
 21
128.39282
  0
LINE
  8
0
  6
CONTINUOUS
 62
     7
 10
-62.87019
 20
136.4184
 11
-62.87019
 21
120.4184
  0
LINE
  8
0
  6
CONTINUOUS
 62
     7
 10
-63.967159
 20
128.39282
 11
-63.967159
 21
126.57479
  0
LINE
  8
0
  6
CONTINUOUS
 62
     7
 10
-118.77019
 20
173.32143
 11
-116.87018
 21
174.4184
  0
LINE
  8
0
  6
CONTINUOUS
 62
     7
 10
-118.77018
 20
160.51535
 11
-118.77018
 21
173.32141
  0
LINE
  8
0
  6
CONTINUOUS
 62
     7
 10
-116.87016
 20
159.41838
 11
-118.77017
 21
160.51535
  0
LINE
  8
0
  6
CONTINUOUS
 62
     7
 10
-100.87019
 20
159.4184
 11
-116.87019
 21
159.4184
  0
LINE
  8
0
  6
CONTINUOUS
 62
     7
 10
-108.89576
 20
160.51535
 11
-110.71378
 21
160.51535
  0
LINE
  8
0
  6
CONTINUOUS
 62
     7
 10
-110.71378
 20
160.51535
 11
-110.71378
 21
173.32141
  0
LINE
  8
0
  6
CONTINUOUS
 62
     7
 10
-108.89576
 20
160.51535
 11
-108.89576
 21
173.32141
  0
LINE
  8
0
  6
CONTINUOUS
 62
     7
 10
-100.87019
 20
174.4184
 11
-116.87019
 21
174.4184
  0
LINE
  8
0
  6
CONTINUOUS
 62
     7
 10
-108.89576
 20
173.32144
 11
-110.71378
 21
173.32144
  0
LINE
  8
0
  6
CONTINUOUS
 62
     7
 10
-82.970163
 20
173.32143
 11
-84.870171
 21
174.4184
  0
LINE
  8
0
  6
CONTINUOUS
 62
     7
 10
-82.970192
 20
160.51535
 11
-82.970192
 21
173.32144
  0
LINE
  8
0
  6
CONTINUOUS
 62
     7
 10
-84.870182
 20
159.41839
 11
-82.970186
 21
160.51535
  0
LINE
  8
0
  6
CONTINUOUS
 62
     7
 10
-100.87019
 20
159.4184
 11
-84.870186
 21
159.4184
  0
LINE
  8
0
  6
CONTINUOUS
 62
     7
 10
-92.844612
 20
160.51535
 11
-91.026558
 21
160.51535
  0
LINE
  8
0
  6
CONTINUOUS
 62
     7
 10
-91.026558
 20
160.51535
 11
-91.026558
 21
173.32144
  0
LINE
  8
0
  6
CONTINUOUS
 62
     7
 10
-92.844612
 20
160.51535
 11
-92.844612
 21
173.32144
  0
LINE
  8
0
  6
CONTINUOUS
 62
     7
 10
-100.87019
 20
174.4184
 11
-84.870186
 21
174.4184
  0
LINE
  8
0
  6
CONTINUOUS
 62
     7
 10
-92.844612
 20
173.32144
 11
-91.026588
 21
173.32144
  0
LINE
  8
0
  6
CONTINUOUS
 62
     7
 10
-145.87019
 20
46.418411
 11
-145.87019
 21
25.918411
  0
LINE
  8
0
  6
CONTINUOUS
 62
     7
 10
-144.36909
 20
35.771347
 11
-144.36909
 21
33.988419
  0
LINE
  8
0
  6
CONTINUOUS
 62
     7
 10
-131.37131
 20
35.771347
 11
-144.36909
 21
35.771347
  0
LINE
  8
0
  6
CONTINUOUS
 62
     7
 10
-131.37131
 20
33.988419
 11
-144.36909
 21
33.988419
  0
LINE
  8
0
  6
CONTINUOUS
 62
     7
 10
-131.37131
 20
35.771347
 11
-131.37131
 21
33.988419
  0
LINE
  8
0
  6
CONTINUOUS
 62
     7
 10
-129.87019
 20
46.418411
 11
-129.87019
 21
25.918411
  0
LINE
  8
0
  6
CONTINUOUS
 62
     7
 10
-129.87017
 20
25.918396
 11
-131.37128
 21
23.31839
  0
LINE
  8
0
  6
CONTINUOUS
 62
     7
 10
-131.37131
 20
23.318405
 11
-144.36909
 21
23.318405
  0
LINE
  8
0
  6
CONTINUOUS
 62
     7
 10
-144.36909
 20
23.31842
 11
-145.8702
 21
25.918427
  0
LINE
  8
0
  6
CONTINUOUS
 62
     7
 10
-145.87019
 20
46.418411
 11
-145.87019
 21
66.918411
  0
LINE
  8
0
  6
CONTINUOUS
 62
     7
 10
-144.36909
 20
57.065475
 11
-144.36909
 21
58.848373
  0
LINE
  8
0
  6
CONTINUOUS
 62
     7
 10
-131.37131
 20
57.065475
 11
-144.36909
 21
57.065475
  0
LINE
  8
0
  6
CONTINUOUS
 62
     7
 10
-131.37131
 20
58.848373
 11
-144.36909
 21
58.848373
  0
LINE
  8
0
  6
CONTINUOUS
 62
     7
 10
-131.37131
 20
57.065475
 11
-131.37131
 21
58.848373
  0
LINE
  8
0
  6
CONTINUOUS
 62
     7
 10
-129.87019
 20
46.418411
 11
-129.87019
 21
66.918411
  0
LINE
  8
0
  6
CONTINUOUS
 62
     7
 10
-129.87017
 20
66.918411
 11
-131.37129
 21
69.518417
  0
LINE
  8
0
  6
CONTINUOUS
 62
     7
 10
-131.37131
 20
69.518417
 11
-144.36909
 21
69.518417
  0
LINE
  8
0
  6
CONTINUOUS
 62
     7
 10
-144.36909
 20
69.518402
 11
-145.8702
 21
66.918396
  0
LINE
  8
0
  6
CONTINUOUS
 62
     7
 10
-55.87019
 20
46.418411
 11
-55.87019
 21
66.918411
  0
LINE
  8
0
  6
CONTINUOUS
 62
     7
 10
-57.371288
 20
57.065475
 11
-57.371288
 21
58.848373
  0
LINE
  8
0
  6
CONTINUOUS
 62
     7
 10
-70.369072
 20
57.065475
 11
-57.371288
 21
57.065475
  0
LINE
  8
0
  6
CONTINUOUS
 62
     7
 10
-70.369072
 20
58.848373
 11
-57.371288
 21
58.848373
  0
LINE
  8
0
  6
CONTINUOUS
 62
     7
 10
-70.369072
 20
57.065475
 11
-70.369072
 21
58.848373
  0
LINE
  8
0
  6
CONTINUOUS
 62
     7
 10
-71.870186
 20
46.418411
 11
-71.870186
 21
66.918411
  0
LINE
  8
0
  6
CONTINUOUS
 62
     7
 10
-71.870207
 20
66.918411
 11
-70.369093
 21
69.518417
  0
LINE
  8
0
  6
CONTINUOUS
 62
     7
 10
-70.369072
 20
69.518387
 11
-57.371288
 21
69.518387
  0
LINE
  8
0
  6
CONTINUOUS
 62
     7
 10
-57.3713
 20
69.518402
 11
-55.870186
 21
66.918411
  0
LINE
  8
0
  6
CONTINUOUS
 62
     7
 10
-55.87019
 20
46.418411
 11
-55.87019
 21
25.918411
  0
LINE
  8
0
  6
CONTINUOUS
 62
     7
 10
-57.371288
 20
35.771347
 11
-57.371288
 21
33.988419
  0
LINE
  8
0
  6
CONTINUOUS
 62
     7
 10
-70.369072
 20
35.771347
 11
-57.371288
 21
35.771347
  0
LINE
  8
0
  6
CONTINUOUS
 62
     7
 10
-70.369072
 20
33.988419
 11
-57.371288
 21
33.988419
  0
LINE
  8
0
  6
CONTINUOUS
 62
     7
 10
-70.369072
 20
35.771347
 11
-70.369072
 21
33.988419
  0
LINE
  8
0
  6
CONTINUOUS
 62
     7
 10
-71.870186
 20
46.418411
 11
-71.870186
 21
25.918411
  0
LINE
  8
0
  6
CONTINUOUS
 62
     7
 10
-71.870207
 20
25.918411
 11
-70.369085
 21
23.31839
  0
LINE
  8
0
  6
CONTINUOUS
 62
     7
 10
-70.369072
 20
23.318405
 11
-57.371288
 21
23.318405
  0
LINE
  8
0
  6
CONTINUOUS
 62
     7
 10
-57.371288
 20
23.318405
 11
-55.870174
 21
25.918411
  0
ARC
  8
0
  6
CONTINUOUS
 62
     7
 10
-107.57114
 20
204.9184
 40
1.5
 50
90.000003
 51
150
  0
ARC
  8
0
  6
CONTINUOUS
 62
     7
 10
-113.62019
 20
229.1684
 40
2
 50
270
 51
0
  0
ARC
  8
0
  6
CONTINUOUS
 62
     7
 10
-106.87019
 20
222.4184
 40
2
 50
90.000003
 51
180.00001
  0
ARC
  8
0
  6
CONTINUOUS
 62
     7
 10
-94.870186
 20
222.4184
 40
2
 50
359.99999
 51
89.999996
  0
ARC
  8
0
  6
CONTINUOUS
 62
     7
 10
-94.169228
 20
204.9184
 40
1.5
 50
30.000004
 51
89.999996
  0
ARC
  8
0
  6
CONTINUOUS
 62
     7
 10
-88.120186
 20
229.1684
 40
2
 50
179.99999
 51
270
  0
ARC
  8
0
  6
CONTINUOUS
 62
     7
 10
-110.35032
 20
120.8684
 40
2
 50
90.000003
 51
139.45852
  0
ARC
  8
0
  6
CONTINUOUS
 62
     7
 10
-117.12019
 20
152.6684
 40
2
 50
270
 51
0
  0
ARC
  8
0
  6
CONTINUOUS
 62
     7
 10
-108.87019
 20
144.4184
 40
3
 50
90.000003
 51
180.00001
  0
ARC
  8
0
  6
CONTINUOUS
 62
     7
 10
-92.870186
 20
144.4184
 40
3
 50
359.99999
 51
89.999996
  0
ARC
  8
0
  6
CONTINUOUS
 62
     7
 10
-91.390053
 20
120.8684
 40
2
 50
40.541486
 51
89.999996
  0
ARC
  8
0
  6
CONTINUOUS
 62
     7
 10
-84.620186
 20
152.6684
 40
2
 50
180.00001
 51
270
  0
ARC
  8
0
  6
CONTINUOUS
 62
     7
 10
-112.87019
 20
58.418411
 40
3
 50
90.000003
 51
180.00001
  0
ARC
  8
0
  6
CONTINUOUS
 62
     7
 10
-125.13815
 20
27.418411
 40
2
 50
90.000003
 51
150
  0
ARC
  8
0
  6
CONTINUOUS
 62
     7
 10
-119.87019
 20
65.418411
 40
2
 50
270
 51
0
  0
ARC
  8
0
  6
CONTINUOUS
 62
     7
 10
-119.87019
 20
70.686386
 40
2
 50
0
 51
60.000002
  0
ARC
  8
0
  6
CONTINUOUS
 62
     7
 10
-114.54731
 20
27.918411
 40
2
 50
90.000003
 51
131.40962
  0
ARC
  8
0
  6
CONTINUOUS
 62
     7
 10
-125.13813
 20
65.418411
 40
2
 50
210
 51
270
  0
ARC
  8
0
  6
CONTINUOUS
 62
     7
 10
-76.602242
 20
65.418411
 40
2
 50
270
 51
330
  0
ARC
  8
0
  6
CONTINUOUS
 62
     7
 10
-88.870186
 20
58.418411
 40
3
 50
359.99999
 51
89.999996
  0
ARC
  8
0
  6
CONTINUOUS
 62
     7
 10
-76.602226
 20
27.418411
 40
2
 50
30.000004
 51
89.999996
  0
ARC
  8
0
  6
CONTINUOUS
 62
     7
 10
-81.870186
 20
65.418411
 40
2
 50
179.99999
 51
270
  0
ARC
  8
0
  6
CONTINUOUS
 62
     7
 10
-81.870186
 20
70.686386
 40
2
 50
120
 51
180.00001
  0
ARC
  8
0
  6
CONTINUOUS
 62
     7
 10
-87.193062
 20
27.918411
 40
2
 50
48.590386
 51
89.999996
  0
POLYLINE
  8
0
  6
CONTINUOUS
 62
     7
 66
     1
 10
0
 20
0
  0
VERTEX
  8
0
  6
CONTINUOUS
 62
     7
 10
-100.87019
 20
91.129738
 42
0.019162134
  0
VERTEX
  8
0
  6
CONTINUOUS
 62
     7
 10
-104.44607
 20
90.991867
 42
0.018603473
  0
VERTEX
  8
0
  6
CONTINUOUS
 62
     7
 10
-108.00142
 20
90.584719
 42
0.018212355
  0
VERTEX
  8
0
  6
CONTINUOUS
 62
     7
 10
-111.51725
 20
89.917305
 42
0
  0
SEQEND
  8
0
  0
POLYLINE
  8
0
  6
CONTINUOUS
 62
     7
 66
     1
 10
0
 20
0
  0
VERTEX
  8
0
  6
CONTINUOUS
 62
     7
 10
-113.30016
 20
89.917305
 42
0.067339303
  0
VERTEX
  8
0
  6
CONTINUOUS
 62
     7
 10
-116.80541
 20
90.9834
 42
0.080046109
  0
VERTEX
  8
0
  6
CONTINUOUS
 62
     7
 10
-120.46482
 20
90.983102
 42
0.067285211
  0
VERTEX
  8
0
  6
CONTINUOUS
 62
     7
 10
-123.97018
 20
89.917305
 42
0
  0
SEQEND
  8
0
  0
POLYLINE
  8
0
  6
CONTINUOUS
 62
     7
 66
     1
 10
0
 20
0
  0
VERTEX
  8
0
  6
CONTINUOUS
 62
     7
 10
-113.30016
 20
76.919502
 42
-0.06733981
  0
VERTEX
  8
0
  6
CONTINUOUS
 62
     7
 10
-116.80541
 20
75.853382
 42
-0.080048861
  0
VERTEX
  8
0
  6
CONTINUOUS
 62
     7
 10
-120.46482
 20
75.85368
 42
-0.067285709
  0
VERTEX
  8
0
  6
CONTINUOUS
 62
     7
 10
-123.97018
 20
76.919502
 42
0
  0
SEQEND
  8
0
  0
POLYLINE
  8
0
  6
CONTINUOUS
 62
     7
 66
     1
 10
0
 20
0
  0
VERTEX
  8
0
  6
CONTINUOUS
 62
     7
 10
-100.87019
 20
75.707069
 42
-0.019161791
  0
VERTEX
  8
0
  6
CONTINUOUS
 62
     7
 10
-104.44607
 20
75.844937
 42
-0.018603818
  0
VERTEX
  8
0
  6
CONTINUOUS
 62
     7
 10
-108.00142
 20
76.252081
 42
-0.018213376
  0
VERTEX
  8
0
  6
CONTINUOUS
 62
     7
 10
-111.51725
 20
76.919502
 42
0
  0
SEQEND
  8
0
  0
POLYLINE
  8
0
  6
CONTINUOUS
 62
     7
 66
     1
 10
0
 20
0
  0
VERTEX
  8
0
  6
CONTINUOUS
 62
     7
 10
-100.87019
 20
91.129738
 42
-0.019162134
  0
VERTEX
  8
0
  6
CONTINUOUS
 62
     7
 10
-97.294306
 20
90.991867
 42
-0.018603473
  0
VERTEX
  8
0
  6
CONTINUOUS
 62
     7
 10
-93.738955
 20
90.584719
 42
-0.018212355
  0
VERTEX
  8
0
  6
CONTINUOUS
 62
     7
 10
-90.223122
 20
89.917305
 42
0
  0
SEQEND
  8
0
  0
POLYLINE
  8
0
  6
CONTINUOUS
 62
     7
 66
     1
 10
0
 20
0
  0
VERTEX
  8
0
  6
CONTINUOUS
 62
     7
 10
-88.440208
 20
89.917305
 42
-0.067337396
  0
VERTEX
  8
0
  6
CONTINUOUS
 62
     7
 10
-84.934964
 20
90.983422
 42
-0.080050489
  0
VERTEX
  8
0
  6
CONTINUOUS
 62
     7
 10
-81.275551
 20
90.983125
 42
-0.067283306
  0
VERTEX
  8
0
  6
CONTINUOUS
 62
     7
 10
-77.770195
 20
89.917305
 42
0
  0
SEQEND
  8
0
  0
POLYLINE
  8
0
  6
CONTINUOUS
 62
     7
 66
     1
 10
0
 20
0
  0
VERTEX
  8
0
  6
CONTINUOUS
 62
     7
 10
-88.440208
 20
76.919533
 42
0.067337903
  0
VERTEX
  8
0
  6
CONTINUOUS
 62
     7
 10
-84.934966
 20
75.85339
 42
0.080053242
  0
VERTEX
  8
0
  6
CONTINUOUS
 62
     7
 10
-81.275549
 20
75.853688
 42
0.067283804
  0
VERTEX
  8
0
  6
CONTINUOUS
 62
     7
 10
-77.770195
 20
76.919533
 42
0
  0
SEQEND
  8
0
  0
POLYLINE
  8
0
  6
CONTINUOUS
 62
     7
 66
     1
 10
0
 20
0
  0
VERTEX
  8
0
  6
CONTINUOUS
 62
     7
 10
-100.87019
 20
75.707069
 42
0.019162739
  0
VERTEX
  8
0
  6
CONTINUOUS
 62
     7
 10
-97.294305
 20
75.844945
 42
0.018603809
  0
VERTEX
  8
0
  6
CONTINUOUS
 62
     7
 10
-93.738954
 20
76.252104
 42
0.018212435
  0
VERTEX
  8
0
  6
CONTINUOUS
 62
     7
 10
-90.223122
 20
76.919533
 42
0
  0
SEQEND
  8
0
  0
POLYLINE
  8
0
  6
CONTINUOUS
 62
     7
 66
     1
 10
0
 20
0
  0
VERTEX
  8
0
  6
CONTINUOUS
 62
     7
 10
-134.11964
 20
208.89359
 42
0.050243496
  0
VERTEX
  8
0
  6
CONTINUOUS
 62
     7
 10
-134.52799
 20
206.98289
 42
0.054947182
  0
VERTEX
  8
0
  6
CONTINUOUS
 62
     7
 10
-134.52772
 20
205.02848
 42
0.050155644
  0
VERTEX
  8
0
  6
CONTINUOUS
 62
     7
 10
-134.11964
 20
203.11839
 42
0
  0
SEQEND
  8
0
  0
POLYLINE
  8
0
  6
CONTINUOUS
 62
     7
 66
     1
 10
0
 20
0
  0
VERTEX
  8
0
  6
CONTINUOUS
 62
     7
 10
-134.11964
 20
210.68341
 42
-0.013138069
  0
VERTEX
  8
0
  6
CONTINUOUS
 62
     7
 10
-134.37492
 20
212.5848
 42
-0.013285875
  0
VERTEX
  8
0
  6
CONTINUOUS
 62
     7
 10
-134.52951
 20
214.49787
 42
-0.013500074
  0
VERTEX
  8
0
  6
CONTINUOUS
 62
     7
 10
-134.58153
 20
216.4184
 42
0
  0
SEQEND
  8
0
  0
POLYLINE
  8
0
  6
CONTINUOUS
 62
     7
 66
     1
 10
0
 20
0
  0
VERTEX
  8
0
  6
CONTINUOUS
 62
     7
 10
-120.62074
 20
210.68341
 42
0.013138069
  0
VERTEX
  8
0
  6
CONTINUOUS
 62
     7
 10
-120.36546
 20
212.5848
 42
0.013285875
  0
VERTEX
  8
0
  6
CONTINUOUS
 62
     7
 10
-120.21087
 20
214.49787
 42
0.013500074
  0
VERTEX
  8
0
  6
CONTINUOUS
 62
     7
 10
-120.15885
 20
216.4184
 42
0
  0
SEQEND
  8
0
  0
POLYLINE
  8
0
  6
CONTINUOUS
 62
     7
 66
     1
 10
0
 20
0
  0
VERTEX
  8
0
  6
CONTINUOUS
 62
     7
 10
-120.62074
 20
208.89359
 42
-0.050243496
  0
VERTEX
  8
0
  6
CONTINUOUS
 62
     7
 10
-120.21239
 20
206.98289
 42
-0.054947182
  0
VERTEX
  8
0
  6
CONTINUOUS
 62
     7
 10
-120.21266
 20
205.02848
 42
-0.050155644
  0
VERTEX
  8
0
  6
CONTINUOUS
 62
     7
 10
-120.62074
 20
203.11839
 42
0
  0
SEQEND
  8
0
  0
POLYLINE
  8
0
  6
CONTINUOUS
 62
     7
 66
     1
 10
0
 20
0
  0
VERTEX
  8
0
  6
CONTINUOUS
 62
     7
 10
-134.11964
 20
223.94321
 42
-0.050243631
  0
VERTEX
  8
0
  6
CONTINUOUS
 62
     7
 10
-134.52799
 20
225.85391
 42
-0.054947064
  0
VERTEX
  8
0
  6
CONTINUOUS
 62
     7
 10
-134.52772
 20
227.80832
 42
-0.050155593
  0
VERTEX
  8
0
  6
CONTINUOUS
 62
     7
 10
-134.11964
 20
229.71841
 42
0
  0
SEQEND
  8
0
  0
POLYLINE
  8
0
  6
CONTINUOUS
 62
     7
 66
     1
 10
0
 20
0
  0
VERTEX
  8
0
  6
CONTINUOUS
 62
     7
 10
-134.11964
 20
222.15338
 42
0.013138069
  0
VERTEX
  8
0
  6
CONTINUOUS
 62
     7
 10
-134.37492
 20
220.25199
 42
0.013285875
  0
VERTEX
  8
0
  6
CONTINUOUS
 62
     7
 10
-134.52951
 20
218.33892
 42
0.013500074
  0
VERTEX
  8
0
  6
CONTINUOUS
 62
     7
 10
-134.58153
 20
216.4184
 42
0
  0
SEQEND
  8
0
  0
POLYLINE
  8
0
  6
CONTINUOUS
 62
     7
 66
     1
 10
0
 20
0
  0
VERTEX
  8
0
  6
CONTINUOUS
 62
     7
 10
-120.62074
 20
222.15338
 42
-0.013138069
  0
VERTEX
  8
0
  6
CONTINUOUS
 62
     7
 10
-120.36546
 20
220.25199
 42
-0.013285875
  0
VERTEX
  8
0
  6
CONTINUOUS
 62
     7
 10
-120.21087
 20
218.33892
 42
-0.013500074
  0
VERTEX
  8
0
  6
CONTINUOUS
 62
     7
 10
-120.15885
 20
216.4184
 42
0
  0
SEQEND
  8
0
  0
POLYLINE
  8
0
  6
CONTINUOUS
 62
     7
 66
     1
 10
0
 20
0
  0
VERTEX
  8
0
  6
CONTINUOUS
 62
     7
 10
-120.62074
 20
223.94321
 42
0.050243631
  0
VERTEX
  8
0
  6
CONTINUOUS
 62
     7
 10
-120.21239
 20
225.85391
 42
0.054947064
  0
VERTEX
  8
0
  6
CONTINUOUS
 62
     7
 10
-120.21266
 20
227.80832
 42
0.050155593
  0
VERTEX
  8
0
  6
CONTINUOUS
 62
     7
 10
-120.62074
 20
229.71841
 42
0
  0
SEQEND
  8
0
  0
POLYLINE
  8
0
  6
CONTINUOUS
 62
     7
 66
     1
 10
0
 20
0
  0
VERTEX
  8
0
  6
CONTINUOUS
 62
     7
 10
-67.620735
 20
223.94321
 42
0.050243496
  0
VERTEX
  8
0
  6
CONTINUOUS
 62
     7
 10
-67.21239
 20
225.8539
 42
0.054947182
  0
VERTEX
  8
0
  6
CONTINUOUS
 62
     7
 10
-67.212664
 20
227.80831
 42
0.050155644
  0
VERTEX
  8
0
  6
CONTINUOUS
 62
     7
 10
-67.620735
 20
229.7184
 42
0
  0
SEQEND
  8
0
  0
POLYLINE
  8
0
  6
CONTINUOUS
 62
     7
 66
     1
 10
0
 20
0
  0
VERTEX
  8
0
  6
CONTINUOUS
 62
     7
 10
-67.620735
 20
222.15338
 42
-0.013138069
  0
VERTEX
  8
0
  6
CONTINUOUS
 62
     7
 10
-67.365456
 20
220.25199
 42
-0.013285875
  0
VERTEX
  8
0
  6
CONTINUOUS
 62
     7
 10
-67.210866
 20
218.33892
 42
-0.013500074
  0
VERTEX
  8
0
  6
CONTINUOUS
 62
     7
 10
-67.158852
 20
216.4184
 42
0
  0
SEQEND
  8
0
  0
POLYLINE
  8
0
  6
CONTINUOUS
 62
     7
 66
     1
 10
0
 20
0
  0
VERTEX
  8
0
  6
CONTINUOUS
 62
     7
 10
-81.119637
 20
222.15338
 42
0.013138069
  0
VERTEX
  8
0
  6
CONTINUOUS
 62
     7
 10
-81.374916
 20
220.25199
 42
0.013285875
  0
VERTEX
  8
0
  6
CONTINUOUS
 62
     7
 10
-81.529505
 20
218.33892
 42
0.013500074
  0
VERTEX
  8
0
  6
CONTINUOUS
 62
     7
 10
-81.58152
 20
216.4184
 42
0
  0
SEQEND
  8
0
  0
POLYLINE
  8
0
  6
CONTINUOUS
 62
     7
 66
     1
 10
0
 20
0
  0
VERTEX
  8
0
  6
CONTINUOUS
 62
     7
 10
-81.119637
 20
223.94321
 42
-0.050243496
  0
VERTEX
  8
0
  6
CONTINUOUS
 62
     7
 10
-81.527982
 20
225.8539
 42
-0.054947182
  0
VERTEX
  8
0
  6
CONTINUOUS
 62
     7
 10
-81.527708
 20
227.80831
 42
-0.050155644
  0
VERTEX
  8
0
  6
CONTINUOUS
 62
     7
 10
-81.119637
 20
229.7184
 42
0
  0
SEQEND
  8
0
  0
POLYLINE
  8
0
  6
CONTINUOUS
 62
     7
 66
     1
 10
0
 20
0
  0
VERTEX
  8
0
  6
CONTINUOUS
 62
     7
 10
-67.620735
 20
208.89359
 42
-0.050243631
  0
VERTEX
  8
0
  6
CONTINUOUS
 62
     7
 10
-67.212389
 20
206.98289
 42
-0.054947064
  0
VERTEX
  8
0
  6
CONTINUOUS
 62
     7
 10
-67.212664
 20
205.02847
 42
-0.050155593
  0
VERTEX
  8
0
  6
CONTINUOUS
 62
     7
 10
-67.620735
 20
203.11838
 42
0
  0
SEQEND
  8
0
  0
POLYLINE
  8
0
  6
CONTINUOUS
 62
     7
 66
     1
 10
0
 20
0
  0
VERTEX
  8
0
  6
CONTINUOUS
 62
     7
 10
-67.620735
 20
210.68341
 42
0.013138069
  0
VERTEX
  8
0
  6
CONTINUOUS
 62
     7
 10
-67.365456
 20
212.5848
 42
0.013285875
  0
VERTEX
  8
0
  6
CONTINUOUS
 62
     7
 10
-67.210866
 20
214.49787
 42
0.013500074
  0
VERTEX
  8
0
  6
CONTINUOUS
 62
     7
 10
-67.158852
 20
216.4184
 42
0
  0
SEQEND
  8
0
  0
POLYLINE
  8
0
  6
CONTINUOUS
 62
     7
 66
     1
 10
0
 20
0
  0
VERTEX
  8
0
  6
CONTINUOUS
 62
     7
 10
-81.119637
 20
210.68341
 42
-0.013138069
  0
VERTEX
  8
0
  6
CONTINUOUS
 62
     7
 10
-81.374916
 20
212.5848
 42
-0.013285875
  0
VERTEX
  8
0
  6
CONTINUOUS
 62
     7
 10
-81.529505
 20
214.49787
 42
-0.013500074
  0
VERTEX
  8
0
  6
CONTINUOUS
 62
     7
 10
-81.58152
 20
216.4184
 42
0
  0
SEQEND
  8
0
  0
POLYLINE
  8
0
  6
CONTINUOUS
 62
     7
 66
     1
 10
0
 20
0
  0
VERTEX
  8
0
  6
CONTINUOUS
 62
     7
 10
-81.119637
 20
208.89359
 42
0.050247136
  0
VERTEX
  8
0
  6
CONTINUOUS
 62
     7
 10
-81.52796
 20
206.98289
 42
0.054938951
  0
VERTEX
  8
0
  6
CONTINUOUS
 62
     7
 10
-81.527685
 20
205.02848
 42
0.050159115
  0
VERTEX
  8
0
  6
CONTINUOUS
 62
     7
 10
-81.119637
 20
203.11838
 42
0
  0
SEQEND
  8
0
  0
POLYLINE
  8
0
  6
CONTINUOUS
 62
     7
 66
     1
 10
0
 20
0
  0
VERTEX
  8
0
  6
CONTINUOUS
 62
     7
 10
-108.395
 20
249.66783
 42
0.050243631
  0
VERTEX
  8
0
  6
CONTINUOUS
 62
     7
 10
-110.3057
 20
250.07618
 42
0.054947064
  0
VERTEX
  8
0
  6
CONTINUOUS
 62
     7
 10
-112.26011
 20
250.0759
 42
0.050155593
  0
VERTEX
  8
0
  6
CONTINUOUS
 62
     7
 10
-114.1702
 20
249.66783
 42
0
  0
SEQEND
  8
0
  0
POLYLINE
  8
0
  6
CONTINUOUS
 62
     7
 66
     1
 10
0
 20
0
  0
VERTEX
  8
0
  6
CONTINUOUS
 62
     7
 10
-106.60517
 20
249.66783
 42
-0.013138069
  0
VERTEX
  8
0
  6
CONTINUOUS
 62
     7
 10
-104.70378
 20
249.92311
 42
-0.013285875
  0
VERTEX
  8
0
  6
CONTINUOUS
 62
     7
 10
-102.79071
 20
250.0777
 42
-0.013500074
  0
VERTEX
  8
0
  6
CONTINUOUS
 62
     7
 10
-100.87019
 20
250.12971
 42
0
  0
SEQEND
  8
0
  0
POLYLINE
  8
0
  6
CONTINUOUS
 62
     7
 66
     1
 10
0
 20
0
  0
VERTEX
  8
0
  6
CONTINUOUS
 62
     7
 10
-106.60517
 20
236.16895
 42
0.013138948
  0
VERTEX
  8
0
  6
CONTINUOUS
 62
     7
 10
-104.70378
 20
235.91367
 42
0.013285878
  0
VERTEX
  8
0
  6
CONTINUOUS
 62
     7
 10
-102.79071
 20
235.75909
 42
0.013499193
  0
VERTEX
  8
0
  6
CONTINUOUS
 62
     7
 10
-100.87019
 20
235.70708
 42
0
  0
SEQEND
  8
0
  0
POLYLINE
  8
0
  6
CONTINUOUS
 62
     7
 66
     1
 10
0
 20
0
  0
VERTEX
  8
0
  6
CONTINUOUS
 62
     7
 10
-108.395
 20
236.16895
 42
-0.050245114
  0
VERTEX
  8
0
  6
CONTINUOUS
 62
     7
 10
-110.30569
 20
235.76061
 42
-0.054943242
  0
VERTEX
  8
0
  6
CONTINUOUS
 62
     7
 10
-112.26009
 20
235.76088
 42
-0.050157456
  0
VERTEX
  8
0
  6
CONTINUOUS
 62
     7
 10
-114.17017
 20
236.16895
 42
0
  0
SEQEND
  8
0
  0
POLYLINE
  8
0
  6
CONTINUOUS
 62
     7
 66
     1
 10
0
 20
0
  0
VERTEX
  8
0
  6
CONTINUOUS
 62
     7
 10
-93.345375
 20
249.66783
 42
-0.050243588
  0
VERTEX
  8
0
  6
CONTINUOUS
 62
     7
 10
-91.434678
 20
250.07618
 42
-0.05494293
  0
VERTEX
  8
0
  6
CONTINUOUS
 62
     7
 10
-89.480266
 20
250.07591
 42
-0.050159135
  0
VERTEX
  8
0
  6
CONTINUOUS
 62
     7
 10
-87.570168
 20
249.66786
 42
0
  0
SEQEND
  8
0
  0
POLYLINE
  8
0
  6
CONTINUOUS
 62
     7
 66
     1
 10
0
 20
0
  0
VERTEX
  8
0
  6
CONTINUOUS
 62
     7
 10
-95.135201
 20
249.66783
 42
0.013138069
  0
VERTEX
  8
0
  6
CONTINUOUS
 62
     7
 10
-97.036593
 20
249.92311
 42
0.013285875
  0
VERTEX
  8
0
  6
CONTINUOUS
 62
     7
 10
-98.949664
 20
250.0777
 42
0.013500074
  0
VERTEX
  8
0
  6
CONTINUOUS
 62
     7
 10
-100.87019
 20
250.12971
 42
0
  0
SEQEND
  8
0
  0
POLYLINE
  8
0
  6
CONTINUOUS
 62
     7
 66
     1
 10
0
 20
0
  0
VERTEX
  8
0
  6
CONTINUOUS
 62
     7
 10
-95.135201
 20
236.16896
 42
-0.013138069
  0
VERTEX
  8
0
  6
CONTINUOUS
 62
     7
 10
-97.036593
 20
235.91368
 42
-0.013285875
  0
VERTEX
  8
0
  6
CONTINUOUS
 62
     7
 10
-98.949664
 20
235.75909
 42
-0.013500074
  0
VERTEX
  8
0
  6
CONTINUOUS
 62
     7
 10
-100.87019
 20
235.70708
 42
0
  0
SEQEND
  8
0
  0
POLYLINE
  8
0
  6
CONTINUOUS
 62
     7
 66
     1
 10
0
 20
0
  0
VERTEX
  8
0
  6
CONTINUOUS
 62
     7
 10
-93.345375
 20
236.16896
 42
0.050243631
  0
VERTEX
  8
0
  6
CONTINUOUS
 62
     7
 10
-91.434676
 20
235.76061
 42
0.054947064
  0
VERTEX
  8
0
  6
CONTINUOUS
 62
     7
 10
-89.480265
 20
235.76089
 42
0.050155593
  0
VERTEX
  8
0
  6
CONTINUOUS
 62
     7
 10
-87.570168
 20
236.16896
 42
0
  0
SEQEND
  8
0
  0
POLYLINE
  8
0
  6
CONTINUOUS
 62
     7
 66
     1
 10
0
 20
0
  0
VERTEX
  8
0
  6
CONTINUOUS
 62
     7
 10
-124.15885
 20
136.4184
 42
-0.016924364
  0
VERTEX
  8
0
  6
CONTINUOUS
 62
     7
 10
-124.25044
 20
133.72552
 42
-0.01653495
  0
VERTEX
  8
0
  6
CONTINUOUS
 62
     7
 10
-124.52179
 20
131.04483
 42
-0.016230051
  0
VERTEX
  8
0
  6
CONTINUOUS
 62
     7
 10
-124.96714
 20
128.39282
 42
0
  0
SEQEND
  8
0
  0
POLYLINE
  8
0
  6
CONTINUOUS
 62
     7
 66
     1
 10
0
 20
0
  0
VERTEX
  8
0
  6
CONTINUOUS
 62
     7
 10
-137.77324
 20
118.51841
 42
-0.060911984
  0
VERTEX
  8
0
  6
CONTINUOUS
 62
     7
 10
-138.48539
 20
121.17353
 42
-0.069925443
  0
VERTEX
  8
0
  6
CONTINUOUS
 62
     7
 10
-138.48562
 20
123.92021
 42
-0.060971265
  0
VERTEX
  8
0
  6
CONTINUOUS
 62
     7
 10
-137.77324
 20
126.57479
 42
0
  0
SEQEND
  8
0
  0
POLYLINE
  8
0
  6
CONTINUOUS
 62
     7
 66
     1
 10
0
 20
0
  0
VERTEX
  8
0
  6
CONTINUOUS
 62
     7
 10
-124.96714
 20
126.57479
 42
-0.060980192
  0
VERTEX
  8
0
  6
CONTINUOUS
 62
     7
 10
-124.2547
 20
123.9198
 42
-0.069926221
  0
VERTEX
  8
0
  6
CONTINUOUS
 62
     7
 10
-124.25505
 20
121.17311
 42
-0.060900827
  0
VERTEX
  8
0
  6
CONTINUOUS
 62
     7
 10
-124.96714
 20
118.51841
 42
0
  0
SEQEND
  8
0
  0
POLYLINE
  8
0
  6
CONTINUOUS
 62
     7
 66
     1
 10
0
 20
0
  0
VERTEX
  8
0
  6
CONTINUOUS
 62
     7
 10
-137.77324
 20
128.39282
 42
-0.016246285
  0
VERTEX
  8
0
  6
CONTINUOUS
 62
     7
 10
-138.21893
 20
131.0474
 42
-0.016520534
  0
VERTEX
  8
0
  6
CONTINUOUS
 62
     7
 10
-138.48996
 20
133.7257
 42
-0.016923018
  0
VERTEX
  8
0
  6
CONTINUOUS
 62
     7
 10
-138.58153
 20
136.4184
 42
0
  0
SEQEND
  8
0
  0
POLYLINE
  8
0
  6
CONTINUOUS
 62
     7
 66
     1
 10
0
 20
0
  0
VERTEX
  8
0
  6
CONTINUOUS
 62
     7
 10
-124.15885
 20
136.4184
 42
0.016924364
  0
VERTEX
  8
0
  6
CONTINUOUS
 62
     7
 10
-124.25044
 20
139.11127
 42
0.01653495
  0
VERTEX
  8
0
  6
CONTINUOUS
 62
     7
 10
-124.52179
 20
141.79196
 42
0.016230051
  0
VERTEX
  8
0
  6
CONTINUOUS
 62
     7
 10
-124.96714
 20
144.44397
 42
0
  0
SEQEND
  8
0
  0
POLYLINE
  8
0
  6
CONTINUOUS
 62
     7
 66
     1
 10
0
 20
0
  0
VERTEX
  8
0
  6
CONTINUOUS
 62
     7
 10
-137.77324
 20
154.31839
 42
0.060911984
  0
VERTEX
  8
0
  6
CONTINUOUS
 62
     7
 10
-138.48539
 20
151.66326
 42
0.069925443
  0
VERTEX
  8
0
  6
CONTINUOUS
 62
     7
 10
-138.48562
 20
148.91658
 42
0.060971265
  0
VERTEX
  8
0
  6
CONTINUOUS
 62
     7
 10
-137.77324
 20
146.26201
 42
0
  0
SEQEND
  8
0
  0
POLYLINE
  8
0
  6
CONTINUOUS
 62
     7
 66
     1
 10
0
 20
0
  0
VERTEX
  8
0
  6
CONTINUOUS
 62
     7
 10
-124.96714
 20
146.26201
 42
0.060980192
  0
VERTEX
  8
0
  6
CONTINUOUS
 62
     7
 10
-124.2547
 20
148.917
 42
0.069926221
  0
VERTEX
  8
0
  6
CONTINUOUS
 62
     7
 10
-124.25505
 20
151.66369
 42
0.060900827
  0
VERTEX
  8
0
  6
CONTINUOUS
 62
     7
 10
-124.96714
 20
154.31839
 42
0
  0
SEQEND
  8
0
  0
POLYLINE
  8
0
  6
CONTINUOUS
 62
     7
 66
     1
 10
0
 20
0
  0
VERTEX
  8
0
  6
CONTINUOUS
 62
     7
 10
-137.77324
 20
144.44397
 42
0.016246285
  0
VERTEX
  8
0
  6
CONTINUOUS
 62
     7
 10
-138.21893
 20
141.7894
 42
0.016520534
  0
VERTEX
  8
0
  6
CONTINUOUS
 62
     7
 10
-138.48996
 20
139.11109
 42
0.016923018
  0
VERTEX
  8
0
  6
CONTINUOUS
 62
     7
 10
-138.58153
 20
136.4184
 42
0
  0
SEQEND
  8
0
  0
POLYLINE
  8
0
  6
CONTINUOUS
 62
     7
 66
     1
 10
0
 20
0
  0
VERTEX
  8
0
  6
CONTINUOUS
 62
     7
 10
-77.58152
 20
136.4184
 42
-0.016924364
  0
VERTEX
  8
0
  6
CONTINUOUS
 62
     7
 10
-77.489934
 20
139.11127
 42
-0.01653495
  0
VERTEX
  8
0
  6
CONTINUOUS
 62
     7
 10
-77.218579
 20
141.79196
 42
-0.016230051
  0
VERTEX
  8
0
  6
CONTINUOUS
 62
     7
 10
-76.773232
 20
144.44397
 42
0
  0
SEQEND
  8
0
  0
POLYLINE
  8
0
  6
CONTINUOUS
 62
     7
 66
     1
 10
0
 20
0
  0
VERTEX
  8
0
  6
CONTINUOUS
 62
     7
 10
-63.967159
 20
154.31839
 42
-0.060911984
  0
VERTEX
  8
0
  6
CONTINUOUS
 62
     7
 10
-63.255005
 20
151.66326
 42
-0.069925443
  0
VERTEX
  8
0
  6
CONTINUOUS
 62
     7
 10
-63.25478
 20
148.91658
 42
-0.060971265
  0
VERTEX
  8
0
  6
CONTINUOUS
 62
     7
 10
-63.967159
 20
146.26201
 42
0
  0
SEQEND
  8
0
  0
POLYLINE
  8
0
  6
CONTINUOUS
 62
     7
 66
     1
 10
0
 20
0
  0
VERTEX
  8
0
  6
CONTINUOUS
 62
     7
 10
-76.773232
 20
146.26201
 42
-0.060980192
  0
VERTEX
  8
0
  6
CONTINUOUS
 62
     7
 10
-77.485668
 20
148.917
 42
-0.069926221
  0
VERTEX
  8
0
  6
CONTINUOUS
 62
     7
 10
-77.485326
 20
151.66369
 42
-0.060900827
  0
VERTEX
  8
0
  6
CONTINUOUS
 62
     7
 10
-76.773232
 20
154.31839
 42
0
  0
SEQEND
  8
0
  0
POLYLINE
  8
0
  6
CONTINUOUS
 62
     7
 66
     1
 10
0
 20
0
  0
VERTEX
  8
0
  6
CONTINUOUS
 62
     7
 10
-63.967159
 20
144.44397
 42
-0.01624566
  0
VERTEX
  8
0
  6
CONTINUOUS
 62
     7
 10
-63.52146
 20
141.7894
 42
-0.016520531
  0
VERTEX
  8
0
  6
CONTINUOUS
 62
     7
 10
-63.250432
 20
139.11109
 42
-0.016923645
  0
VERTEX
  8
0
  6
CONTINUOUS
 62
     7
 10
-63.158855
 20
136.4184
 42
0
  0
SEQEND
  8
0
  0
POLYLINE
  8
0
  6
CONTINUOUS
 62
     7
 66
     1
 10
0
 20
0
  0
VERTEX
  8
0
  6
CONTINUOUS
 62
     7
 10
-77.58152
 20
136.4184
 42
0.016924364
  0
VERTEX
  8
0
  6
CONTINUOUS
 62
     7
 10
-77.489934
 20
133.72552
 42
0.01653495
  0
VERTEX
  8
0
  6
CONTINUOUS
 62
     7
 10
-77.218579
 20
131.04483
 42
0.016230051
  0
VERTEX
  8
0
  6
CONTINUOUS
 62
     7
 10
-76.773232
 20
128.39282
 42
0
  0
SEQEND
  8
0
  0
POLYLINE
  8
0
  6
CONTINUOUS
 62
     7
 66
     1
 10
0
 20
0
  0
VERTEX
  8
0
  6
CONTINUOUS
 62
     7
 10
-63.967159
 20
118.51841
 42
0.060910734
  0
VERTEX
  8
0
  6
CONTINUOUS
 62
     7
 10
-63.254994
 20
121.17353
 42
0.069928351
  0
VERTEX
  8
0
  6
CONTINUOUS
 62
     7
 10
-63.254769
 20
123.92022
 42
0.060969987
  0
VERTEX
  8
0
  6
CONTINUOUS
 62
     7
 10
-63.967159
 20
126.57479
 42
0
  0
SEQEND
  8
0
  0
POLYLINE
  8
0
  6
CONTINUOUS
 62
     7
 66
     1
 10
0
 20
0
  0
VERTEX
  8
0
  6
CONTINUOUS
 62
     7
 10
-76.773232
 20
126.57479
 42
0.060980192
  0
VERTEX
  8
0
  6
CONTINUOUS
 62
     7
 10
-77.485668
 20
123.9198
 42
0.069926221
  0
VERTEX
  8
0
  6
CONTINUOUS
 62
     7
 10
-77.485326
 20
121.17311
 42
0.060900827
  0
VERTEX
  8
0
  6
CONTINUOUS
 62
     7
 10
-76.773232
 20
118.51841
 42
0
  0
SEQEND
  8
0
  0
POLYLINE
  8
0
  6
CONTINUOUS
 62
     7
 66
     1
 10
0
 20
0
  0
VERTEX
  8
0
  6
CONTINUOUS
 62
     7
 10
-63.967159
 20
128.39282
 42
0.01624566
  0
VERTEX
  8
0
  6
CONTINUOUS
 62
     7
 10
-63.52146
 20
131.0474
 42
0.016520531
  0
VERTEX
  8
0
  6
CONTINUOUS
 62
     7
 10
-63.250432
 20
133.7257
 42
0.016923645
  0
VERTEX
  8
0
  6
CONTINUOUS
 62
     7
 10
-63.158855
 20
136.4184
 42
0
  0
SEQEND
  8
0
  0
POLYLINE
  8
0
  6
CONTINUOUS
 62
     7
 66
     1
 10
0
 20
0
  0
VERTEX
  8
0
  6
CONTINUOUS
 62
     7
 10
-100.87019
 20
159.70706
 42
-0.016924364
  0
VERTEX
  8
0
  6
CONTINUOUS
 62
     7
 10
-103.56306
 20
159.79865
 42
-0.01653495
  0
VERTEX
  8
0
  6
CONTINUOUS
 62
     7
 10
-106.24375
 20
160.07
 42
-0.016230051
  0
VERTEX
  8
0
  6
CONTINUOUS
 62
     7
 10
-108.89576
 20
160.51535
 42
0
  0
SEQEND
  8
0
  0
POLYLINE
  8
0
  6
CONTINUOUS
 62
     7
 66
     1
 10
0
 20
0
  0
VERTEX
  8
0
  6
CONTINUOUS
 62
     7
 10
-118.77018
 20
173.32141
 42
-0.060909744
  0
VERTEX
  8
0
  6
CONTINUOUS
 62
     7
 10
-116.11505
 20
174.03359
 42
-0.069931191
  0
VERTEX
  8
0
  6
CONTINUOUS
 62
     7
 10
-113.36836
 20
174.03381
 42
-0.060968496
  0
VERTEX
  8
0
  6
CONTINUOUS
 62
     7
 10
-110.71378
 20
173.32141
 42
0
  0
SEQEND
  8
0
  0
POLYLINE
  8
0
  6
CONTINUOUS
 62
     7
 66
     1
 10
0
 20
0
  0
VERTEX
  8
0
  6
CONTINUOUS
 62
     7
 10
-110.71378
 20
160.51535
 42
-0.060980309
  0
VERTEX
  8
0
  6
CONTINUOUS
 62
     7
 10
-113.36878
 20
159.80291
 42
-0.069926141
  0
VERTEX
  8
0
  6
CONTINUOUS
 62
     7
 10
-116.11547
 20
159.80326
 42
-0.060900766
  0
VERTEX
  8
0
  6
CONTINUOUS
 62
     7
 10
-118.77018
 20
160.51535
 42
0
  0
SEQEND
  8
0
  0
POLYLINE
  8
0
  6
CONTINUOUS
 62
     7
 66
     1
 10
0
 20
0
  0
VERTEX
  8
0
  6
CONTINUOUS
 62
     7
 10
-108.89576
 20
173.32141
 42
-0.016245036
  0
VERTEX
  8
0
  6
CONTINUOUS
 62
     7
 10
-106.24119
 20
173.76711
 42
-0.016520527
  0
VERTEX
  8
0
  6
CONTINUOUS
 62
     7
 10
-103.56288
 20
174.03815
 42
-0.016924272
  0
VERTEX
  8
0
  6
CONTINUOUS
 62
     7
 10
-100.87019
 20
174.12973
 42
0
  0
SEQEND
  8
0
  0
POLYLINE
  8
0
  6
CONTINUOUS
 62
     7
 66
     1
 10
0
 20
0
  0
VERTEX
  8
0
  6
CONTINUOUS
 62
     7
 10
-100.87019
 20
159.70706
 42
0.016924364
  0
VERTEX
  8
0
  6
CONTINUOUS
 62
     7
 10
-98.177309
 20
159.79865
 42
0.01653495
  0
VERTEX
  8
0
  6
CONTINUOUS
 62
     7
 10
-95.496625
 20
160.07
 42
0.016230051
  0
VERTEX
  8
0
  6
CONTINUOUS
 62
     7
 10
-92.844612
 20
160.51535
 42
0
  0
SEQEND
  8
0
  0
POLYLINE
  8
0
  6
CONTINUOUS
 62
     7
 66
     1
 10
0
 20
0
  0
VERTEX
  8
0
  6
CONTINUOUS
 62
     7
 10
-82.970192
 20
173.32144
 42
0.060912101
  0
VERTEX
  8
0
  6
CONTINUOUS
 62
     7
 10
-85.625322
 20
174.0336
 42
0.069925371
  0
VERTEX
  8
0
  6
CONTINUOUS
 62
     7
 10
-88.372007
 20
174.03382
 42
0.060971198
  0
VERTEX
  8
0
  6
CONTINUOUS
 62
     7
 10
-91.026588
 20
173.32144
 42
0
  0
SEQEND
  8
0
  0
POLYLINE
  8
0
  6
CONTINUOUS
 62
     7
 66
     1
 10
0
 20
0
  0
VERTEX
  8
0
  6
CONTINUOUS
 62
     7
 10
-91.026558
 20
160.51535
 42
0.060980221
  0
VERTEX
  8
0
  6
CONTINUOUS
 62
     7
 10
-88.371571
 20
159.80291
 42
0.069926293
  0
VERTEX
  8
0
  6
CONTINUOUS
 62
     7
 10
-85.624893
 20
159.80326
 42
0.060900749
  0
VERTEX
  8
0
  6
CONTINUOUS
 62
     7
 10
-82.970192
 20
160.51535
 42
0
  0
SEQEND
  8
0
  0
POLYLINE
  8
0
  6
CONTINUOUS
 62
     7
 66
     1
 10
0
 20
0
  0
VERTEX
  8
0
  6
CONTINUOUS
 62
     7
 10
-92.844612
 20
173.32144
 42
0.016246285
  0
VERTEX
  8
0
  6
CONTINUOUS
 62
     7
 10
-95.499187
 20
173.76714
 42
0.016520534
  0
VERTEX
  8
0
  6
CONTINUOUS
 62
     7
 10
-98.177493
 20
174.03816
 42
0.016923018
  0
VERTEX
  8
0
  6
CONTINUOUS
 62
     7
 10
-100.87019
 20
174.12973
 42
0
  0
SEQEND
  8
0
  0
POLYLINE
  8
0
  6
CONTINUOUS
 62
     7
 66
     1
 10
0
 20
0
  0
VERTEX
  8
0
  6
CONTINUOUS
 62
     7
 10
-145.58151
 20
46.418404
 42
0.01916166
  0
VERTEX
  8
0
  6
CONTINUOUS
 62
     7
 10
-145.44365
 20
42.842524
 42
0.018603478
  0
VERTEX
  8
0
  6
CONTINUOUS
 62
     7
 10
-145.03651
 20
39.287173
 42
0.018212825
  0
VERTEX
  8
0
  6
CONTINUOUS
 62
     7
 10
-144.36909
 20
35.771339
 42
0
  0
SEQEND
  8
0
  0
POLYLINE
  8
0
  6
CONTINUOUS
 62
     7
 66
     1
 10
0
 20
0
  0
VERTEX
  8
0
  6
CONTINUOUS
 62
     7
 10
-144.36909
 20
33.988426
 42
0.06733835
  0
VERTEX
  8
0
  6
CONTINUOUS
 62
     7
 10
-145.4352
 20
30.483181
 42
0.080048299
  0
VERTEX
  8
0
  6
CONTINUOUS
 62
     7
 10
-145.4349
 20
26.82377
 42
0.067284259
  0
VERTEX
  8
0
  6
CONTINUOUS
 62
     7
 10
-144.36909
 20
23.318413
 42
0
  0
SEQEND
  8
0
  0
POLYLINE
  8
0
  6
CONTINUOUS
 62
     7
 66
     1
 10
0
 20
0
  0
VERTEX
  8
0
  6
CONTINUOUS
 62
     7
 10
-131.37131
 20
33.988426
 42
-0.067338857
  0
VERTEX
  8
0
  6
CONTINUOUS
 62
     7
 10
-130.30518
 20
30.483183
 42
-0.080051052
  0
VERTEX
  8
0
  6
CONTINUOUS
 62
     7
 10
-130.30547
 20
26.823768
 42
-0.067284757
  0
VERTEX
  8
0
  6
CONTINUOUS
 62
     7
 10
-131.37131
 20
23.318413
 42
0
  0
SEQEND
  8
0
  0
POLYLINE
  8
0
  6
CONTINUOUS
 62
     7
 66
     1
 10
0
 20
0
  0
VERTEX
  8
0
  6
CONTINUOUS
 62
     7
 10
-130.15886
 20
46.418404
 42
-0.019162265
  0
VERTEX
  8
0
  6
CONTINUOUS
 62
     7
 10
-130.29673
 20
42.842523
 42
-0.018603814
  0
VERTEX
  8
0
  6
CONTINUOUS
 62
     7
 10
-130.70388
 20
39.287172
 42
-0.018212906
  0
VERTEX
  8
0
  6
CONTINUOUS
 62
     7
 10
-131.37131
 20
35.771339
 42
0
  0
SEQEND
  8
0
  0
POLYLINE
  8
0
  6
CONTINUOUS
 62
     7
 66
     1
 10
0
 20
0
  0
VERTEX
  8
0
  6
CONTINUOUS
 62
     7
 10
-145.58151
 20
46.418404
 42
-0.01916166
  0
VERTEX
  8
0
  6
CONTINUOUS
 62
     7
 10
-145.44365
 20
49.994283
 42
-0.018603478
  0
VERTEX
  8
0
  6
CONTINUOUS
 62
     7
 10
-145.03651
 20
53.549634
 42
-0.018212825
  0
VERTEX
  8
0
  6
CONTINUOUS
 62
     7
 10
-144.36909
 20
57.065468
 42
0
  0
SEQEND
  8
0
  0
POLYLINE
  8
0
  6
CONTINUOUS
 62
     7
 66
     1
 10
0
 20
0
  0
VERTEX
  8
0
  6
CONTINUOUS
 62
     7
 10
-144.36909
 20
58.848381
 42
-0.067338448
  0
VERTEX
  8
0
  6
CONTINUOUS
 62
     7
 10
-145.4352
 20
62.353631
 42
-0.080048231
  0
VERTEX
  8
0
  6
CONTINUOUS
 62
     7
 10
-145.4349
 20
66.013047
 42
-0.067284212
  0
VERTEX
  8
0
  6
CONTINUOUS
 62
     7
 10
-144.36909
 20
69.51841
 42
0
  0
SEQEND
  8
0
  0
POLYLINE
  8
0
  6
CONTINUOUS
 62
     7
 66
     1
 10
0
 20
0
  0
VERTEX
  8
0
  6
CONTINUOUS
 62
     7
 10
-131.37131
 20
58.848381
 42
0.067338955
  0
VERTEX
  8
0
  6
CONTINUOUS
 62
     7
 10
-130.30518
 20
62.353629
 42
0.080050984
  0
VERTEX
  8
0
  6
CONTINUOUS
 62
     7
 10
-130.30547
 20
66.013049
 42
0.06728471
  0
VERTEX
  8
0
  6
CONTINUOUS
 62
     7
 10
-131.37131
 20
69.51841
 42
0
  0
SEQEND
  8
0
  0
POLYLINE
  8
0
  6
CONTINUOUS
 62
     7
 66
     1
 10
0
 20
0
  0
VERTEX
  8
0
  6
CONTINUOUS
 62
     7
 10
-130.15886
 20
46.418404
 42
0.019162265
  0
VERTEX
  8
0
  6
CONTINUOUS
 62
     7
 10
-130.29673
 20
49.994284
 42
0.018603814
  0
VERTEX
  8
0
  6
CONTINUOUS
 62
     7
 10
-130.70388
 20
53.549636
 42
0.018212906
  0
VERTEX
  8
0
  6
CONTINUOUS
 62
     7
 10
-131.37131
 20
57.065468
 42
0
  0
SEQEND
  8
0
  0
POLYLINE
  8
0
  6
CONTINUOUS
 62
     7
 66
     1
 10
0
 20
0
  0
VERTEX
  8
0
  6
CONTINUOUS
 62
     7
 10
-56.158871
 20
46.418404
 42
0.01916166
  0
VERTEX
  8
0
  6
CONTINUOUS
 62
     7
 10
-56.296738
 20
49.994283
 42
0.018603478
  0
VERTEX
  8
0
  6
CONTINUOUS
 62
     7
 10
-56.703878
 20
53.549634
 42
0.018212825
  0
VERTEX
  8
0
  6
CONTINUOUS
 62
     7
 10
-57.371288
 20
57.065468
 42
0
  0
SEQEND
  8
0
  0
POLYLINE
  8
0
  6
CONTINUOUS
 62
     7
 66
     1
 10
0
 20
0
  0
VERTEX
  8
0
  6
CONTINUOUS
 62
     7
 10
-57.371288
 20
58.848381
 42
0.067338448
  0
VERTEX
  8
0
  6
CONTINUOUS
 62
     7
 10
-56.305182
 20
62.353631
 42
0.080048231
  0
VERTEX
  8
0
  6
CONTINUOUS
 62
     7
 10
-56.305481
 20
66.013047
 42
0.067284212
  0
VERTEX
  8
0
  6
CONTINUOUS
 62
     7
 10
-57.371288
 20
69.51841
 42
0
  0
SEQEND
  8
0
  0
POLYLINE
  8
0
  6
CONTINUOUS
 62
     7
 66
     1
 10
0
 20
0
  0
VERTEX
  8
0
  6
CONTINUOUS
 62
     7
 10
-70.369072
 20
58.848381
 42
-0.067338758
  0
VERTEX
  8
0
  6
CONTINUOUS
 62
     7
 10
-71.435202
 20
62.353619
 42
-0.080051119
  0
VERTEX
  8
0
  6
CONTINUOUS
 62
     7
 10
-71.434907
 20
66.01303
 42
-0.067284804
  0
VERTEX
  8
0
  6
CONTINUOUS
 62
     7
 10
-70.369072
 20
69.518379
 42
0
  0
SEQEND
  8
0
  0
POLYLINE
  8
0
  6
CONTINUOUS
 62
     7
 66
     1
 10
0
 20
0
  0
VERTEX
  8
0
  6
CONTINUOUS
 62
     7
 10
-71.58152
 20
46.418404
 42
-0.019162265
  0
VERTEX
  8
0
  6
CONTINUOUS
 62
     7
 10
-71.443648
 20
49.994284
 42
-0.018603814
  0
VERTEX
  8
0
  6
CONTINUOUS
 62
     7
 10
-71.036497
 20
53.549636
 42
-0.018212906
  0
VERTEX
  8
0
  6
CONTINUOUS
 62
     7
 10
-70.369072
 20
57.065468
 42
0
  0
SEQEND
  8
0
  0
POLYLINE
  8
0
  6
CONTINUOUS
 62
     7
 66
     1
 10
0
 20
0
  0
VERTEX
  8
0
  6
CONTINUOUS
 62
     7
 10
-56.158871
 20
46.418404
 42
-0.01916166
  0
VERTEX
  8
0
  6
CONTINUOUS
 62
     7
 10
-56.296738
 20
42.842524
 42
-0.018603478
  0
VERTEX
  8
0
  6
CONTINUOUS
 62
     7
 10
-56.703878
 20
39.287173
 42
-0.018212825
  0
VERTEX
  8
0
  6
CONTINUOUS
 62
     7
 10
-57.371288
 20
35.771339
 42
0
  0
SEQEND
  8
0
  0
POLYLINE
  8
0
  6
CONTINUOUS
 62
     7
 66
     1
 10
0
 20
0
  0
VERTEX
  8
0
  6
CONTINUOUS
 62
     7
 10
-57.371288
 20
33.988426
 42
-0.06733835
  0
VERTEX
  8
0
  6
CONTINUOUS
 62
     7
 10
-56.305182
 20
30.483181
 42
-0.080048299
  0
VERTEX
  8
0
  6
CONTINUOUS
 62
     7
 10
-56.30548
 20
26.82377
 42
-0.067284259
  0
VERTEX
  8
0
  6
CONTINUOUS
 62
     7
 10
-57.371288
 20
23.318413
 42
0
  0
SEQEND
  8
0
  0
POLYLINE
  8
0
  6
CONTINUOUS
 62
     7
 66
     1
 10
0
 20
0
  0
VERTEX
  8
0
  6
CONTINUOUS
 62
     7
 10
-70.369072
 20
33.988426
 42
0.06733981
  0
VERTEX
  8
0
  6
CONTINUOUS
 62
     7
 10
-71.435192
 20
30.483182
 42
0.080048861
  0
VERTEX
  8
0
  6
CONTINUOUS
 62
     7
 10
-71.434894
 20
26.823768
 42
0.067285709
  0
VERTEX
  8
0
  6
CONTINUOUS
 62
     7
 10
-70.369072
 20
23.318413
 42
0
  0
SEQEND
  8
0
  0
POLYLINE
  8
0
  6
CONTINUOUS
 62
     7
 66
     1
 10
0
 20
0
  0
VERTEX
  8
0
  6
CONTINUOUS
 62
     7
 10
-71.58152
 20
46.418404
 42
0.019162265
  0
VERTEX
  8
0
  6
CONTINUOUS
 62
     7
 10
-71.443648
 20
42.842523
 42
0.018603814
  0
VERTEX
  8
0
  6
CONTINUOUS
 62
     7
 10
-71.036497
 20
39.287172
 42
0.018212906
  0
VERTEX
  8
0
  6
CONTINUOUS
 62
     7
 10
-70.369072
 20
35.771339
 42
0
  0
SEQEND
  8
0
  0
TEXT
  8
0
  6
CONTINUOUS
 62
     7
 10
-176.10388
 20
271.3978
 40
5
 41
0.8449534
  1
ＭＲ－Ｊ　　チーズ
  0
TEXT
  8
0
  6
CONTINUOUS
 62
     7
 10
-134.12231
 20
243.87745
 40
4.8000002
 41
1.0285715
  1
13
  0
TEXT
  8
0
  6
CONTINUOUS
 62
     7
 10
-137.93449
 20
166.91841
 40
4.8000002
 41
1.0285715
  1
20
  0
TEXT
  8
0
  6
CONTINUOUS
 62
     7
 10
-144.58448
 20
83.218408
 40
4.8000002
 41
1.0285715
  1
25
  0
LINE
  8
1
  6
CONTINUOUS
 62
     7
 10
-210
 20
0
 11
0
 21
0
  0
LINE
  8
1
  6
CONTINUOUS
 62
     7
 10
-210
 20
297
 11
0
 21
297
  0
LINE
  8
1
  6
CONTINUOUS
 62
     7
 10
0
 20
297
 11
0
 21
0
  0
LINE
  8
1
  6
CONTINUOUS
 62
     7
 10
-210
 20
297
 11
-210
 21
0
  0
ENDSEC
  0
EOF
