  0
SECTION
  2
HEADER
  9
$EXTMAX
 10
0
 20
297
  9
$EXTMIN
 10
-210
 20
0
  0
ENDSEC
  0
SECTION
  2
TABLES
  0
TABLE
  2
LTYPE
 70
    22
  0
LTYPE
  2
CONTINUOUS
 70
    64
  3
Solid line
 72
    65
 73
     0
 40
0.000000
  0
LTYPE
  2
DASHED
 70
    64
  3
__ __ __ __ __ __ __ __ __ __ __ __ __ __ __
 72
    65
 73
     2
 40
3.500000
 49
2.000000
 49
-1.500000
  0
LTYPE
  2
CENTER
 70
    64
  3
____ _ ____ _ ____ _ ____ _ ____ _ ____ _ ____
 72
    65
 73
     4
 40
17.500000
 49
13.000000
 49
-1.500000
 49
1.500000
 49
-1.500000
  0
LTYPE
  2
PHANTOM
 70
    64
  3
_____ _ _ _____ _ _ _____ _ _ _____ _ _ ____  
 72
    65
 73
     6
 40
15.500000
 49
8.000000
 49
-1.500000
 49
1.500000
 49
-1.500000
 49
1.500000
 49
-1.500000
  0
LTYPE
  2
DOT
 70
    64
  3
. . . . . . . . . . . . . . . . . . . . . . . .
 72
    65
 73
     2
 40
0.25
 49
0.0
 49
-0.25
  0
ENDTAB
  0
TABLE
  2
LAYER
 70
     2
  0
LAYER
  2
0
 70
     0
 62
     7
  6
CONTINUOUS
  0
LAYER
  2
1
 70
     0
 62
     7
  6
CONTINUOUS
  0
ENDTAB
  0
TABLE
  2
STYLE
 70
     1
  0
STYLE
  2
STANDARD
 70
     0
 40
0.000000
 41
1.000000
 50
0.000000
 71
     0
 42
0.200000
  3
txt
  4
BIGFONT
  0
ENDTAB
  0
TABLE
  2
VIEW
 70
     0
  0
ENDTAB
  0
ENDSEC
  0
SECTION
  2
BLOCKS
  0
ENDSEC
  0
SECTION
  2
ENTITIES
  0
POINT
  8
0
  6
CONTINUOUS
 62
     7
 10
-102.72272
 20
215.68521
  0
POINT
  8
0
  6
CONTINUOUS
 62
     7
 10
-102.72272
 20
145.68521
  0
POINT
  8
0
  6
CONTINUOUS
 62
     7
 10
-102.72272
 20
75.685226
  0
LINE
  8
0
  6
CONTINUOUS
 62
     7
 10
-154.17996
 20
271.4249
 11
-152.17996
 21
271.4249
  0
LINE
  8
0
  6
CONTINUOUS
 62
     7
 10
-154.17996
 20
276.28983
 11
-152.17996
 21
276.28983
  0
LINE
  8
0
  6
CONTINUOUS
 62
     7
 10
-152.67996
 20
276.28983
 11
-152.67996
 21
271.4249
  0
LINE
  8
0
  6
CONTINUOUS
 62
     7
 10
-153.67996
 20
276.28983
 11
-153.67996
 21
271.4249
  0
LINE
  8
0
  6
CONTINUOUS
 62
     7
 10
-107.88327
 20
204.93521
 11
-105.72272
 21
204.93521
  0
LINE
  8
0
  6
CONTINUOUS
 62
     7
 10
-109.72275
 20
205.99722
 11
-108.31631
 21
205.18521
  0
LINE
  8
0
  6
CONTINUOUS
 62
     7
 10
-111.72272
 20
205.18521
 11
-108.31628
 21
205.18521
  0
LINE
  8
0
  6
CONTINUOUS
 62
     7
 10
-109.72272
 20
215.68521
 11
-109.72272
 21
205.18521
  0
LINE
  8
0
  6
CONTINUOUS
 62
     7
 10
-111.72272
 20
205.99721
 11
-109.72272
 21
205.99721
  0
LINE
  8
0
  6
CONTINUOUS
 62
     7
 10
-108.31631
 20
205.18521
 11
-107.8833
 21
204.93521
  0
LINE
  8
0
  6
CONTINUOUS
 62
     7
 10
-105.72272
 20
215.68521
 11
-105.72272
 21
204.68521
  0
LINE
  8
0
  6
CONTINUOUS
 62
     7
 10
-104.74023
 20
209.33437
 11
-100.7052
 21
209.33437
  0
LINE
  8
0
  6
CONTINUOUS
 62
     7
 10
-99.722717
 20
215.68521
 11
-99.722717
 21
204.68521
  0
LINE
  8
0
  6
CONTINUOUS
 62
     7
 10
-99.722717
 20
204.93521
 11
-97.562164
 21
204.93521
  0
LINE
  8
0
  6
CONTINUOUS
 62
     7
 10
-100.70524
 20
202.98351
 11
-99.722752
 21
204.68522
  0
LINE
  8
0
  6
CONTINUOUS
 62
     7
 10
-104.74023
 20
202.98351
 11
-100.7052
 21
202.98351
  0
LINE
  8
0
  6
CONTINUOUS
 62
     7
 10
-105.72273
 20
204.6852
 11
-104.74024
 21
202.98349
  0
LINE
  8
0
  6
CONTINUOUS
 62
     7
 10
-97.12915
 20
205.18521
 11
-93.722717
 21
205.18521
  0
LINE
  8
0
  6
CONTINUOUS
 62
     7
 10
-97.56216
 20
204.93517
 11
-97.129147
 21
205.18517
  0
LINE
  8
0
  6
CONTINUOUS
 62
     7
 10
-97.129147
 20
205.18517
 11
-95.722715
 21
205.99718
  0
LINE
  8
0
  6
CONTINUOUS
 62
     7
 10
-95.722717
 20
215.68521
 11
-95.722717
 21
205.18521
  0
LINE
  8
0
  6
CONTINUOUS
 62
     7
 10
-95.722717
 20
205.99721
 11
-93.722717
 21
205.99721
  0
LINE
  8
0
  6
CENTER
 62
     7
 10
-130.45755
 20
215.68521
 11
-75.447662
 21
215.68521
  0
LINE
  8
0
  6
CONTINUOUS
 62
     7
 10
-107.88327
 20
226.43521
 11
-105.72272
 21
226.43521
  0
LINE
  8
0
  6
CONTINUOUS
 62
     7
 10
-109.72272
 20
225.37322
 11
-108.31629
 21
226.18523
  0
LINE
  8
0
  6
CONTINUOUS
 62
     7
 10
-111.72272
 20
226.18521
 11
-108.31628
 21
226.18521
  0
LINE
  8
0
  6
CONTINUOUS
 62
     7
 10
-109.72272
 20
215.68521
 11
-109.72272
 21
226.18521
  0
LINE
  8
0
  6
CONTINUOUS
 62
     7
 10
-111.72272
 20
225.37321
 11
-109.72272
 21
225.37321
  0
LINE
  8
0
  6
CONTINUOUS
 62
     7
 10
-108.31629
 20
226.18523
 11
-107.88328
 21
226.43523
  0
LINE
  8
0
  6
CONTINUOUS
 62
     7
 10
-105.72272
 20
215.68521
 11
-105.72272
 21
226.68521
  0
LINE
  8
0
  6
CONTINUOUS
 62
     7
 10
-104.74023
 20
222.03606
 11
-100.7052
 21
222.03606
  0
LINE
  8
0
  6
CONTINUOUS
 62
     7
 10
-99.722717
 20
215.68521
 11
-99.722717
 21
226.68521
  0
LINE
  8
0
  6
CONTINUOUS
 62
     7
 10
-99.722717
 20
226.43521
 11
-97.562164
 21
226.43521
  0
LINE
  8
0
  6
CONTINUOUS
 62
     7
 10
-100.70519
 20
228.38691
 11
-99.722711
 21
226.6852
  0
LINE
  8
0
  6
CONTINUOUS
 62
     7
 10
-104.74023
 20
228.38692
 11
-100.7052
 21
228.38692
  0
LINE
  8
0
  6
CONTINUOUS
 62
     7
 10
-105.72274
 20
226.68521
 11
-104.74026
 21
228.38692
  0
LINE
  8
0
  6
CONTINUOUS
 62
     7
 10
-97.12915
 20
226.18521
 11
-93.722717
 21
226.18521
  0
LINE
  8
0
  6
CONTINUOUS
 62
     7
 10
-97.562192
 20
226.43523
 11
-97.129179
 21
226.18523
  0
LINE
  8
0
  6
CONTINUOUS
 62
     7
 10
-97.129179
 20
226.18523
 11
-95.72276
 21
225.37324
  0
LINE
  8
0
  6
CONTINUOUS
 62
     7
 10
-95.722717
 20
215.68521
 11
-95.722717
 21
226.18521
  0
LINE
  8
0
  6
CONTINUOUS
 62
     7
 10
-95.722717
 20
225.37321
 11
-93.722717
 21
225.37321
  0
LINE
  8
0
  6
CONTINUOUS
 62
     7
 10
-112.72272
 20
132.49721
 11
-110.72272
 21
132.49721
  0
LINE
  8
0
  6
CONTINUOUS
 62
     7
 10
-112.72272
 20
131.68521
 11
-109.31628
 21
131.68521
  0
LINE
  8
0
  6
CONTINUOUS
 62
     7
 10
-110.72272
 20
145.68521
 11
-110.72272
 21
131.68521
  0
LINE
  8
0
  6
CONTINUOUS
 62
     7
 10
-110.72273
 20
132.49723
 11
-109.31631
 21
131.68523
  0
LINE
  8
0
  6
CONTINUOUS
 62
     7
 10
-109.31631
 20
131.68523
 11
-108.8833
 21
131.43523
  0
LINE
  8
0
  6
CONTINUOUS
 62
     7
 10
-108.88327
 20
131.43521
 11
-106.22272
 21
131.43521
  0
LINE
  8
0
  6
CONTINUOUS
 62
     7
 10
-106.22271
 20
130.68521
 11
-104.88296
 21
128.36469
  0
LINE
  8
0
  6
CONTINUOUS
 62
     7
 10
-106.22272
 20
145.68521
 11
-106.22272
 21
130.68521
  0
LINE
  8
0
  6
CONTINUOUS
 62
     7
 10
-104.88297
 20
137.02496
 11
-100.56244
 21
137.02496
  0
LINE
  8
0
  6
CONTINUOUS
 62
     7
 10
-99.222717
 20
145.68521
 11
-99.222717
 21
130.68521
  0
LINE
  8
0
  6
CONTINUOUS
 62
     7
 10
-100.56247
 20
128.36472
 11
-99.222727
 21
130.68523
  0
LINE
  8
0
  6
CONTINUOUS
 62
     7
 10
-104.88297
 20
128.3647
 11
-100.56244
 21
128.3647
  0
LINE
  8
0
  6
CONTINUOUS
 62
     7
 10
-99.222717
 20
131.43521
 11
-96.562134
 21
131.43521
  0
LINE
  8
0
  6
CONTINUOUS
 62
     7
 10
-96.562157
 20
131.43522
 11
-96.129144
 21
131.68522
  0
LINE
  8
0
  6
CONTINUOUS
 62
     7
 10
-96.129144
 20
131.68522
 11
-94.722717
 21
132.49722
  0
LINE
  8
0
  6
CONTINUOUS
 62
     7
 10
-96.12912
 20
131.68521
 11
-92.722748
 21
131.68521
  0
LINE
  8
0
  6
CONTINUOUS
 62
     7
 10
-94.722717
 20
145.68521
 11
-94.722717
 21
131.68521
  0
LINE
  8
0
  6
CONTINUOUS
 62
     7
 10
-94.722717
 20
132.49721
 11
-92.722748
 21
132.49721
  0
LINE
  8
0
  6
CENTER
 62
     7
 10
-130.88574
 20
145.68521
 11
-72.878181
 21
145.68521
  0
LINE
  8
0
  6
CONTINUOUS
 62
     7
 10
-112.72272
 20
158.87321
 11
-110.72272
 21
158.87321
  0
LINE
  8
0
  6
CONTINUOUS
 62
     7
 10
-112.72272
 20
159.68521
 11
-109.31628
 21
159.68521
  0
LINE
  8
0
  6
CONTINUOUS
 62
     7
 10
-110.72272
 20
145.68521
 11
-110.72272
 21
159.68521
  0
LINE
  8
0
  6
CONTINUOUS
 62
     7
 10
-110.72272
 20
158.87322
 11
-109.3163
 21
159.68521
  0
LINE
  8
0
  6
CONTINUOUS
 62
     7
 10
-109.3163
 20
159.68521
 11
-108.88328
 21
159.93521
  0
LINE
  8
0
  6
CONTINUOUS
 62
     7
 10
-108.88327
 20
159.93521
 11
-106.22272
 21
159.93521
  0
LINE
  8
0
  6
CONTINUOUS
 62
     7
 10
-106.22272
 20
160.68522
 11
-104.88297
 21
163.00573
  0
LINE
  8
0
  6
CONTINUOUS
 62
     7
 10
-106.22272
 20
145.68521
 11
-106.22272
 21
160.68521
  0
LINE
  8
0
  6
CONTINUOUS
 62
     7
 10
-104.88297
 20
154.34546
 11
-100.56244
 21
154.34546
  0
LINE
  8
0
  6
CONTINUOUS
 62
     7
 10
-99.222717
 20
145.68521
 11
-99.222717
 21
160.68521
  0
LINE
  8
0
  6
CONTINUOUS
 62
     7
 10
-100.56247
 20
163.00571
 11
-99.222713
 21
160.68519
  0
LINE
  8
0
  6
CONTINUOUS
 62
     7
 10
-104.88297
 20
163.00572
 11
-100.56244
 21
163.00572
  0
LINE
  8
0
  6
CONTINUOUS
 62
     7
 10
-99.222717
 20
159.93521
 11
-96.562134
 21
159.93521
  0
LINE
  8
0
  6
CONTINUOUS
 62
     7
 10
-96.562174
 20
159.93523
 11
-96.129161
 21
159.68523
  0
LINE
  8
0
  6
CONTINUOUS
 62
     7
 10
-96.129161
 20
159.68523
 11
-94.722716
 21
158.87322
  0
LINE
  8
0
  6
CONTINUOUS
 62
     7
 10
-96.12912
 20
159.68521
 11
-92.722748
 21
159.68521
  0
LINE
  8
0
  6
CONTINUOUS
 62
     7
 10
-94.722717
 20
145.68521
 11
-94.722717
 21
159.68521
  0
LINE
  8
0
  6
CONTINUOUS
 62
     7
 10
-94.722717
 20
158.87321
 11
-92.722748
 21
158.87321
  0
LINE
  8
0
  6
CONTINUOUS
 62
     7
 10
-114.22272
 20
58.497208
 11
-111.33723
 21
58.497208
  0
LINE
  8
0
  6
CONTINUOUS
 62
     7
 10
-114.22272
 20
57.685226
 11
-112.22272
 21
57.685226
  0
LINE
  8
0
  6
CONTINUOUS
 62
     7
 10
-112.22272
 20
75.685226
 11
-112.22272
 21
57.685226
  0
LINE
  8
0
  6
CONTINUOUS
 62
     7
 10
-110.49066
 20
58.685226
 11
-106.72272
 21
58.685226
  0
LINE
  8
0
  6
CONTINUOUS
 62
     7
 10
-106.72272
 20
75.685226
 11
-106.72272
 21
57.685226
  0
LINE
  8
0
  6
CONTINUOUS
 62
     7
 10
-105.11502
 20
65.292923
 11
-100.33041
 21
65.292923
  0
LINE
  8
0
  6
CONTINUOUS
 62
     7
 10
-105.11502
 20
54.90062
 11
-100.33041
 21
54.90062
  0
LINE
  8
0
  6
CONTINUOUS
 62
     7
 10
-106.7227
 20
57.685196
 11
-105.11501
 21
54.900589
  0
LINE
  8
0
  6
CONTINUOUS
 62
     7
 10
-100.33043
 20
54.90062
 11
-98.722732
 21
57.685242
  0
LINE
  8
0
  6
CONTINUOUS
 62
     7
 10
-98.722717
 20
75.685226
 11
-98.722717
 21
57.685226
  0
LINE
  8
0
  6
CONTINUOUS
 62
     7
 10
-98.722717
 20
58.685226
 11
-94.954773
 21
58.685226
  0
LINE
  8
0
  6
CONTINUOUS
 62
     7
 10
-94.108215
 20
58.497208
 11
-91.222717
 21
58.497208
  0
LINE
  8
0
  6
CONTINUOUS
 62
     7
 10
-93.222717
 20
57.685226
 11
-91.222717
 21
57.685226
  0
LINE
  8
0
  6
CONTINUOUS
 62
     7
 10
-93.222717
 20
75.685226
 11
-93.222717
 21
57.685226
  0
LINE
  8
0
  6
CENTER
 62
     7
 10
-133.64775
 20
75.685226
 11
-72.160049
 21
75.685226
  0
LINE
  8
0
  6
CONTINUOUS
 62
     7
 10
-114.22272
 20
92.873222
 11
-111.33723
 21
92.873222
  0
LINE
  8
0
  6
CONTINUOUS
 62
     7
 10
-114.22272
 20
93.685219
 11
-112.22272
 21
93.685219
  0
LINE
  8
0
  6
CONTINUOUS
 62
     7
 10
-112.22272
 20
75.685226
 11
-112.22272
 21
93.685219
  0
LINE
  8
0
  6
CONTINUOUS
 62
     7
 10
-110.49066
 20
92.685219
 11
-106.72272
 21
92.685219
  0
LINE
  8
0
  6
CONTINUOUS
 62
     7
 10
-106.72272
 20
75.685226
 11
-106.72272
 21
93.685219
  0
LINE
  8
0
  6
CONTINUOUS
 62
     7
 10
-105.11502
 20
86.07753
 11
-100.33041
 21
86.07753
  0
LINE
  8
0
  6
CONTINUOUS
 62
     7
 10
-105.11502
 20
96.469826
 11
-100.33041
 21
96.469826
  0
LINE
  8
0
  6
CONTINUOUS
 62
     7
 10
-106.72272
 20
93.685219
 11
-105.11502
 21
96.469833
  0
LINE
  8
0
  6
CONTINUOUS
 62
     7
 10
-100.33041
 20
96.46981
 11
-98.72271
 21
93.685196
  0
LINE
  8
0
  6
CONTINUOUS
 62
     7
 10
-98.722717
 20
75.685226
 11
-98.722717
 21
93.685219
  0
LINE
  8
0
  6
CONTINUOUS
 62
     7
 10
-98.722717
 20
92.685219
 11
-94.954773
 21
92.685219
  0
LINE
  8
0
  6
CONTINUOUS
 62
     7
 10
-94.108215
 20
92.873222
 11
-91.222717
 21
92.873222
  0
LINE
  8
0
  6
CONTINUOUS
 62
     7
 10
-93.222717
 20
93.685219
 11
-91.222717
 21
93.685219
  0
LINE
  8
0
  6
CONTINUOUS
 62
     7
 10
-93.222717
 20
75.685226
 11
-93.222717
 21
93.685219
  0
LINE
  8
0
  6
CONTINUOUS
 62
     7
 10
-79.473267
 20
221.4202
 11
-79.473267
 21
223.21002
  0
LINE
  8
0
  6
CONTINUOUS
 62
     7
 10
-79.473267
 20
221.4202
 11
-92.972168
 21
221.4202
  0
LINE
  8
0
  6
CONTINUOUS
 62
     7
 10
-79.473267
 20
223.21002
 11
-92.972168
 21
223.21002
  0
LINE
  8
0
  6
CONTINUOUS
 62
     7
 10
-92.972168
 20
221.4202
 11
-92.972168
 21
223.21002
  0
LINE
  8
0
  6
CONTINUOUS
 62
     7
 10
-93.722717
 20
215.68521
 11
-93.722717
 21
227.68521
  0
LINE
  8
0
  6
CONTINUOUS
 62
     7
 10
-92.972189
 20
228.9852
 11
-93.722746
 21
227.6852
  0
LINE
  8
0
  6
CONTINUOUS
 62
     7
 10
-79.473267
 20
228.98521
 11
-92.972168
 21
228.98521
  0
LINE
  8
0
  6
CONTINUOUS
 62
     7
 10
-78.722721
 20
227.6852
 11
-79.47327
 21
228.98519
  0
LINE
  8
0
  6
CONTINUOUS
 62
     7
 10
-78.722717
 20
215.68521
 11
-78.722717
 21
227.68521
  0
LINE
  8
0
  6
CONTINUOUS
 62
     7
 10
-79.473267
 20
209.95023
 11
-79.473267
 21
208.1604
  0
LINE
  8
0
  6
CONTINUOUS
 62
     7
 10
-79.473267
 20
209.95023
 11
-92.972168
 21
209.95023
  0
LINE
  8
0
  6
CONTINUOUS
 62
     7
 10
-79.473267
 20
208.1604
 11
-92.972168
 21
208.1604
  0
LINE
  8
0
  6
CONTINUOUS
 62
     7
 10
-92.972168
 20
209.95023
 11
-92.972168
 21
208.1604
  0
LINE
  8
0
  6
CONTINUOUS
 62
     7
 10
-93.722717
 20
215.68521
 11
-93.722717
 21
203.68521
  0
LINE
  8
0
  6
CONTINUOUS
 62
     7
 10
-92.972164
 20
202.38522
 11
-93.722729
 21
203.68523
  0
LINE
  8
0
  6
CONTINUOUS
 62
     7
 10
-79.473267
 20
202.38521
 11
-92.972168
 21
202.38521
  0
LINE
  8
0
  6
CONTINUOUS
 62
     7
 10
-78.722725
 20
203.68523
 11
-79.473282
 21
202.38522
  0
LINE
  8
0
  6
CONTINUOUS
 62
     7
 10
-78.722717
 20
215.68521
 11
-78.722717
 21
203.68521
  0
LINE
  8
0
  6
CONTINUOUS
 62
     7
 10
-125.97217
 20
209.95023
 11
-125.97217
 21
208.1604
  0
LINE
  8
0
  6
CONTINUOUS
 62
     7
 10
-125.97217
 20
209.95023
 11
-112.47327
 21
209.95023
  0
LINE
  8
0
  6
CONTINUOUS
 62
     7
 10
-125.97217
 20
208.1604
 11
-112.47327
 21
208.1604
  0
LINE
  8
0
  6
CONTINUOUS
 62
     7
 10
-112.47327
 20
209.95023
 11
-112.47327
 21
208.1604
  0
LINE
  8
0
  6
CONTINUOUS
 62
     7
 10
-111.72272
 20
215.68521
 11
-111.72272
 21
203.68521
  0
LINE
  8
0
  6
CONTINUOUS
 62
     7
 10
-112.4733
 20
202.38523
 11
-111.72274
 21
203.68524
  0
LINE
  8
0
  6
CONTINUOUS
 62
     7
 10
-125.97217
 20
202.38521
 11
-112.47327
 21
202.38521
  0
LINE
  8
0
  6
CONTINUOUS
 62
     7
 10
-126.72273
 20
203.68523
 11
-125.97217
 21
202.38521
  0
LINE
  8
0
  6
CONTINUOUS
 62
     7
 10
-126.72272
 20
215.68521
 11
-126.72272
 21
203.68521
  0
LINE
  8
0
  6
CONTINUOUS
 62
     7
 10
-125.97217
 20
221.4202
 11
-125.97217
 21
223.21002
  0
LINE
  8
0
  6
CONTINUOUS
 62
     7
 10
-125.97217
 20
221.4202
 11
-112.47327
 21
221.4202
  0
LINE
  8
0
  6
CONTINUOUS
 62
     7
 10
-125.97217
 20
223.21002
 11
-112.47327
 21
223.21002
  0
LINE
  8
0
  6
CONTINUOUS
 62
     7
 10
-112.47327
 20
221.4202
 11
-112.47327
 21
223.21002
  0
LINE
  8
0
  6
CONTINUOUS
 62
     7
 10
-111.72272
 20
215.68521
 11
-111.72272
 21
227.68521
  0
LINE
  8
0
  6
CONTINUOUS
 62
     7
 10
-112.47327
 20
228.98519
 11
-111.72272
 21
227.6852
  0
LINE
  8
0
  6
CONTINUOUS
 62
     7
 10
-125.97217
 20
228.98521
 11
-112.47327
 21
228.98521
  0
LINE
  8
0
  6
CONTINUOUS
 62
     7
 10
-126.72276
 20
227.68522
 11
-125.9722
 21
228.98523
  0
LINE
  8
0
  6
CONTINUOUS
 62
     7
 10
-126.72272
 20
215.68521
 11
-126.72272
 21
227.68521
  0
LINE
  8
0
  6
CONTINUOUS
 62
     7
 10
-78.819691
 20
163.5852
 11
-77.722721
 21
161.68519
  0
LINE
  8
0
  6
CONTINUOUS
 62
     7
 10
-91.625763
 20
163.58521
 11
-78.819702
 21
163.58521
  0
LINE
  8
0
  6
CONTINUOUS
 62
     7
 10
-92.72275
 20
161.68522
 11
-91.625788
 21
163.58521
  0
LINE
  8
0
  6
CONTINUOUS
 62
     7
 10
-92.722748
 20
145.68521
 11
-92.722748
 21
161.68521
  0
LINE
  8
0
  6
CONTINUOUS
 62
     7
 10
-91.625763
 20
153.71078
 11
-91.625763
 21
155.52882
  0
LINE
  8
0
  6
CONTINUOUS
 62
     7
 10
-91.625763
 20
155.52882
 11
-78.819702
 21
155.52882
  0
LINE
  8
0
  6
CONTINUOUS
 62
     7
 10
-91.625763
 20
153.71078
 11
-78.819702
 21
153.71078
  0
LINE
  8
0
  6
CONTINUOUS
 62
     7
 10
-77.722733
 20
145.68521
 11
-77.722733
 21
161.68521
  0
LINE
  8
0
  6
CONTINUOUS
 62
     7
 10
-78.819702
 20
153.71078
 11
-78.819702
 21
155.52882
  0
LINE
  8
0
  6
CONTINUOUS
 62
     7
 10
-78.819712
 20
127.78522
 11
-77.722742
 21
129.68523
  0
LINE
  8
0
  6
CONTINUOUS
 62
     7
 10
-91.625763
 20
127.78522
 11
-78.819702
 21
127.78522
  0
LINE
  8
0
  6
CONTINUOUS
 62
     7
 10
-92.722727
 20
129.6852
 11
-91.625772
 21
127.78522
  0
LINE
  8
0
  6
CONTINUOUS
 62
     7
 10
-92.722748
 20
145.68521
 11
-92.722748
 21
129.68521
  0
LINE
  8
0
  6
CONTINUOUS
 62
     7
 10
-91.625763
 20
137.65964
 11
-91.625763
 21
135.8416
  0
LINE
  8
0
  6
CONTINUOUS
 62
     7
 10
-91.625763
 20
135.8416
 11
-78.819702
 21
135.8416
  0
LINE
  8
0
  6
CONTINUOUS
 62
     7
 10
-91.625763
 20
137.65964
 11
-78.819702
 21
137.65964
  0
LINE
  8
0
  6
CONTINUOUS
 62
     7
 10
-77.722733
 20
145.68521
 11
-77.722733
 21
129.68521
  0
LINE
  8
0
  6
CONTINUOUS
 62
     7
 10
-78.819702
 20
137.65964
 11
-78.819702
 21
135.8416
  0
LINE
  8
0
  6
CONTINUOUS
 62
     7
 10
-126.62574
 20
127.7852
 11
-127.72271
 21
129.68521
  0
LINE
  8
0
  6
CONTINUOUS
 62
     7
 10
-113.81967
 20
127.78522
 11
-126.62576
 21
127.78522
  0
LINE
  8
0
  6
CONTINUOUS
 62
     7
 10
-112.72273
 20
129.68523
 11
-113.81969
 21
127.78523
  0
LINE
  8
0
  6
CONTINUOUS
 62
     7
 10
-112.72272
 20
145.68521
 11
-112.72272
 21
129.68521
  0
LINE
  8
0
  6
CONTINUOUS
 62
     7
 10
-113.81967
 20
137.65964
 11
-113.81967
 21
135.8416
  0
LINE
  8
0
  6
CONTINUOUS
 62
     7
 10
-113.81967
 20
135.8416
 11
-126.62576
 21
135.8416
  0
LINE
  8
0
  6
CONTINUOUS
 62
     7
 10
-113.81967
 20
137.65964
 11
-126.62576
 21
137.65964
  0
LINE
  8
0
  6
CONTINUOUS
 62
     7
 10
-127.72272
 20
145.68521
 11
-127.72272
 21
129.68521
  0
LINE
  8
0
  6
CONTINUOUS
 62
     7
 10
-126.62576
 20
137.65964
 11
-126.62576
 21
135.8416
  0
LINE
  8
0
  6
CONTINUOUS
 62
     7
 10
-126.62577
 20
163.58523
 11
-127.72274
 21
161.68522
  0
LINE
  8
0
  6
CONTINUOUS
 62
     7
 10
-113.81967
 20
163.58521
 11
-126.62576
 21
163.58521
  0
LINE
  8
0
  6
CONTINUOUS
 62
     7
 10
-112.72272
 20
161.68519
 11
-113.81969
 21
163.58519
  0
LINE
  8
0
  6
CONTINUOUS
 62
     7
 10
-112.72272
 20
145.68521
 11
-112.72272
 21
161.68521
  0
LINE
  8
0
  6
CONTINUOUS
 62
     7
 10
-113.81967
 20
153.71078
 11
-113.81967
 21
155.52882
  0
LINE
  8
0
  6
CONTINUOUS
 62
     7
 10
-113.81967
 20
155.52882
 11
-126.62576
 21
155.52882
  0
LINE
  8
0
  6
CONTINUOUS
 62
     7
 10
-113.81967
 20
153.71078
 11
-126.62576
 21
153.71078
  0
LINE
  8
0
  6
CONTINUOUS
 62
     7
 10
-127.72272
 20
145.68521
 11
-127.72272
 21
161.68521
  0
LINE
  8
0
  6
CONTINUOUS
 62
     7
 10
-126.62576
 20
153.71078
 11
-126.62576
 21
155.52882
  0
LINE
  8
0
  6
CONTINUOUS
 62
     7
 10
-130.22272
 20
75.685226
 11
-130.22272
 21
55.185226
  0
LINE
  8
0
  6
CONTINUOUS
 62
     7
 10
-128.72162
 20
65.038162
 11
-128.72162
 21
63.255234
  0
LINE
  8
0
  6
CONTINUOUS
 62
     7
 10
-115.72383
 20
65.038162
 11
-128.72162
 21
65.038162
  0
LINE
  8
0
  6
CONTINUOUS
 62
     7
 10
-115.72383
 20
63.255234
 11
-128.72162
 21
63.255234
  0
LINE
  8
0
  6
CONTINUOUS
 62
     7
 10
-115.72383
 20
65.038162
 11
-115.72383
 21
63.255234
  0
LINE
  8
0
  6
CONTINUOUS
 62
     7
 10
-114.22272
 20
75.685226
 11
-114.22272
 21
55.185226
  0
LINE
  8
0
  6
CONTINUOUS
 62
     7
 10
-114.22271
 20
55.185226
 11
-115.72383
 21
52.58522
  0
LINE
  8
0
  6
CONTINUOUS
 62
     7
 10
-115.72383
 20
52.58522
 11
-128.72162
 21
52.58522
  0
LINE
  8
0
  6
CONTINUOUS
 62
     7
 10
-128.7216
 20
52.58522
 11
-130.22272
 21
55.185211
  0
LINE
  8
0
  6
CONTINUOUS
 62
     7
 10
-130.22272
 20
75.685226
 11
-130.22272
 21
96.185219
  0
LINE
  8
0
  6
CONTINUOUS
 62
     7
 10
-128.72162
 20
86.332291
 11
-128.72162
 21
88.115189
  0
LINE
  8
0
  6
CONTINUOUS
 62
     7
 10
-115.72383
 20
86.332291
 11
-128.72162
 21
86.332291
  0
LINE
  8
0
  6
CONTINUOUS
 62
     7
 10
-115.72383
 20
88.115189
 11
-128.72162
 21
88.115189
  0
LINE
  8
0
  6
CONTINUOUS
 62
     7
 10
-115.72383
 20
86.332291
 11
-115.72383
 21
88.115189
  0
LINE
  8
0
  6
CONTINUOUS
 62
     7
 10
-114.22272
 20
75.685226
 11
-114.22272
 21
96.185219
  0
LINE
  8
0
  6
CONTINUOUS
 62
     7
 10
-114.2227
 20
96.185211
 11
-115.72382
 21
98.785217
  0
LINE
  8
0
  6
CONTINUOUS
 62
     7
 10
-115.72383
 20
98.78521
 11
-128.72162
 21
98.78521
  0
LINE
  8
0
  6
CONTINUOUS
 62
     7
 10
-128.72161
 20
98.785217
 11
-130.22272
 21
96.185211
  0
LINE
  8
0
  6
CONTINUOUS
 62
     7
 10
-75.222717
 20
75.685226
 11
-75.222717
 21
96.185219
  0
LINE
  8
0
  6
CONTINUOUS
 62
     7
 10
-76.723816
 20
86.332291
 11
-76.723816
 21
88.115189
  0
LINE
  8
0
  6
CONTINUOUS
 62
     7
 10
-89.721603
 20
86.332291
 11
-76.723816
 21
86.332291
  0
LINE
  8
0
  6
CONTINUOUS
 62
     7
 10
-89.721603
 20
88.115189
 11
-76.723816
 21
88.115189
  0
LINE
  8
0
  6
CONTINUOUS
 62
     7
 10
-89.721603
 20
86.332291
 11
-89.721603
 21
88.115189
  0
LINE
  8
0
  6
CONTINUOUS
 62
     7
 10
-91.222717
 20
75.685226
 11
-91.222717
 21
96.185219
  0
LINE
  8
0
  6
CONTINUOUS
 62
     7
 10
-91.222742
 20
96.185242
 11
-89.721628
 21
98.785248
  0
LINE
  8
0
  6
CONTINUOUS
 62
     7
 10
-89.721603
 20
98.78521
 11
-76.723816
 21
98.78521
  0
LINE
  8
0
  6
CONTINUOUS
 62
     7
 10
-76.723816
 20
98.78521
 11
-75.222702
 21
96.185204
  0
LINE
  8
0
  6
CONTINUOUS
 62
     7
 10
-75.222717
 20
75.685226
 11
-75.222717
 21
55.185226
  0
LINE
  8
0
  6
CONTINUOUS
 62
     7
 10
-76.723816
 20
65.038162
 11
-76.723816
 21
63.255234
  0
LINE
  8
0
  6
CONTINUOUS
 62
     7
 10
-89.721603
 20
65.038162
 11
-76.723816
 21
65.038162
  0
LINE
  8
0
  6
CONTINUOUS
 62
     7
 10
-89.721603
 20
63.255234
 11
-76.723816
 21
63.255234
  0
LINE
  8
0
  6
CONTINUOUS
 62
     7
 10
-89.721603
 20
65.038162
 11
-89.721603
 21
63.255234
  0
LINE
  8
0
  6
CONTINUOUS
 62
     7
 10
-91.222717
 20
75.685226
 11
-91.222717
 21
55.185226
  0
LINE
  8
0
  6
CONTINUOUS
 62
     7
 10
-91.222709
 20
55.185181
 11
-89.721595
 21
52.58519
  0
LINE
  8
0
  6
CONTINUOUS
 62
     7
 10
-89.721603
 20
52.58522
 11
-76.723816
 21
52.58522
  0
LINE
  8
0
  6
CONTINUOUS
 62
     7
 10
-76.723822
 20
52.58522
 11
-75.222708
 21
55.185226
  0
ARC
  8
0
  6
CONTINUOUS
 62
     7
 10
-110.49066
 20
56.685226
 40
2
 50
90.000003
 51
150
  0
ARC
  8
0
  6
CONTINUOUS
 62
     7
 10
-94.954773
 20
56.685226
 40
2
 50
30.000001
 51
90.000003
  0
ARC
  8
0
  6
CONTINUOUS
 62
     7
 10
-110.49066
 20
94.685219
 40
2
 50
210
 51
270
  0
ARC
  8
0
  6
CONTINUOUS
 62
     7
 10
-94.954773
 20
94.685219
 40
2
 50
270
 51
330
  0
POLYLINE
  8
0
  6
CONTINUOUS
 62
     7
 66
     1
 10
0
 20
0
  0
VERTEX
  8
0
  6
CONTINUOUS
 62
     7
 10
-104.74023
 20
209.33437
 42
0.083553263
  0
VERTEX
  8
0
  6
CONTINUOUS
 62
     7
 10
-105.597
 20
207.27163
 42
0.11298451
  0
VERTEX
  8
0
  6
CONTINUOUS
 62
     7
 10
-105.597
 20
205.04623
 42
0.083552502
  0
VERTEX
  8
0
  6
CONTINUOUS
 62
     7
 10
-104.74023
 20
202.98351
 42
0
  0
SEQEND
  8
0
  0
POLYLINE
  8
0
  6
CONTINUOUS
 62
     7
 66
     1
 10
0
 20
0
  0
VERTEX
  8
0
  6
CONTINUOUS
 62
     7
 10
-105.72272
 20
215.68521
 42
0.026226947
  0
VERTEX
  8
0
  6
CONTINUOUS
 62
     7
 10
-105.60893
 20
213.53906
 42
0.0248589
  0
VERTEX
  8
0
  6
CONTINUOUS
 62
     7
 10
-105.27707
 20
211.41557
 42
0.023918437
  0
VERTEX
  8
0
  6
CONTINUOUS
 62
     7
 10
-104.74023
 20
209.33437
 42
0
  0
SEQEND
  8
0
  0
POLYLINE
  8
0
  6
CONTINUOUS
 62
     7
 66
     1
 10
0
 20
0
  0
VERTEX
  8
0
  6
CONTINUOUS
 62
     7
 10
-99.722717
 20
215.68521
 42
-0.026226947
  0
VERTEX
  8
0
  6
CONTINUOUS
 62
     7
 10
-99.836506
 20
213.53906
 42
-0.0248589
  0
VERTEX
  8
0
  6
CONTINUOUS
 62
     7
 10
-100.16836
 20
211.41557
 42
-0.023918437
  0
VERTEX
  8
0
  6
CONTINUOUS
 62
     7
 10
-100.7052
 20
209.33437
 42
0
  0
SEQEND
  8
0
  0
POLYLINE
  8
0
  6
CONTINUOUS
 62
     7
 66
     1
 10
0
 20
0
  0
VERTEX
  8
0
  6
CONTINUOUS
 62
     7
 10
-100.7052
 20
209.33437
 42
-0.083553263
  0
VERTEX
  8
0
  6
CONTINUOUS
 62
     7
 10
-99.848433
 20
207.27163
 42
-0.11298451
  0
VERTEX
  8
0
  6
CONTINUOUS
 62
     7
 10
-99.848437
 20
205.04623
 42
-0.083552502
  0
VERTEX
  8
0
  6
CONTINUOUS
 62
     7
 10
-100.7052
 20
202.98351
 42
0
  0
SEQEND
  8
0
  0
POLYLINE
  8
0
  6
CONTINUOUS
 62
     7
 66
     1
 10
0
 20
0
  0
VERTEX
  8
0
  6
CONTINUOUS
 62
     7
 10
-104.74023
 20
222.03606
 42
-0.083553263
  0
VERTEX
  8
0
  6
CONTINUOUS
 62
     7
 10
-105.597
 20
224.0988
 42
-0.11298451
  0
VERTEX
  8
0
  6
CONTINUOUS
 62
     7
 10
-105.597
 20
226.3242
 42
-0.083552502
  0
VERTEX
  8
0
  6
CONTINUOUS
 62
     7
 10
-104.74023
 20
228.38692
 42
0
  0
SEQEND
  8
0
  0
POLYLINE
  8
0
  6
CONTINUOUS
 62
     7
 66
     1
 10
0
 20
0
  0
VERTEX
  8
0
  6
CONTINUOUS
 62
     7
 10
-105.72272
 20
215.68521
 42
-0.026226947
  0
VERTEX
  8
0
  6
CONTINUOUS
 62
     7
 10
-105.60893
 20
217.83136
 42
-0.0248589
  0
VERTEX
  8
0
  6
CONTINUOUS
 62
     7
 10
-105.27707
 20
219.95485
 42
-0.023918437
  0
VERTEX
  8
0
  6
CONTINUOUS
 62
     7
 10
-104.74023
 20
222.03606
 42
0
  0
SEQEND
  8
0
  0
POLYLINE
  8
0
  6
CONTINUOUS
 62
     7
 66
     1
 10
0
 20
0
  0
VERTEX
  8
0
  6
CONTINUOUS
 62
     7
 10
-99.722717
 20
215.68521
 42
0.026226947
  0
VERTEX
  8
0
  6
CONTINUOUS
 62
     7
 10
-99.836506
 20
217.83136
 42
0.0248589
  0
VERTEX
  8
0
  6
CONTINUOUS
 62
     7
 10
-100.16836
 20
219.95485
 42
0.023918437
  0
VERTEX
  8
0
  6
CONTINUOUS
 62
     7
 10
-100.7052
 20
222.03606
 42
0
  0
SEQEND
  8
0
  0
POLYLINE
  8
0
  6
CONTINUOUS
 62
     7
 66
     1
 10
0
 20
0
  0
VERTEX
  8
0
  6
CONTINUOUS
 62
     7
 10
-100.7052
 20
222.03606
 42
0.083553263
  0
VERTEX
  8
0
  6
CONTINUOUS
 62
     7
 10
-99.848433
 20
224.0988
 42
0.11298451
  0
VERTEX
  8
0
  6
CONTINUOUS
 62
     7
 10
-99.848437
 20
226.3242
 42
0.083552502
  0
VERTEX
  8
0
  6
CONTINUOUS
 62
     7
 10
-100.7052
 20
228.38692
 42
0
  0
SEQEND
  8
0
  0
POLYLINE
  8
0
  6
CONTINUOUS
 62
     7
 66
     1
 10
0
 20
0
  0
VERTEX
  8
0
  6
CONTINUOUS
 62
     7
 10
-104.88297
 20
137.02496
 42
0.083553144
  0
VERTEX
  8
0
  6
CONTINUOUS
 62
     7
 10
-106.05129
 20
134.21214
 42
0.11298475
  0
VERTEX
  8
0
  6
CONTINUOUS
 62
     7
 10
-106.05128
 20
131.17751
 42
0.083552429
  0
VERTEX
  8
0
  6
CONTINUOUS
 62
     7
 10
-104.88297
 20
128.3647
 42
0
  0
SEQEND
  8
0
  0
POLYLINE
  8
0
  6
CONTINUOUS
 62
     7
 66
     1
 10
0
 20
0
  0
VERTEX
  8
0
  6
CONTINUOUS
 62
     7
 10
-106.22272
 20
145.68521
 42
0.026227037
  0
VERTEX
  8
0
  6
CONTINUOUS
 62
     7
 10
-106.06755
 20
142.75864
 42
0.024858878
  0
VERTEX
  8
0
  6
CONTINUOUS
 62
     7
 10
-105.61502
 20
139.86297
 42
0.023918472
  0
VERTEX
  8
0
  6
CONTINUOUS
 62
     7
 10
-104.88297
 20
137.02496
 42
0
  0
SEQEND
  8
0
  0
POLYLINE
  8
0
  6
CONTINUOUS
 62
     7
 66
     1
 10
0
 20
0
  0
VERTEX
  8
0
  6
CONTINUOUS
 62
     7
 10
-99.222717
 20
145.68521
 42
-0.026225878
  0
VERTEX
  8
0
  6
CONTINUOUS
 62
     7
 10
-99.377876
 20
142.75864
 42
-0.0248589
  0
VERTEX
  8
0
  6
CONTINUOUS
 62
     7
 10
-99.830395
 20
139.86297
 42
-0.023919611
  0
VERTEX
  8
0
  6
CONTINUOUS
 62
     7
 10
-100.56244
 20
137.02496
 42
0
  0
SEQEND
  8
0
  0
POLYLINE
  8
0
  6
CONTINUOUS
 62
     7
 66
     1
 10
0
 20
0
  0
VERTEX
  8
0
  6
CONTINUOUS
 62
     7
 10
-100.56244
 20
137.02496
 42
-0.083555473
  0
VERTEX
  8
0
  6
CONTINUOUS
 62
     7
 10
-99.394139
 20
134.21214
 42
-0.11297938
  0
VERTEX
  8
0
  6
CONTINUOUS
 62
     7
 10
-99.394145
 20
131.17751
 42
-0.083554758
  0
VERTEX
  8
0
  6
CONTINUOUS
 62
     7
 10
-100.56244
 20
128.3647
 42
0
  0
SEQEND
  8
0
  0
POLYLINE
  8
0
  6
CONTINUOUS
 62
     7
 66
     1
 10
0
 20
0
  0
VERTEX
  8
0
  6
CONTINUOUS
 62
     7
 10
-104.88297
 20
154.34546
 42
-0.083553144
  0
VERTEX
  8
0
  6
CONTINUOUS
 62
     7
 10
-106.05129
 20
157.15828
 42
-0.11298475
  0
VERTEX
  8
0
  6
CONTINUOUS
 62
     7
 10
-106.05128
 20
160.19291
 42
-0.083552429
  0
VERTEX
  8
0
  6
CONTINUOUS
 62
     7
 10
-104.88297
 20
163.00572
 42
0
  0
SEQEND
  8
0
  0
POLYLINE
  8
0
  6
CONTINUOUS
 62
     7
 66
     1
 10
0
 20
0
  0
VERTEX
  8
0
  6
CONTINUOUS
 62
     7
 10
-106.22272
 20
145.68521
 42
-0.026227037
  0
VERTEX
  8
0
  6
CONTINUOUS
 62
     7
 10
-106.06755
 20
148.61178
 42
-0.024858878
  0
VERTEX
  8
0
  6
CONTINUOUS
 62
     7
 10
-105.61502
 20
151.50745
 42
-0.023918472
  0
VERTEX
  8
0
  6
CONTINUOUS
 62
     7
 10
-104.88297
 20
154.34546
 42
0
  0
SEQEND
  8
0
  0
POLYLINE
  8
0
  6
CONTINUOUS
 62
     7
 66
     1
 10
0
 20
0
  0
VERTEX
  8
0
  6
CONTINUOUS
 62
     7
 10
-99.222717
 20
145.68521
 42
0.026225878
  0
VERTEX
  8
0
  6
CONTINUOUS
 62
     7
 10
-99.377876
 20
148.61178
 42
0.0248589
  0
VERTEX
  8
0
  6
CONTINUOUS
 62
     7
 10
-99.830395
 20
151.50745
 42
0.023919611
  0
VERTEX
  8
0
  6
CONTINUOUS
 62
     7
 10
-100.56244
 20
154.34546
 42
0
  0
SEQEND
  8
0
  0
POLYLINE
  8
0
  6
CONTINUOUS
 62
     7
 66
     1
 10
0
 20
0
  0
VERTEX
  8
0
  6
CONTINUOUS
 62
     7
 10
-100.56244
 20
154.34546
 42
0.083555473
  0
VERTEX
  8
0
  6
CONTINUOUS
 62
     7
 10
-99.394139
 20
157.15829
 42
0.11297938
  0
VERTEX
  8
0
  6
CONTINUOUS
 62
     7
 10
-99.394145
 20
160.19291
 42
0.083554758
  0
VERTEX
  8
0
  6
CONTINUOUS
 62
     7
 10
-100.56244
 20
163.00572
 42
0
  0
SEQEND
  8
0
  0
POLYLINE
  8
0
  6
CONTINUOUS
 62
     7
 66
     1
 10
0
 20
0
  0
VERTEX
  8
0
  6
CONTINUOUS
 62
     7
 10
-105.11502
 20
65.292915
 42
0.083553383
  0
VERTEX
  8
0
  6
CONTINUOUS
 62
     7
 10
-106.517
 20
61.917529
 42
0.1129842
  0
VERTEX
  8
0
  6
CONTINUOUS
 62
     7
 10
-106.51699
 20
58.27597
 42
0.083552622
  0
VERTEX
  8
0
  6
CONTINUOUS
 62
     7
 10
-105.11502
 20
54.900612
 42
0
  0
SEQEND
  8
0
  0
POLYLINE
  8
0
  6
CONTINUOUS
 62
     7
 66
     1
 10
0
 20
0
  0
VERTEX
  8
0
  6
CONTINUOUS
 62
     7
 10
-106.72272
 20
75.685219
 42
0.026226826
  0
VERTEX
  8
0
  6
CONTINUOUS
 62
     7
 10
-106.53652
 20
72.173335
 42
0.024858854
  0
VERTEX
  8
0
  6
CONTINUOUS
 62
     7
 10
-105.99348
 20
68.698529
 42
0.0239187
  0
VERTEX
  8
0
  6
CONTINUOUS
 62
     7
 10
-105.11502
 20
65.292915
 42
0
  0
SEQEND
  8
0
  0
POLYLINE
  8
0
  6
CONTINUOUS
 62
     7
 66
     1
 10
0
 20
0
  0
VERTEX
  8
0
  6
CONTINUOUS
 62
     7
 10
-98.722717
 20
75.685219
 42
-0.026226826
  0
VERTEX
  8
0
  6
CONTINUOUS
 62
     7
 10
-98.908916
 20
72.173335
 42
-0.024858854
  0
VERTEX
  8
0
  6
CONTINUOUS
 62
     7
 10
-99.451953
 20
68.698529
 42
-0.0239187
  0
VERTEX
  8
0
  6
CONTINUOUS
 62
     7
 10
-100.33041
 20
65.292915
 42
0
  0
SEQEND
  8
0
  0
POLYLINE
  8
0
  6
CONTINUOUS
 62
     7
 66
     1
 10
0
 20
0
  0
VERTEX
  8
0
  6
CONTINUOUS
 62
     7
 10
-100.33041
 20
65.292915
 42
-0.083553383
  0
VERTEX
  8
0
  6
CONTINUOUS
 62
     7
 10
-98.928433
 20
61.917529
 42
-0.1129842
  0
VERTEX
  8
0
  6
CONTINUOUS
 62
     7
 10
-98.92844
 20
58.27597
 42
-0.083552622
  0
VERTEX
  8
0
  6
CONTINUOUS
 62
     7
 10
-100.33041
 20
54.900612
 42
0
  0
SEQEND
  8
0
  0
POLYLINE
  8
0
  6
CONTINUOUS
 62
     7
 66
     1
 10
0
 20
0
  0
VERTEX
  8
0
  6
CONTINUOUS
 62
     7
 10
-105.11502
 20
86.077522
 42
-0.083553383
  0
VERTEX
  8
0
  6
CONTINUOUS
 62
     7
 10
-106.517
 20
89.452909
 42
-0.1129842
  0
VERTEX
  8
0
  6
CONTINUOUS
 62
     7
 10
-106.51699
 20
93.094468
 42
-0.083552622
  0
VERTEX
  8
0
  6
CONTINUOUS
 62
     7
 10
-105.11502
 20
96.469826
 42
0
  0
SEQEND
  8
0
  0
POLYLINE
  8
0
  6
CONTINUOUS
 62
     7
 66
     1
 10
0
 20
0
  0
VERTEX
  8
0
  6
CONTINUOUS
 62
     7
 10
-106.72272
 20
75.685219
 42
-0.026226826
  0
VERTEX
  8
0
  6
CONTINUOUS
 62
     7
 10
-106.53652
 20
79.197103
 42
-0.024858854
  0
VERTEX
  8
0
  6
CONTINUOUS
 62
     7
 10
-105.99348
 20
82.671909
 42
-0.0239187
  0
VERTEX
  8
0
  6
CONTINUOUS
 62
     7
 10
-105.11502
 20
86.077522
 42
0
  0
SEQEND
  8
0
  0
POLYLINE
  8
0
  6
CONTINUOUS
 62
     7
 66
     1
 10
0
 20
0
  0
VERTEX
  8
0
  6
CONTINUOUS
 62
     7
 10
-98.722717
 20
75.685219
 42
0.026226826
  0
VERTEX
  8
0
  6
CONTINUOUS
 62
     7
 10
-98.908916
 20
79.197103
 42
0.024858854
  0
VERTEX
  8
0
  6
CONTINUOUS
 62
     7
 10
-99.451953
 20
82.671909
 42
0.0239187
  0
VERTEX
  8
0
  6
CONTINUOUS
 62
     7
 10
-100.33041
 20
86.077522
 42
0
  0
SEQEND
  8
0
  0
POLYLINE
  8
0
  6
CONTINUOUS
 62
     7
 66
     1
 10
0
 20
0
  0
VERTEX
  8
0
  6
CONTINUOUS
 62
     7
 10
-100.33041
 20
86.077522
 42
0.083553383
  0
VERTEX
  8
0
  6
CONTINUOUS
 62
     7
 10
-98.928433
 20
89.452909
 42
0.1129842
  0
VERTEX
  8
0
  6
CONTINUOUS
 62
     7
 10
-98.92844
 20
93.094468
 42
0.083552622
  0
VERTEX
  8
0
  6
CONTINUOUS
 62
     7
 10
-100.33041
 20
96.469826
 42
0
  0
SEQEND
  8
0
  0
POLYLINE
  8
0
  6
CONTINUOUS
 62
     7
 66
     1
 10
0
 20
0
  0
VERTEX
  8
0
  6
CONTINUOUS
 62
     7
 10
-79.473267
 20
223.21002
 42
0.050243496
  0
VERTEX
  8
0
  6
CONTINUOUS
 62
     7
 10
-79.064921
 20
225.12072
 42
0.054947182
  0
VERTEX
  8
0
  6
CONTINUOUS
 62
     7
 10
-79.065195
 20
227.07512
 42
0.050155644
  0
VERTEX
  8
0
  6
CONTINUOUS
 62
     7
 10
-79.473267
 20
228.98521
 42
0
  0
SEQEND
  8
0
  0
POLYLINE
  8
0
  6
CONTINUOUS
 62
     7
 66
     1
 10
0
 20
0
  0
VERTEX
  8
0
  6
CONTINUOUS
 62
     7
 10
-79.473267
 20
221.4202
 42
-0.013138069
  0
VERTEX
  8
0
  6
CONTINUOUS
 62
     7
 10
-79.217987
 20
219.5188
 42
-0.013285875
  0
VERTEX
  8
0
  6
CONTINUOUS
 62
     7
 10
-79.063398
 20
217.60573
 42
-0.013500074
  0
VERTEX
  8
0
  6
CONTINUOUS
 62
     7
 10
-79.011383
 20
215.68521
 42
0
  0
SEQEND
  8
0
  0
POLYLINE
  8
0
  6
CONTINUOUS
 62
     7
 66
     1
 10
0
 20
0
  0
VERTEX
  8
0
  6
CONTINUOUS
 62
     7
 10
-92.972168
 20
221.4202
 42
0.013138069
  0
VERTEX
  8
0
  6
CONTINUOUS
 62
     7
 10
-93.227448
 20
219.5188
 42
0.013285875
  0
VERTEX
  8
0
  6
CONTINUOUS
 62
     7
 10
-93.382037
 20
217.60573
 42
0.013500074
  0
VERTEX
  8
0
  6
CONTINUOUS
 62
     7
 10
-93.434052
 20
215.68521
 42
0
  0
SEQEND
  8
0
  0
POLYLINE
  8
0
  6
CONTINUOUS
 62
     7
 66
     1
 10
0
 20
0
  0
VERTEX
  8
0
  6
CONTINUOUS
 62
     7
 10
-92.972168
 20
223.21002
 42
-0.050243496
  0
VERTEX
  8
0
  6
CONTINUOUS
 62
     7
 10
-93.380514
 20
225.12072
 42
-0.054947182
  0
VERTEX
  8
0
  6
CONTINUOUS
 62
     7
 10
-93.380239
 20
227.07512
 42
-0.050155644
  0
VERTEX
  8
0
  6
CONTINUOUS
 62
     7
 10
-92.972168
 20
228.98521
 42
0
  0
SEQEND
  8
0
  0
POLYLINE
  8
0
  6
CONTINUOUS
 62
     7
 66
     1
 10
0
 20
0
  0
VERTEX
  8
0
  6
CONTINUOUS
 62
     7
 10
-79.473267
 20
208.1604
 42
-0.050243496
  0
VERTEX
  8
0
  6
CONTINUOUS
 62
     7
 10
-79.064921
 20
206.24971
 42
-0.054947182
  0
VERTEX
  8
0
  6
CONTINUOUS
 62
     7
 10
-79.065195
 20
204.2953
 42
-0.050155644
  0
VERTEX
  8
0
  6
CONTINUOUS
 62
     7
 10
-79.473267
 20
202.38521
 42
0
  0
SEQEND
  8
0
  0
POLYLINE
  8
0
  6
CONTINUOUS
 62
     7
 66
     1
 10
0
 20
0
  0
VERTEX
  8
0
  6
CONTINUOUS
 62
     7
 10
-79.473267
 20
209.95023
 42
0.013138069
  0
VERTEX
  8
0
  6
CONTINUOUS
 62
     7
 10
-79.217987
 20
211.85162
 42
0.013285875
  0
VERTEX
  8
0
  6
CONTINUOUS
 62
     7
 10
-79.063398
 20
213.76469
 42
0.013500074
  0
VERTEX
  8
0
  6
CONTINUOUS
 62
     7
 10
-79.011383
 20
215.68521
 42
0
  0
SEQEND
  8
0
  0
POLYLINE
  8
0
  6
CONTINUOUS
 62
     7
 66
     1
 10
0
 20
0
  0
VERTEX
  8
0
  6
CONTINUOUS
 62
     7
 10
-92.972168
 20
209.95023
 42
-0.013138069
  0
VERTEX
  8
0
  6
CONTINUOUS
 62
     7
 10
-93.227448
 20
211.85162
 42
-0.013285875
  0
VERTEX
  8
0
  6
CONTINUOUS
 62
     7
 10
-93.382037
 20
213.76469
 42
-0.013500074
  0
VERTEX
  8
0
  6
CONTINUOUS
 62
     7
 10
-93.434052
 20
215.68521
 42
0
  0
SEQEND
  8
0
  0
POLYLINE
  8
0
  6
CONTINUOUS
 62
     7
 66
     1
 10
0
 20
0
  0
VERTEX
  8
0
  6
CONTINUOUS
 62
     7
 10
-92.972168
 20
208.1604
 42
0.050247002
  0
VERTEX
  8
0
  6
CONTINUOUS
 62
     7
 10
-93.380491
 20
206.24971
 42
0.054939068
  0
VERTEX
  8
0
  6
CONTINUOUS
 62
     7
 10
-93.380217
 20
204.2953
 42
0.050159166
  0
VERTEX
  8
0
  6
CONTINUOUS
 62
     7
 10
-92.972168
 20
202.38521
 42
0
  0
SEQEND
  8
0
  0
POLYLINE
  8
0
  6
CONTINUOUS
 62
     7
 66
     1
 10
0
 20
0
  0
VERTEX
  8
0
  6
CONTINUOUS
 62
     7
 10
-125.97217
 20
208.1604
 42
0.050243496
  0
VERTEX
  8
0
  6
CONTINUOUS
 62
     7
 10
-126.38051
 20
206.24971
 42
0.054947182
  0
VERTEX
  8
0
  6
CONTINUOUS
 62
     7
 10
-126.38024
 20
204.2953
 42
0.050155644
  0
VERTEX
  8
0
  6
CONTINUOUS
 62
     7
 10
-125.97217
 20
202.38521
 42
0
  0
SEQEND
  8
0
  0
POLYLINE
  8
0
  6
CONTINUOUS
 62
     7
 66
     1
 10
0
 20
0
  0
VERTEX
  8
0
  6
CONTINUOUS
 62
     7
 10
-125.97217
 20
209.95023
 42
-0.013138069
  0
VERTEX
  8
0
  6
CONTINUOUS
 62
     7
 10
-126.22745
 20
211.85162
 42
-0.013285875
  0
VERTEX
  8
0
  6
CONTINUOUS
 62
     7
 10
-126.38204
 20
213.76469
 42
-0.013500074
  0
VERTEX
  8
0
  6
CONTINUOUS
 62
     7
 10
-126.43405
 20
215.68521
 42
0
  0
SEQEND
  8
0
  0
POLYLINE
  8
0
  6
CONTINUOUS
 62
     7
 66
     1
 10
0
 20
0
  0
VERTEX
  8
0
  6
CONTINUOUS
 62
     7
 10
-112.47327
 20
209.95023
 42
0.013138069
  0
VERTEX
  8
0
  6
CONTINUOUS
 62
     7
 10
-112.21799
 20
211.85162
 42
0.013285875
  0
VERTEX
  8
0
  6
CONTINUOUS
 62
     7
 10
-112.0634
 20
213.76469
 42
0.013500074
  0
VERTEX
  8
0
  6
CONTINUOUS
 62
     7
 10
-112.01138
 20
215.68521
 42
0
  0
SEQEND
  8
0
  0
POLYLINE
  8
0
  6
CONTINUOUS
 62
     7
 66
     1
 10
0
 20
0
  0
VERTEX
  8
0
  6
CONTINUOUS
 62
     7
 10
-112.47327
 20
208.1604
 42
-0.050243496
  0
VERTEX
  8
0
  6
CONTINUOUS
 62
     7
 10
-112.06492
 20
206.24971
 42
-0.054947182
  0
VERTEX
  8
0
  6
CONTINUOUS
 62
     7
 10
-112.0652
 20
204.2953
 42
-0.050155644
  0
VERTEX
  8
0
  6
CONTINUOUS
 62
     7
 10
-112.47327
 20
202.38521
 42
0
  0
SEQEND
  8
0
  0
POLYLINE
  8
0
  6
CONTINUOUS
 62
     7
 66
     1
 10
0
 20
0
  0
VERTEX
  8
0
  6
CONTINUOUS
 62
     7
 10
-125.97217
 20
223.21002
 42
-0.050243496
  0
VERTEX
  8
0
  6
CONTINUOUS
 62
     7
 10
-126.38051
 20
225.12072
 42
-0.054947182
  0
VERTEX
  8
0
  6
CONTINUOUS
 62
     7
 10
-126.38024
 20
227.07512
 42
-0.050155644
  0
VERTEX
  8
0
  6
CONTINUOUS
 62
     7
 10
-125.97217
 20
228.98521
 42
0
  0
SEQEND
  8
0
  0
POLYLINE
  8
0
  6
CONTINUOUS
 62
     7
 66
     1
 10
0
 20
0
  0
VERTEX
  8
0
  6
CONTINUOUS
 62
     7
 10
-125.97217
 20
221.4202
 42
0.013138069
  0
VERTEX
  8
0
  6
CONTINUOUS
 62
     7
 10
-126.22745
 20
219.5188
 42
0.013285875
  0
VERTEX
  8
0
  6
CONTINUOUS
 62
     7
 10
-126.38204
 20
217.60573
 42
0.013500074
  0
VERTEX
  8
0
  6
CONTINUOUS
 62
     7
 10
-126.43405
 20
215.68521
 42
0
  0
SEQEND
  8
0
  0
POLYLINE
  8
0
  6
CONTINUOUS
 62
     7
 66
     1
 10
0
 20
0
  0
VERTEX
  8
0
  6
CONTINUOUS
 62
     7
 10
-112.47327
 20
221.4202
 42
-0.013138069
  0
VERTEX
  8
0
  6
CONTINUOUS
 62
     7
 10
-112.21799
 20
219.5188
 42
-0.013285875
  0
VERTEX
  8
0
  6
CONTINUOUS
 62
     7
 10
-112.0634
 20
217.60573
 42
-0.013500074
  0
VERTEX
  8
0
  6
CONTINUOUS
 62
     7
 10
-112.01138
 20
215.68521
 42
0
  0
SEQEND
  8
0
  0
POLYLINE
  8
0
  6
CONTINUOUS
 62
     7
 66
     1
 10
0
 20
0
  0
VERTEX
  8
0
  6
CONTINUOUS
 62
     7
 10
-112.47327
 20
223.21002
 42
0.050243496
  0
VERTEX
  8
0
  6
CONTINUOUS
 62
     7
 10
-112.06492
 20
225.12072
 42
0.054947182
  0
VERTEX
  8
0
  6
CONTINUOUS
 62
     7
 10
-112.0652
 20
227.07512
 42
0.050155644
  0
VERTEX
  8
0
  6
CONTINUOUS
 62
     7
 10
-112.47327
 20
228.98521
 42
0
  0
SEQEND
  8
0
  0
POLYLINE
  8
0
  6
CONTINUOUS
 62
     7
 66
     1
 10
0
 20
0
  0
VERTEX
  8
0
  6
CONTINUOUS
 62
     7
 10
-92.434052
 20
145.68521
 42
-0.016924364
  0
VERTEX
  8
0
  6
CONTINUOUS
 62
     7
 10
-92.342466
 20
148.37809
 42
-0.01653495
  0
VERTEX
  8
0
  6
CONTINUOUS
 62
     7
 10
-92.071111
 20
151.05877
 42
-0.016230051
  0
VERTEX
  8
0
  6
CONTINUOUS
 62
     7
 10
-91.625763
 20
153.71078
 42
0
  0
SEQEND
  8
0
  0
POLYLINE
  8
0
  6
CONTINUOUS
 62
     7
 66
     1
 10
0
 20
0
  0
VERTEX
  8
0
  6
CONTINUOUS
 62
     7
 10
-78.819702
 20
163.58521
 42
-0.060911984
  0
VERTEX
  8
0
  6
CONTINUOUS
 62
     7
 10
-78.107548
 20
160.93008
 42
-0.069925443
  0
VERTEX
  8
0
  6
CONTINUOUS
 62
     7
 10
-78.107323
 20
158.1834
 42
-0.060971265
  0
VERTEX
  8
0
  6
CONTINUOUS
 62
     7
 10
-78.819702
 20
155.52882
 42
0
  0
SEQEND
  8
0
  0
POLYLINE
  8
0
  6
CONTINUOUS
 62
     7
 66
     1
 10
0
 20
0
  0
VERTEX
  8
0
  6
CONTINUOUS
 62
     7
 10
-91.625763
 20
155.52882
 42
-0.060980192
  0
VERTEX
  8
0
  6
CONTINUOUS
 62
     7
 10
-92.338199
 20
158.18382
 42
-0.069926221
  0
VERTEX
  8
0
  6
CONTINUOUS
 62
     7
 10
-92.337858
 20
160.9305
 42
-0.060900827
  0
VERTEX
  8
0
  6
CONTINUOUS
 62
     7
 10
-91.625763
 20
163.58521
 42
0
  0
SEQEND
  8
0
  0
POLYLINE
  8
0
  6
CONTINUOUS
 62
     7
 66
     1
 10
0
 20
0
  0
VERTEX
  8
0
  6
CONTINUOUS
 62
     7
 10
-78.819702
 20
153.71078
 42
-0.01624566
  0
VERTEX
  8
0
  6
CONTINUOUS
 62
     7
 10
-78.374003
 20
151.05621
 42
-0.016520531
  0
VERTEX
  8
0
  6
CONTINUOUS
 62
     7
 10
-78.102974
 20
148.3779
 42
-0.016923645
  0
VERTEX
  8
0
  6
CONTINUOUS
 62
     7
 10
-78.011398
 20
145.68521
 42
0
  0
SEQEND
  8
0
  0
POLYLINE
  8
0
  6
CONTINUOUS
 62
     7
 66
     1
 10
0
 20
0
  0
VERTEX
  8
0
  6
CONTINUOUS
 62
     7
 10
-92.434052
 20
145.68521
 42
0.016924364
  0
VERTEX
  8
0
  6
CONTINUOUS
 62
     7
 10
-92.342466
 20
142.99233
 42
0.01653495
  0
VERTEX
  8
0
  6
CONTINUOUS
 62
     7
 10
-92.071111
 20
140.31165
 42
0.016230051
  0
VERTEX
  8
0
  6
CONTINUOUS
 62
     7
 10
-91.625763
 20
137.65964
 42
0
  0
SEQEND
  8
0
  0
POLYLINE
  8
0
  6
CONTINUOUS
 62
     7
 66
     1
 10
0
 20
0
  0
VERTEX
  8
0
  6
CONTINUOUS
 62
     7
 10
-78.819702
 20
127.78522
 42
0.060910746
  0
VERTEX
  8
0
  6
CONTINUOUS
 62
     7
 10
-78.107536
 20
130.44035
 42
0.069928389
  0
VERTEX
  8
0
  6
CONTINUOUS
 62
     7
 10
-78.107312
 20
133.18703
 42
0.060969948
  0
VERTEX
  8
0
  6
CONTINUOUS
 62
     7
 10
-78.819702
 20
135.8416
 42
0
  0
SEQEND
  8
0
  0
POLYLINE
  8
0
  6
CONTINUOUS
 62
     7
 66
     1
 10
0
 20
0
  0
VERTEX
  8
0
  6
CONTINUOUS
 62
     7
 10
-91.625763
 20
135.8416
 42
0.060980133
  0
VERTEX
  8
0
  6
CONTINUOUS
 62
     7
 10
-92.338199
 20
133.18661
 42
0.069926261
  0
VERTEX
  8
0
  6
CONTINUOUS
 62
     7
 10
-92.337858
 20
130.43993
 42
0.060900858
  0
VERTEX
  8
0
  6
CONTINUOUS
 62
     7
 10
-91.625763
 20
127.78522
 42
0
  0
SEQEND
  8
0
  0
POLYLINE
  8
0
  6
CONTINUOUS
 62
     7
 66
     1
 10
0
 20
0
  0
VERTEX
  8
0
  6
CONTINUOUS
 62
     7
 10
-78.819702
 20
137.65964
 42
0.01624566
  0
VERTEX
  8
0
  6
CONTINUOUS
 62
     7
 10
-78.374003
 20
140.31421
 42
0.016520531
  0
VERTEX
  8
0
  6
CONTINUOUS
 62
     7
 10
-78.102974
 20
142.99252
 42
0.016923645
  0
VERTEX
  8
0
  6
CONTINUOUS
 62
     7
 10
-78.011398
 20
145.68521
 42
0
  0
SEQEND
  8
0
  0
POLYLINE
  8
0
  6
CONTINUOUS
 62
     7
 66
     1
 10
0
 20
0
  0
VERTEX
  8
0
  6
CONTINUOUS
 62
     7
 10
-113.01138
 20
145.68521
 42
-0.016924364
  0
VERTEX
  8
0
  6
CONTINUOUS
 62
     7
 10
-113.10297
 20
142.99233
 42
-0.01653495
  0
VERTEX
  8
0
  6
CONTINUOUS
 62
     7
 10
-113.37432
 20
140.31165
 42
-0.016230051
  0
VERTEX
  8
0
  6
CONTINUOUS
 62
     7
 10
-113.81967
 20
137.65964
 42
0
  0
SEQEND
  8
0
  0
POLYLINE
  8
0
  6
CONTINUOUS
 62
     7
 66
     1
 10
0
 20
0
  0
VERTEX
  8
0
  6
CONTINUOUS
 62
     7
 10
-126.62576
 20
127.78522
 42
-0.060911996
  0
VERTEX
  8
0
  6
CONTINUOUS
 62
     7
 10
-127.33792
 20
130.44035
 42
-0.069925481
  0
VERTEX
  8
0
  6
CONTINUOUS
 62
     7
 10
-127.33814
 20
133.18702
 42
-0.060971227
  0
VERTEX
  8
0
  6
CONTINUOUS
 62
     7
 10
-126.62576
 20
135.8416
 42
0
  0
SEQEND
  8
0
  0
POLYLINE
  8
0
  6
CONTINUOUS
 62
     7
 66
     1
 10
0
 20
0
  0
VERTEX
  8
0
  6
CONTINUOUS
 62
     7
 10
-113.81967
 20
135.8416
 42
-0.060980133
  0
VERTEX
  8
0
  6
CONTINUOUS
 62
     7
 10
-113.10724
 20
133.18661
 42
-0.069926261
  0
VERTEX
  8
0
  6
CONTINUOUS
 62
     7
 10
-113.10758
 20
130.43993
 42
-0.060900858
  0
VERTEX
  8
0
  6
CONTINUOUS
 62
     7
 10
-113.81967
 20
127.78522
 42
0
  0
SEQEND
  8
0
  0
POLYLINE
  8
0
  6
CONTINUOUS
 62
     7
 66
     1
 10
0
 20
0
  0
VERTEX
  8
0
  6
CONTINUOUS
 62
     7
 10
-126.62576
 20
137.65964
 42
-0.016246285
  0
VERTEX
  8
0
  6
CONTINUOUS
 62
     7
 10
-127.07146
 20
140.31421
 42
-0.016520534
  0
VERTEX
  8
0
  6
CONTINUOUS
 62
     7
 10
-127.34248
 20
142.99252
 42
-0.016923018
  0
VERTEX
  8
0
  6
CONTINUOUS
 62
     7
 10
-127.43405
 20
145.68521
 42
0
  0
SEQEND
  8
0
  0
POLYLINE
  8
0
  6
CONTINUOUS
 62
     7
 66
     1
 10
0
 20
0
  0
VERTEX
  8
0
  6
CONTINUOUS
 62
     7
 10
-113.01138
 20
145.68521
 42
0.016924364
  0
VERTEX
  8
0
  6
CONTINUOUS
 62
     7
 10
-113.10297
 20
148.37809
 42
0.01653495
  0
VERTEX
  8
0
  6
CONTINUOUS
 62
     7
 10
-113.37432
 20
151.05877
 42
0.016230051
  0
VERTEX
  8
0
  6
CONTINUOUS
 62
     7
 10
-113.81967
 20
153.71078
 42
0
  0
SEQEND
  8
0
  0
POLYLINE
  8
0
  6
CONTINUOUS
 62
     7
 66
     1
 10
0
 20
0
  0
VERTEX
  8
0
  6
CONTINUOUS
 62
     7
 10
-126.62576
 20
163.58521
 42
0.060911984
  0
VERTEX
  8
0
  6
CONTINUOUS
 62
     7
 10
-127.33792
 20
160.93008
 42
0.069925443
  0
VERTEX
  8
0
  6
CONTINUOUS
 62
     7
 10
-127.33814
 20
158.1834
 42
0.060971265
  0
VERTEX
  8
0
  6
CONTINUOUS
 62
     7
 10
-126.62576
 20
155.52882
 42
0
  0
SEQEND
  8
0
  0
POLYLINE
  8
0
  6
CONTINUOUS
 62
     7
 66
     1
 10
0
 20
0
  0
VERTEX
  8
0
  6
CONTINUOUS
 62
     7
 10
-113.81967
 20
155.52882
 42
0.060980192
  0
VERTEX
  8
0
  6
CONTINUOUS
 62
     7
 10
-113.10724
 20
158.18382
 42
0.069926221
  0
VERTEX
  8
0
  6
CONTINUOUS
 62
     7
 10
-113.10758
 20
160.9305
 42
0.060900827
  0
VERTEX
  8
0
  6
CONTINUOUS
 62
     7
 10
-113.81967
 20
163.58521
 42
0
  0
SEQEND
  8
0
  0
POLYLINE
  8
0
  6
CONTINUOUS
 62
     7
 66
     1
 10
0
 20
0
  0
VERTEX
  8
0
  6
CONTINUOUS
 62
     7
 10
-126.62576
 20
153.71078
 42
0.016246285
  0
VERTEX
  8
0
  6
CONTINUOUS
 62
     7
 10
-127.07146
 20
151.05621
 42
0.016520534
  0
VERTEX
  8
0
  6
CONTINUOUS
 62
     7
 10
-127.34248
 20
148.3779
 42
0.016923018
  0
VERTEX
  8
0
  6
CONTINUOUS
 62
     7
 10
-127.43405
 20
145.68521
 42
0
  0
SEQEND
  8
0
  0
POLYLINE
  8
0
  6
CONTINUOUS
 62
     7
 66
     1
 10
0
 20
0
  0
VERTEX
  8
0
  6
CONTINUOUS
 62
     7
 10
-129.93404
 20
75.685219
 42
0.01916166
  0
VERTEX
  8
0
  6
CONTINUOUS
 62
     7
 10
-129.79617
 20
72.109339
 42
0.018603478
  0
VERTEX
  8
0
  6
CONTINUOUS
 62
     7
 10
-129.38903
 20
68.553988
 42
0.018212825
  0
VERTEX
  8
0
  6
CONTINUOUS
 62
     7
 10
-128.72162
 20
65.038155
 42
0
  0
SEQEND
  8
0
  0
POLYLINE
  8
0
  6
CONTINUOUS
 62
     7
 66
     1
 10
0
 20
0
  0
VERTEX
  8
0
  6
CONTINUOUS
 62
     7
 10
-128.72162
 20
63.255241
 42
0.06733835
  0
VERTEX
  8
0
  6
CONTINUOUS
 62
     7
 10
-129.78772
 20
59.749996
 42
0.080048299
  0
VERTEX
  8
0
  6
CONTINUOUS
 62
     7
 10
-129.78743
 20
56.090585
 42
0.067284259
  0
VERTEX
  8
0
  6
CONTINUOUS
 62
     7
 10
-128.72162
 20
52.585228
 42
0
  0
SEQEND
  8
0
  0
POLYLINE
  8
0
  6
CONTINUOUS
 62
     7
 66
     1
 10
0
 20
0
  0
VERTEX
  8
0
  6
CONTINUOUS
 62
     7
 10
-115.72383
 20
63.255241
 42
-0.06733981
  0
VERTEX
  8
0
  6
CONTINUOUS
 62
     7
 10
-114.65771
 20
59.749997
 42
-0.080048861
  0
VERTEX
  8
0
  6
CONTINUOUS
 62
     7
 10
-114.65801
 20
56.090584
 42
-0.067285709
  0
VERTEX
  8
0
  6
CONTINUOUS
 62
     7
 10
-115.72383
 20
52.585228
 42
0
  0
SEQEND
  8
0
  0
POLYLINE
  8
0
  6
CONTINUOUS
 62
     7
 66
     1
 10
0
 20
0
  0
VERTEX
  8
0
  6
CONTINUOUS
 62
     7
 10
-114.5114
 20
75.685219
 42
-0.019161791
  0
VERTEX
  8
0
  6
CONTINUOUS
 62
     7
 10
-114.64927
 20
72.109338
 42
-0.018603818
  0
VERTEX
  8
0
  6
CONTINUOUS
 62
     7
 10
-115.05641
 20
68.553987
 42
-0.018213376
  0
VERTEX
  8
0
  6
CONTINUOUS
 62
     7
 10
-115.72383
 20
65.038155
 42
0
  0
SEQEND
  8
0
  0
POLYLINE
  8
0
  6
CONTINUOUS
 62
     7
 66
     1
 10
0
 20
0
  0
VERTEX
  8
0
  6
CONTINUOUS
 62
     7
 10
-129.93404
 20
75.685219
 42
-0.01916166
  0
VERTEX
  8
0
  6
CONTINUOUS
 62
     7
 10
-129.79617
 20
79.261098
 42
-0.018603478
  0
VERTEX
  8
0
  6
CONTINUOUS
 62
     7
 10
-129.38903
 20
82.81645
 42
-0.018212825
  0
VERTEX
  8
0
  6
CONTINUOUS
 62
     7
 10
-128.72162
 20
86.332283
 42
0
  0
SEQEND
  8
0
  0
POLYLINE
  8
0
  6
CONTINUOUS
 62
     7
 66
     1
 10
0
 20
0
  0
VERTEX
  8
0
  6
CONTINUOUS
 62
     7
 10
-128.72162
 20
88.115196
 42
-0.06733835
  0
VERTEX
  8
0
  6
CONTINUOUS
 62
     7
 10
-129.78772
 20
91.620442
 42
-0.080048299
  0
VERTEX
  8
0
  6
CONTINUOUS
 62
     7
 10
-129.78743
 20
95.279853
 42
-0.067284259
  0
VERTEX
  8
0
  6
CONTINUOUS
 62
     7
 10
-128.72162
 20
98.78521
 42
0
  0
SEQEND
  8
0
  0
POLYLINE
  8
0
  6
CONTINUOUS
 62
     7
 66
     1
 10
0
 20
0
  0
VERTEX
  8
0
  6
CONTINUOUS
 62
     7
 10
-115.72383
 20
88.115196
 42
0.06733981
  0
VERTEX
  8
0
  6
CONTINUOUS
 62
     7
 10
-114.65771
 20
91.62044
 42
0.080048861
  0
VERTEX
  8
0
  6
CONTINUOUS
 62
     7
 10
-114.65801
 20
95.279854
 42
0.067285709
  0
VERTEX
  8
0
  6
CONTINUOUS
 62
     7
 10
-115.72383
 20
98.78521
 42
0
  0
SEQEND
  8
0
  0
POLYLINE
  8
0
  6
CONTINUOUS
 62
     7
 66
     1
 10
0
 20
0
  0
VERTEX
  8
0
  6
CONTINUOUS
 62
     7
 10
-114.5114
 20
75.685219
 42
0.019161791
  0
VERTEX
  8
0
  6
CONTINUOUS
 62
     7
 10
-114.64927
 20
79.261099
 42
0.018603818
  0
VERTEX
  8
0
  6
CONTINUOUS
 62
     7
 10
-115.05641
 20
82.816451
 42
0.018213376
  0
VERTEX
  8
0
  6
CONTINUOUS
 62
     7
 10
-115.72383
 20
86.332283
 42
0
  0
SEQEND
  8
0
  0
POLYLINE
  8
0
  6
CONTINUOUS
 62
     7
 66
     1
 10
0
 20
0
  0
VERTEX
  8
0
  6
CONTINUOUS
 62
     7
 10
-75.511398
 20
75.685219
 42
0.01916166
  0
VERTEX
  8
0
  6
CONTINUOUS
 62
     7
 10
-75.649266
 20
79.261098
 42
0.018603478
  0
VERTEX
  8
0
  6
CONTINUOUS
 62
     7
 10
-76.056406
 20
82.81645
 42
0.018212825
  0
VERTEX
  8
0
  6
CONTINUOUS
 62
     7
 10
-76.723816
 20
86.332283
 42
0
  0
SEQEND
  8
0
  0
POLYLINE
  8
0
  6
CONTINUOUS
 62
     7
 66
     1
 10
0
 20
0
  0
VERTEX
  8
0
  6
CONTINUOUS
 62
     7
 10
-76.723816
 20
88.115196
 42
0.06733835
  0
VERTEX
  8
0
  6
CONTINUOUS
 62
     7
 10
-75.65771
 20
91.620442
 42
0.080048299
  0
VERTEX
  8
0
  6
CONTINUOUS
 62
     7
 10
-75.658008
 20
95.279853
 42
0.067284259
  0
VERTEX
  8
0
  6
CONTINUOUS
 62
     7
 10
-76.723816
 20
98.78521
 42
0
  0
SEQEND
  8
0
  0
POLYLINE
  8
0
  6
CONTINUOUS
 62
     7
 66
     1
 10
0
 20
0
  0
VERTEX
  8
0
  6
CONTINUOUS
 62
     7
 10
-89.721603
 20
88.115196
 42
-0.067338857
  0
VERTEX
  8
0
  6
CONTINUOUS
 62
     7
 10
-90.787735
 20
91.620439
 42
-0.080051052
  0
VERTEX
  8
0
  6
CONTINUOUS
 62
     7
 10
-90.787437
 20
95.279855
 42
-0.067284757
  0
VERTEX
  8
0
  6
CONTINUOUS
 62
     7
 10
-89.721603
 20
98.78521
 42
0
  0
SEQEND
  8
0
  0
POLYLINE
  8
0
  6
CONTINUOUS
 62
     7
 66
     1
 10
0
 20
0
  0
VERTEX
  8
0
  6
CONTINUOUS
 62
     7
 10
-90.934036
 20
75.685219
 42
-0.019161791
  0
VERTEX
  8
0
  6
CONTINUOUS
 62
     7
 10
-90.796168
 20
79.261099
 42
-0.018603818
  0
VERTEX
  8
0
  6
CONTINUOUS
 62
     7
 10
-90.389024
 20
82.816451
 42
-0.018213376
  0
VERTEX
  8
0
  6
CONTINUOUS
 62
     7
 10
-89.721603
 20
86.332283
 42
0
  0
SEQEND
  8
0
  0
POLYLINE
  8
0
  6
CONTINUOUS
 62
     7
 66
     1
 10
0
 20
0
  0
VERTEX
  8
0
  6
CONTINUOUS
 62
     7
 10
-75.511398
 20
75.685219
 42
-0.01916166
  0
VERTEX
  8
0
  6
CONTINUOUS
 62
     7
 10
-75.649266
 20
72.109339
 42
-0.018603478
  0
VERTEX
  8
0
  6
CONTINUOUS
 62
     7
 10
-76.056406
 20
68.553988
 42
-0.018212825
  0
VERTEX
  8
0
  6
CONTINUOUS
 62
     7
 10
-76.723816
 20
65.038155
 42
0
  0
SEQEND
  8
0
  0
POLYLINE
  8
0
  6
CONTINUOUS
 62
     7
 66
     1
 10
0
 20
0
  0
VERTEX
  8
0
  6
CONTINUOUS
 62
     7
 10
-76.723816
 20
63.255241
 42
-0.06733835
  0
VERTEX
  8
0
  6
CONTINUOUS
 62
     7
 10
-75.65771
 20
59.749996
 42
-0.080048299
  0
VERTEX
  8
0
  6
CONTINUOUS
 62
     7
 10
-75.658008
 20
56.090585
 42
-0.067284259
  0
VERTEX
  8
0
  6
CONTINUOUS
 62
     7
 10
-76.723816
 20
52.585228
 42
0
  0
SEQEND
  8
0
  0
POLYLINE
  8
0
  6
CONTINUOUS
 62
     7
 66
     1
 10
0
 20
0
  0
VERTEX
  8
0
  6
CONTINUOUS
 62
     7
 10
-89.721603
 20
63.255241
 42
0.06733981
  0
VERTEX
  8
0
  6
CONTINUOUS
 62
     7
 10
-90.787723
 20
59.749997
 42
0.080048861
  0
VERTEX
  8
0
  6
CONTINUOUS
 62
     7
 10
-90.787426
 20
56.090584
 42
0.067285709
  0
VERTEX
  8
0
  6
CONTINUOUS
 62
     7
 10
-89.721603
 20
52.585228
 42
0
  0
SEQEND
  8
0
  0
POLYLINE
  8
0
  6
CONTINUOUS
 62
     7
 66
     1
 10
0
 20
0
  0
VERTEX
  8
0
  6
CONTINUOUS
 62
     7
 10
-90.934036
 20
75.685219
 42
0.019161791
  0
VERTEX
  8
0
  6
CONTINUOUS
 62
     7
 10
-90.796168
 20
72.109338
 42
0.018603818
  0
VERTEX
  8
0
  6
CONTINUOUS
 62
     7
 10
-90.389024
 20
68.553987
 42
0.018213376
  0
VERTEX
  8
0
  6
CONTINUOUS
 62
     7
 10
-89.721603
 20
65.038155
 42
0
  0
SEQEND
  8
0
  0
TEXT
  8
0
  6
CONTINUOUS
 62
     7
 10
-176.10388
 20
271.3978
 40
5
 41
0.84447575
  1
ＭＲ－Ｊ　　ソケット
  0
TEXT
  8
0
  6
CONTINUOUS
 62
     7
 10
-106.88929
 20
232.8
 40
4.8000002
 41
1.0285716
  1
13
  0
TEXT
  8
0
  6
CONTINUOUS
 62
     7
 10
-107.23929
 20
168.05
 40
4.8000002
 41
1.0285716
  1
20
  0
TEXT
  8
0
  6
CONTINUOUS
 62
     7
 10
-107.23929
 20
102.25
 40
4.8000002
 41
1.0285716
  1
25
  0
LINE
  8
1
  6
CONTINUOUS
 62
     7
 10
-210
 20
0
 11
0
 21
0
  0
LINE
  8
1
  6
CONTINUOUS
 62
     7
 10
-210
 20
297
 11
0
 21
297
  0
LINE
  8
1
  6
CONTINUOUS
 62
     7
 10
0
 20
297
 11
0
 21
0
  0
LINE
  8
1
  6
CONTINUOUS
 62
     7
 10
-210
 20
297
 11
-210
 21
0
  0
ENDSEC
  0
EOF
