  0
SECTION
  2
HEADER
  9
$EXTMAX
 10
0
 20
297
  9
$EXTMIN
 10
-420
 20
0
  0
ENDSEC
  0
SECTION
  2
TABLES
  0
TABLE
  2
LTYPE
 70
    22
  0
LTYPE
  2
CONTINUOUS
 70
    64
  3
Solid line
 72
    65
 73
     0
 40
0.000000
  0
LTYPE
  2
DASHED
 70
    64
  3
__ __ __ __ __ __ __ __ __ __ __ __ __ __ __
 72
    65
 73
     2
 40
3.500000
 49
2.000000
 49
-1.500000
  0
LTYPE
  2
CENTER
 70
    64
  3
____ _ ____ _ ____ _ ____ _ ____ _ ____ _ ____
 72
    65
 73
     4
 40
17.500000
 49
13.000000
 49
-1.500000
 49
1.500000
 49
-1.500000
  0
LTYPE
  2
PHANTOM
 70
    64
  3
_____ _ _ _____ _ _ _____ _ _ _____ _ _ ____  
 72
    65
 73
     6
 40
15.500000
 49
8.000000
 49
-1.500000
 49
1.500000
 49
-1.500000
 49
1.500000
 49
-1.500000
  0
LTYPE
  2
DOT
 70
    64
  3
. . . . . . . . . . . . . . . . . . . . . . . .
 72
    65
 73
     2
 40
0.25
 49
0.0
 49
-0.25
  0
ENDTAB
  0
TABLE
  2
LAYER
 70
     2
  0
LAYER
  2
0
 70
     0
 62
     7
  6
CONTINUOUS
  0
LAYER
  2
1
 70
     0
 62
     7
  6
CONTINUOUS
  0
ENDTAB
  0
TABLE
  2
STYLE
 70
     1
  0
STYLE
  2
STANDARD
 70
     0
 40
0.000000
 41
1.000000
 50
0.000000
 71
     0
 42
0.200000
  3
txt
  4
BIGFONT
  0
ENDTAB
  0
TABLE
  2
VIEW
 70
     0
  0
ENDTAB
  0
ENDSEC
  0
SECTION
  2
BLOCKS
  0
ENDSEC
  0
SECTION
  2
ENTITIES
  0
POINT
  8
0
  6
CONTINUOUS
 62
     7
 10
-285.45737
 20
213.92979
  0
POINT
  8
0
  6
CONTINUOUS
 62
     7
 10
-285.45737
 20
133.92979
  0
POINT
  8
0
  6
CONTINUOUS
 62
     7
 10
-285.45737
 20
43.929794
  0
POINT
  8
0
  6
CONTINUOUS
 62
     7
 10
-92.679291
 20
185.23938
  0
POINT
  8
0
  6
CONTINUOUS
 62
     7
 10
-92.679291
 20
85.23938
  0
POINT
  8
0
  6
CONTINUOUS
 62
     7
 10
-92.679291
 20
185.23938
  0
POINT
  8
0
  6
CONTINUOUS
 62
     7
 10
-285.45737
 20
43.929794
  0
POINT
  8
0
  6
CONTINUOUS
 62
     7
 10
-285.45737
 20
213.92979
  0
LINE
  8
0
  6
CONTINUOUS
 62
     7
 10
-366.16858
 20
275.29315
 11
-364.16858
 21
275.29315
  0
LINE
  8
0
  6
CONTINUOUS
 62
     7
 10
-366.16858
 20
280.15808
 11
-364.16858
 21
280.15808
  0
LINE
  8
0
  6
CONTINUOUS
 62
     7
 10
-364.66858
 20
280.15808
 11
-364.66858
 21
275.29315
  0
LINE
  8
0
  6
CONTINUOUS
 62
     7
 10
-365.66858
 20
280.15808
 11
-365.66858
 21
275.29315
  0
LINE
  8
0
  6
CONTINUOUS
 62
     7
 10
-303.35736
 20
83.832809
 11
-301.45735
 21
84.929779
  0
LINE
  8
0
  6
CONTINUOUS
 62
     7
 10
-303.35736
 20
71.026749
 11
-303.35736
 21
83.832825
  0
LINE
  8
0
  6
CONTINUOUS
 62
     7
 10
-301.45734
 20
69.929779
 11
-303.35735
 21
71.026749
  0
LINE
  8
0
  6
CONTINUOUS
 62
     7
 10
-285.45737
 20
69.929794
 11
-301.45737
 21
69.929794
  0
LINE
  8
0
  6
CONTINUOUS
 62
     7
 10
-293.48294
 20
71.026749
 11
-295.30096
 21
71.026749
  0
LINE
  8
0
  6
CONTINUOUS
 62
     7
 10
-295.30096
 20
71.026749
 11
-295.30096
 21
83.832825
  0
LINE
  8
0
  6
CONTINUOUS
 62
     7
 10
-293.48294
 20
71.026749
 11
-293.48294
 21
83.832825
  0
LINE
  8
0
  6
CONTINUOUS
 62
     7
 10
-285.45737
 20
84.929794
 11
-301.45737
 21
84.929794
  0
LINE
  8
0
  6
CONTINUOUS
 62
     7
 10
-293.48294
 20
83.832825
 11
-295.30096
 21
83.832825
  0
LINE
  8
0
  6
CONTINUOUS
 62
     7
 10
-267.55734
 20
83.832825
 11
-269.45735
 21
84.929794
  0
LINE
  8
0
  6
CONTINUOUS
 62
     7
 10
-267.55737
 20
71.026749
 11
-267.55737
 21
83.832825
  0
LINE
  8
0
  6
CONTINUOUS
 62
     7
 10
-269.45735
 20
69.929794
 11
-267.55736
 21
71.026764
  0
LINE
  8
0
  6
CONTINUOUS
 62
     7
 10
-285.45737
 20
69.929794
 11
-269.45737
 21
69.929794
  0
LINE
  8
0
  6
CONTINUOUS
 62
     7
 10
-277.43179
 20
71.026749
 11
-275.61374
 21
71.026749
  0
LINE
  8
0
  6
CONTINUOUS
 62
     7
 10
-275.61374
 20
71.026749
 11
-275.61374
 21
83.832825
  0
LINE
  8
0
  6
CONTINUOUS
 62
     7
 10
-277.43179
 20
71.026749
 11
-277.43179
 21
83.832825
  0
LINE
  8
0
  6
CONTINUOUS
 62
     7
 10
-285.45737
 20
84.929794
 11
-269.45737
 21
84.929794
  0
LINE
  8
0
  6
CONTINUOUS
 62
     7
 10
-277.43179
 20
83.832825
 11
-275.61374
 21
83.832825
  0
LINE
  8
0
  6
CONTINUOUS
 62
     7
 10
-98.414276
 20
222.48883
 11
-100.2041
 21
222.48883
  0
LINE
  8
0
  6
CONTINUOUS
 62
     7
 10
-98.414276
 20
222.48883
 11
-98.414276
 21
208.98994
  0
LINE
  8
0
  6
CONTINUOUS
 62
     7
 10
-100.2041
 20
222.48883
 11
-100.2041
 21
208.98994
  0
LINE
  8
0
  6
CONTINUOUS
 62
     7
 10
-98.414276
 20
208.98994
 11
-100.2041
 21
208.98994
  0
LINE
  8
0
  6
CONTINUOUS
 62
     7
 10
-92.679291
 20
208.2394
 11
-104.67929
 21
208.2394
  0
LINE
  8
0
  6
CONTINUOUS
 62
     7
 10
-105.97925
 20
208.98993
 11
-104.67926
 21
208.23938
  0
LINE
  8
0
  6
CONTINUOUS
 62
     7
 10
-105.97928
 20
222.48883
 11
-105.97928
 21
208.98994
  0
LINE
  8
0
  6
CONTINUOUS
 62
     7
 10
-104.67924
 20
223.23939
 11
-105.97926
 21
222.48883
  0
LINE
  8
0
  6
CONTINUOUS
 62
     7
 10
-92.679291
 20
223.23938
 11
-104.67929
 21
223.23938
  0
LINE
  8
0
  6
CONTINUOUS
 62
     7
 10
-86.944305
 20
222.48883
 11
-85.15448
 21
222.48883
  0
LINE
  8
0
  6
CONTINUOUS
 62
     7
 10
-86.944305
 20
222.48883
 11
-86.944305
 21
208.98994
  0
LINE
  8
0
  6
CONTINUOUS
 62
     7
 10
-85.15448
 20
222.48883
 11
-85.15448
 21
208.98994
  0
LINE
  8
0
  6
CONTINUOUS
 62
     7
 10
-86.944305
 20
208.98994
 11
-85.15448
 21
208.98994
  0
LINE
  8
0
  6
CONTINUOUS
 62
     7
 10
-92.679291
 20
208.2394
 11
-80.679291
 21
208.2394
  0
LINE
  8
0
  6
CONTINUOUS
 62
     7
 10
-79.379288
 20
208.98994
 11
-80.679291
 21
208.23938
  0
LINE
  8
0
  6
CONTINUOUS
 62
     7
 10
-79.379272
 20
222.48883
 11
-79.379272
 21
208.98994
  0
LINE
  8
0
  6
CONTINUOUS
 62
     7
 10
-80.679291
 20
223.23938
 11
-79.379288
 21
222.48883
  0
LINE
  8
0
  6
CONTINUOUS
 62
     7
 10
-92.679291
 20
223.23938
 11
-80.679291
 21
223.23938
  0
LINE
  8
0
  6
CENTER
 62
     7
 10
-326.80237
 20
213.92979
 11
-245.10788
 21
213.92979
  0
LINE
  8
0
  6
CONTINUOUS
 62
     7
 10
-285.45737
 20
200.37979
 11
-292.9375
 21
200.37979
  0
LINE
  8
0
  6
CONTINUOUS
 62
     7
 10
-294.45737
 20
199.67979
 11
-302.61792
 21
199.67979
  0
LINE
  8
0
  6
CONTINUOUS
 62
     7
 10
-302.61792
 20
199.67979
 11
-303.05093
 21
199.92979
  0
LINE
  8
0
  6
CONTINUOUS
 62
     7
 10
-303.05093
 20
199.92979
 11
-304.45735
 21
200.74179
  0
LINE
  8
0
  6
CONTINUOUS
 62
     7
 10
-303.05093
 20
199.92979
 11
-306.45737
 21
199.92979
  0
LINE
  8
0
  6
CONTINUOUS
 62
     7
 10
-304.45737
 20
200.74179
 11
-306.45737
 21
200.74179
  0
LINE
  8
0
  6
CONTINUOUS
 62
     7
 10
-303.05093
 20
227.92979
 11
-306.45737
 21
227.92979
  0
LINE
  8
0
  6
CONTINUOUS
 62
     7
 10
-304.45737
 20
227.1178
 11
-306.45737
 21
227.1178
  0
LINE
  8
0
  6
CONTINUOUS
 62
     7
 10
-304.45737
 20
227.92979
 11
-304.45737
 21
199.92979
  0
LINE
  8
0
  6
CONTINUOUS
 62
     7
 10
-303.05096
 20
227.92981
 11
-304.45738
 21
227.11781
  0
LINE
  8
0
  6
CONTINUOUS
 62
     7
 10
-302.61795
 20
228.17981
 11
-303.05096
 21
227.92981
  0
LINE
  8
0
  6
CONTINUOUS
 62
     7
 10
-298.20737
 20
228.17979
 11
-302.61792
 21
228.17979
  0
LINE
  8
0
  6
CONTINUOUS
 62
     7
 10
-294.45737
 20
222.92979
 11
-294.45737
 21
199.67979
  0
LINE
  8
0
  6
CONTINUOUS
 62
     7
 10
-291.45737
 20
225.92979
 11
-285.45737
 21
225.92979
  0
LINE
  8
0
  6
CONTINUOUS
 62
     7
 10
-296.20737
 20
233.09036
 11
-296.20737
 21
230.17979
  0
LINE
  8
0
  6
CONTINUOUS
 62
     7
 10
-295.95737
 20
236.92981
 11
-295.95737
 21
233.52336
  0
LINE
  8
0
  6
CONTINUOUS
 62
     7
 10
-295.14536
 20
236.92981
 11
-295.14536
 21
234.92979
  0
LINE
  8
0
  6
CONTINUOUS
 62
     7
 10
-295.95737
 20
234.92979
 11
-285.45737
 21
234.92979
  0
LINE
  8
0
  6
CONTINUOUS
 62
     7
 10
-295.14533
 20
234.92977
 11
-295.95733
 21
233.52334
  0
LINE
  8
0
  6
CENTER
 62
     7
 10
-285.45737
 20
256.29135
 11
-285.45737
 21
195.37979
  0
LINE
  8
0
  6
CONTINUOUS
 62
     7
 10
-295.95733
 20
233.52334
 11
-296.20733
 21
233.09033
  0
LINE
  8
0
  6
CONTINUOUS
 62
     7
 10
-285.45737
 20
200.37979
 11
-277.97723
 21
200.37979
  0
LINE
  8
0
  6
CONTINUOUS
 62
     7
 10
-276.45734
 20
199.67979
 11
-268.29678
 21
199.67979
  0
LINE
  8
0
  6
CONTINUOUS
 62
     7
 10
-268.2968
 20
199.67979
 11
-267.86379
 21
199.92979
  0
LINE
  8
0
  6
CONTINUOUS
 62
     7
 10
-267.86379
 20
199.92979
 11
-266.45737
 21
200.74179
  0
LINE
  8
0
  6
CONTINUOUS
 62
     7
 10
-267.86377
 20
199.92979
 11
-264.4574
 21
199.92979
  0
LINE
  8
0
  6
CONTINUOUS
 62
     7
 10
-266.45734
 20
200.74179
 11
-264.4574
 21
200.74179
  0
LINE
  8
0
  6
CONTINUOUS
 62
     7
 10
-267.86377
 20
227.92979
 11
-264.4574
 21
227.92979
  0
LINE
  8
0
  6
CONTINUOUS
 62
     7
 10
-266.45734
 20
227.1178
 11
-264.4574
 21
227.1178
  0
LINE
  8
0
  6
CONTINUOUS
 62
     7
 10
-266.45734
 20
227.92979
 11
-266.45734
 21
199.92979
  0
LINE
  8
0
  6
CONTINUOUS
 62
     7
 10
-267.86378
 20
227.92981
 11
-266.45736
 21
227.11781
  0
LINE
  8
0
  6
CONTINUOUS
 62
     7
 10
-268.29679
 20
228.17981
 11
-267.86378
 21
227.92981
  0
LINE
  8
0
  6
CONTINUOUS
 62
     7
 10
-272.70737
 20
228.17979
 11
-268.29678
 21
228.17979
  0
LINE
  8
0
  6
CONTINUOUS
 62
     7
 10
-276.45734
 20
222.92979
 11
-276.45734
 21
199.67979
  0
LINE
  8
0
  6
CONTINUOUS
 62
     7
 10
-279.45734
 20
225.92979
 11
-285.45737
 21
225.92979
  0
LINE
  8
0
  6
CONTINUOUS
 62
     7
 10
-274.70737
 20
233.09036
 11
-274.70737
 21
230.17979
  0
LINE
  8
0
  6
CONTINUOUS
 62
     7
 10
-274.95737
 20
236.92981
 11
-274.95737
 21
233.52336
  0
LINE
  8
0
  6
CONTINUOUS
 62
     7
 10
-275.76938
 20
236.92981
 11
-275.76938
 21
234.92979
  0
LINE
  8
0
  6
CONTINUOUS
 62
     7
 10
-274.95737
 20
234.92979
 11
-285.45737
 21
234.92979
  0
LINE
  8
0
  6
CONTINUOUS
 62
     7
 10
-275.76939
 20
234.92977
 11
-274.9574
 21
233.52335
  0
LINE
  8
0
  6
CONTINUOUS
 62
     7
 10
-274.9574
 20
233.52335
 11
-274.7074
 21
233.09034
  0
LINE
  8
0
  6
CENTER
 62
     7
 10
-328.89157
 20
133.92979
 11
-241.77299
 21
133.92979
  0
LINE
  8
0
  6
CONTINUOUS
 62
     7
 10
-303.72531
 20
150.92979
 11
-298.20737
 21
150.92979
  0
LINE
  8
0
  6
CONTINUOUS
 62
     7
 10
-303.72531
 20
116.92979
 11
-294.45737
 21
116.92979
  0
LINE
  8
0
  6
CONTINUOUS
 62
     7
 10
-308.45737
 20
151.92979
 11
-305.45737
 21
151.92979
  0
LINE
  8
0
  6
CONTINUOUS
 62
     7
 10
-308.45737
 20
115.92979
 11
-305.45737
 21
115.92979
  0
LINE
  8
0
  6
CONTINUOUS
 62
     7
 10
-308.45737
 20
116.74178
 11
-304.5719
 21
116.74178
  0
LINE
  8
0
  6
CONTINUOUS
 62
     7
 10
-308.45737
 20
151.1178
 11
-304.5719
 21
151.1178
  0
LINE
  8
0
  6
CENTER
 62
     7
 10
-285.45737
 20
176.75104
 11
-285.45737
 21
112.42979
  0
LINE
  8
0
  6
CONTINUOUS
 62
     7
 10
-294.45737
 20
144.92979
 11
-294.45737
 21
117.71178
  0
LINE
  8
0
  6
CONTINUOUS
 62
     7
 10
-293.13449
 20
117.42979
 11
-277.78024
 21
117.42979
  0
LINE
  8
0
  6
CONTINUOUS
 62
     7
 10
-296.20737
 20
155.09036
 11
-296.20737
 21
152.92979
  0
LINE
  8
0
  6
CONTINUOUS
 62
     7
 10
-295.95737
 20
157.92981
 11
-295.95737
 21
155.52336
  0
LINE
  8
0
  6
CONTINUOUS
 62
     7
 10
-295.14536
 20
157.92981
 11
-295.14536
 21
156.92979
  0
LINE
  8
0
  6
CONTINUOUS
 62
     7
 10
-295.95737
 20
156.92979
 11
-285.45737
 21
156.92979
  0
LINE
  8
0
  6
CONTINUOUS
 62
     7
 10
-295.14533
 20
156.92977
 11
-295.95733
 21
155.52334
  0
LINE
  8
0
  6
CONTINUOUS
 62
     7
 10
-295.95733
 20
155.52334
 11
-296.20733
 21
155.09033
  0
LINE
  8
0
  6
CONTINUOUS
 62
     7
 10
-305.45737
 20
151.92979
 11
-305.45737
 21
115.92979
  0
LINE
  8
0
  6
CONTINUOUS
 62
     7
 10
-291.45737
 20
147.92979
 11
-285.45737
 21
147.92979
  0
LINE
  8
0
  6
CONTINUOUS
 62
     7
 10
-267.18942
 20
150.92979
 11
-272.70737
 21
150.92979
  0
LINE
  8
0
  6
CONTINUOUS
 62
     7
 10
-267.18942
 20
116.92979
 11
-276.45737
 21
116.92979
  0
LINE
  8
0
  6
CONTINUOUS
 62
     7
 10
-262.45737
 20
151.92979
 11
-265.45737
 21
151.92979
  0
LINE
  8
0
  6
CONTINUOUS
 62
     7
 10
-262.45737
 20
115.92979
 11
-265.45737
 21
115.92979
  0
LINE
  8
0
  6
CONTINUOUS
 62
     7
 10
-262.45737
 20
116.74178
 11
-266.34283
 21
116.74178
  0
LINE
  8
0
  6
CONTINUOUS
 62
     7
 10
-262.45737
 20
151.1178
 11
-266.34283
 21
151.1178
  0
LINE
  8
0
  6
CONTINUOUS
 62
     7
 10
-276.45737
 20
144.92979
 11
-276.45737
 21
117.71178
  0
LINE
  8
0
  6
CONTINUOUS
 62
     7
 10
-277.78024
 20
117.42979
 11
-293.13449
 21
117.42979
  0
LINE
  8
0
  6
CONTINUOUS
 62
     7
 10
-274.70737
 20
155.09036
 11
-274.70737
 21
152.92979
  0
LINE
  8
0
  6
CONTINUOUS
 62
     7
 10
-274.95737
 20
157.92981
 11
-274.95737
 21
155.52336
  0
LINE
  8
0
  6
CONTINUOUS
 62
     7
 10
-275.76938
 20
157.92981
 11
-275.76938
 21
156.92979
  0
LINE
  8
0
  6
CONTINUOUS
 62
     7
 10
-274.95737
 20
156.92979
 11
-285.45737
 21
156.92979
  0
LINE
  8
0
  6
CONTINUOUS
 62
     7
 10
-275.76939
 20
156.92976
 11
-274.95739
 21
155.52334
  0
LINE
  8
0
  6
CONTINUOUS
 62
     7
 10
-274.95739
 20
155.52334
 11
-274.70739
 21
155.09033
  0
LINE
  8
0
  6
CONTINUOUS
 62
     7
 10
-265.45737
 20
151.92979
 11
-265.45737
 21
115.92979
  0
LINE
  8
0
  6
CONTINUOUS
 62
     7
 10
-279.45737
 20
147.92979
 11
-285.45737
 21
147.92979
  0
LINE
  8
0
  6
CENTER
 62
     7
 10
-331.30029
 20
43.929794
 11
-238.1356
 21
43.929794
  0
LINE
  8
0
  6
CONTINUOUS
 62
     7
 10
-306.72531
 20
60.929794
 11
-301.70734
 21
60.929794
  0
LINE
  8
0
  6
CONTINUOUS
 62
     7
 10
-306.72531
 20
26.929794
 11
-297.45737
 21
26.929794
  0
LINE
  8
0
  6
CONTINUOUS
 62
     7
 10
-308.45734
 20
61.929794
 11
-308.45734
 21
25.929794
  0
LINE
  8
0
  6
CONTINUOUS
 62
     7
 10
-311.45737
 20
61.929794
 11
-308.45734
 21
61.929794
  0
LINE
  8
0
  6
CONTINUOUS
 62
     7
 10
-311.45737
 20
25.929794
 11
-308.45734
 21
25.929794
  0
LINE
  8
0
  6
CONTINUOUS
 62
     7
 10
-311.45737
 20
26.741776
 11
-307.57187
 21
26.741776
  0
LINE
  8
0
  6
CONTINUOUS
 62
     7
 10
-311.45737
 20
61.117798
 11
-307.57187
 21
61.117798
  0
LINE
  8
0
  6
CONTINUOUS
 62
     7
 10
-296.33932
 20
27.429794
 11
-285.15878
 21
27.429794
  0
LINE
  8
0
  6
CONTINUOUS
 62
     7
 10
-299.70737
 20
62.929794
 11
-299.70737
 21
66.090363
  0
LINE
  8
0
  6
CONTINUOUS
 62
     7
 10
-299.45737
 20
67.929794
 11
-285.45737
 21
67.929794
  0
LINE
  8
0
  6
CONTINUOUS
 62
     7
 10
-298.64536
 20
67.929794
 11
-298.64536
 21
69.929794
  0
LINE
  8
0
  6
CONTINUOUS
 62
     7
 10
-299.45737
 20
66.523376
 11
-299.45737
 21
69.929794
  0
LINE
  8
0
  6
CONTINUOUS
 62
     7
 10
-299.70733
 20
66.090347
 11
-299.45733
 21
66.523361
  0
LINE
  8
0
  6
CONTINUOUS
 62
     7
 10
-297.45737
 20
55.929794
 11
-297.45737
 21
27.600479
  0
LINE
  8
0
  6
CONTINUOUS
 62
     7
 10
-299.45733
 20
66.523361
 11
-298.64534
 21
67.929779
  0
LINE
  8
0
  6
CONTINUOUS
 62
     7
 10
-285.45737
 20
57.929794
 11
-295.45737
 21
57.929794
  0
LINE
  8
0
  6
CENTER
 62
     7
 10
-285.45737
 20
88.350693
 11
-285.45737
 21
22.429794
  0
LINE
  8
0
  6
CONTINUOUS
 62
     7
 10
-264.18939
 20
60.929794
 11
-269.20737
 21
60.929794
  0
LINE
  8
0
  6
CONTINUOUS
 62
     7
 10
-264.18939
 20
26.929794
 11
-273.45737
 21
26.929794
  0
LINE
  8
0
  6
CONTINUOUS
 62
     7
 10
-262.45737
 20
61.929794
 11
-262.45737
 21
25.929794
  0
LINE
  8
0
  6
CONTINUOUS
 62
     7
 10
-259.45737
 20
61.929794
 11
-262.45737
 21
61.929794
  0
LINE
  8
0
  6
CONTINUOUS
 62
     7
 10
-259.45737
 20
25.929794
 11
-262.45737
 21
25.929794
  0
LINE
  8
0
  6
CONTINUOUS
 62
     7
 10
-259.45737
 20
26.741776
 11
-263.34283
 21
26.741776
  0
LINE
  8
0
  6
CONTINUOUS
 62
     7
 10
-259.45737
 20
61.117798
 11
-263.34283
 21
61.117798
  0
LINE
  8
0
  6
CONTINUOUS
 62
     7
 10
-274.57538
 20
27.429794
 11
-285.75592
 21
27.429794
  0
LINE
  8
0
  6
CONTINUOUS
 62
     7
 10
-271.20737
 20
62.929794
 11
-271.20737
 21
66.090363
  0
LINE
  8
0
  6
CONTINUOUS
 62
     7
 10
-271.45737
 20
67.929794
 11
-285.45737
 21
67.929794
  0
LINE
  8
0
  6
CONTINUOUS
 62
     7
 10
-272.26935
 20
67.929794
 11
-272.26935
 21
70.242477
  0
LINE
  8
0
  6
CONTINUOUS
 62
     7
 10
-271.45737
 20
66.523376
 11
-271.45737
 21
69.929794
  0
LINE
  8
0
  6
CONTINUOUS
 62
     7
 10
-271.20736
 20
66.090347
 11
-271.45736
 21
66.523361
  0
LINE
  8
0
  6
CONTINUOUS
 62
     7
 10
-273.45737
 20
55.929794
 11
-273.45737
 21
27.600479
  0
LINE
  8
0
  6
CONTINUOUS
 62
     7
 10
-271.45736
 20
66.523361
 11
-272.26935
 21
67.929779
  0
LINE
  8
0
  6
CONTINUOUS
 62
     7
 10
-285.45737
 20
57.929794
 11
-275.45737
 21
57.929794
  0
LINE
  8
0
  6
CENTER
 62
     7
 10
-133.05107
 20
185.23938
 11
-53.837936
 21
185.23938
  0
LINE
  8
0
  6
CENTER
 62
     7
 10
-92.679291
 20
227.39192
 11
-92.679291
 21
170.25883
  0
LINE
  8
0
  6
CONTINUOUS
 62
     7
 10
-100.67929
 20
170.98938
 11
-108.83987
 21
170.98938
  0
LINE
  8
0
  6
CONTINUOUS
 62
     7
 10
-108.83989
 20
170.9894
 11
-109.27289
 21
171.2394
  0
LINE
  8
0
  6
CONTINUOUS
 62
     7
 10
-109.27289
 20
171.2394
 11
-110.67931
 21
172.05139
  0
LINE
  8
0
  6
CONTINUOUS
 62
     7
 10
-109.27289
 20
171.23938
 11
-113.67929
 21
171.23938
  0
LINE
  8
0
  6
CONTINUOUS
 62
     7
 10
-110.67929
 20
172.05138
 11
-113.67929
 21
172.05138
  0
LINE
  8
0
  6
CONTINUOUS
 62
     7
 10
-109.27289
 20
199.23938
 11
-113.67929
 21
199.23938
  0
LINE
  8
0
  6
CONTINUOUS
 62
     7
 10
-110.67929
 20
198.42738
 11
-113.67929
 21
198.42738
  0
LINE
  8
0
  6
CONTINUOUS
 62
     7
 10
-110.67929
 20
199.23938
 11
-110.67929
 21
185.23938
  0
LINE
  8
0
  6
CONTINUOUS
 62
     7
 10
-109.27289
 20
199.23939
 11
-110.67931
 21
198.42739
  0
LINE
  8
0
  6
CONTINUOUS
 62
     7
 10
-108.83987
 20
199.48939
 11
-109.27289
 21
199.23939
  0
LINE
  8
0
  6
CONTINUOUS
 62
     7
 10
-73.679291
 20
195.73938
 11
-77.085724
 21
195.73938
  0
LINE
  8
0
  6
CONTINUOUS
 62
     7
 10
-73.679291
 20
194.92737
 11
-75.679291
 21
194.92737
  0
LINE
  8
0
  6
CONTINUOUS
 62
     7
 10
-75.679291
 20
195.73938
 11
-75.679291
 21
185.23938
  0
LINE
  8
0
  6
CONTINUOUS
 62
     7
 10
-75.679306
 20
194.92735
 11
-77.085754
 21
195.73936
  0
LINE
  8
0
  6
CONTINUOUS
 62
     7
 10
-77.085754
 20
195.73936
 11
-77.518768
 21
195.98936
  0
LINE
  8
0
  6
CONTINUOUS
 62
     7
 10
-77.518738
 20
174.48938
 11
-84.679291
 21
174.48938
  0
LINE
  8
0
  6
CONTINUOUS
 62
     7
 10
-73.679291
 20
174.73938
 11
-77.085724
 21
174.73938
  0
LINE
  8
0
  6
CONTINUOUS
 62
     7
 10
-73.679291
 20
175.55139
 11
-75.679291
 21
175.55139
  0
LINE
  8
0
  6
CONTINUOUS
 62
     7
 10
-75.679291
 20
174.73938
 11
-75.679291
 21
185.23938
  0
LINE
  8
0
  6
CONTINUOUS
 62
     7
 10
-75.679306
 20
175.5514
 11
-77.085724
 21
174.7394
  0
LINE
  8
0
  6
CONTINUOUS
 62
     7
 10
-77.085724
 20
174.7394
 11
-77.518738
 21
174.4894
  0
LINE
  8
0
  6
CONTINUOUS
 62
     7
 10
-110.67929
 20
185.23938
 11
-110.67929
 21
171.23938
  0
LINE
  8
0
  6
CONTINUOUS
 62
     7
 10
-103.17929
 20
208.2394
 11
-103.17929
 21
204.83295
  0
LINE
  8
0
  6
CONTINUOUS
 62
     7
 10
-102.36728
 20
208.2394
 11
-102.36728
 21
206.23938
  0
LINE
  8
0
  6
CONTINUOUS
 62
     7
 10
-103.17929
 20
206.23938
 11
-92.679291
 21
206.23938
  0
LINE
  8
0
  6
CONTINUOUS
 62
     7
 10
-102.36725
 20
206.23936
 11
-103.17926
 21
204.83293
  0
LINE
  8
0
  6
CONTINUOUS
 62
     7
 10
-103.17926
 20
204.83293
 11
-103.42926
 21
204.39991
  0
LINE
  8
0
  6
CONTINUOUS
 62
     7
 10
-82.991302
 20
208.2394
 11
-82.991302
 21
206.23938
  0
LINE
  8
0
  6
CONTINUOUS
 62
     7
 10
-82.179291
 20
208.2394
 11
-82.179291
 21
204.83295
  0
LINE
  8
0
  6
CONTINUOUS
 62
     7
 10
-82.179291
 20
206.23938
 11
-92.679291
 21
206.23938
  0
LINE
  8
0
  6
CONTINUOUS
 62
     7
 10
-82.991302
 20
206.23939
 11
-82.179291
 21
204.83296
  0
LINE
  8
0
  6
CONTINUOUS
 62
     7
 10
-82.179291
 20
204.83296
 11
-81.929291
 21
204.39995
  0
LINE
  8
0
  6
CONTINUOUS
 62
     7
 10
-100.67929
 20
194.23938
 11
-100.67929
 21
170.98938
  0
LINE
  8
0
  6
CONTINUOUS
 62
     7
 10
-84.679291
 20
194.23938
 11
-84.679291
 21
174.48938
  0
LINE
  8
0
  6
CONTINUOUS
 62
     7
 10
-97.679291
 20
197.23938
 11
-87.679291
 21
197.23938
  0
LINE
  8
0
  6
CONTINUOUS
 62
     7
 10
-77.518738
 20
195.98938
 11
-79.929291
 21
195.98938
  0
LINE
  8
0
  6
CONTINUOUS
 62
     7
 10
-81.929291
 20
204.39995
 11
-81.929291
 21
197.98938
  0
LINE
  8
0
  6
CONTINUOUS
 62
     7
 10
-105.42929
 20
199.48938
 11
-108.83987
 21
199.48938
  0
LINE
  8
0
  6
CONTINUOUS
 62
     7
 10
-103.42929
 20
204.39995
 11
-103.42929
 21
201.48938
  0
LINE
  8
0
  6
CENTER
 62
     7
 10
-138.58443
 20
85.23938
 11
-49.254944
 21
85.23938
  0
LINE
  8
0
  6
CONTINUOUS
 62
     7
 10
-113.94727
 20
68.23938
 11
-104.67929
 21
68.23938
  0
LINE
  8
0
  6
CONTINUOUS
 62
     7
 10
-118.67929
 20
103.23938
 11
-115.67929
 21
103.23938
  0
LINE
  8
0
  6
CONTINUOUS
 62
     7
 10
-118.67929
 20
67.23938
 11
-115.67929
 21
67.23938
  0
LINE
  8
0
  6
CONTINUOUS
 62
     7
 10
-118.67929
 20
68.051376
 11
-114.79382
 21
68.051376
  0
LINE
  8
0
  6
CONTINUOUS
 62
     7
 10
-118.67929
 20
102.42738
 11
-114.86731
 21
102.42738
  0
LINE
  8
0
  6
CENTER
 62
     7
 10
-92.679291
 20
129.23143
 11
-92.679291
 21
63.73938
  0
LINE
  8
0
  6
CONTINUOUS
 62
     7
 10
-71.679291
 20
99.23938
 11
-71.679291
 21
98.427383
  0
LINE
  8
0
  6
CONTINUOUS
 62
     7
 10
-73.085693
 20
71.23938
 11
-69.679291
 21
71.23938
  0
LINE
  8
0
  6
CONTINUOUS
 62
     7
 10
-71.679291
 20
72.051376
 11
-69.679291
 21
72.051376
  0
LINE
  8
0
  6
CONTINUOUS
 62
     7
 10
-71.679291
 20
98.427383
 11
-69.679291
 21
98.427383
  0
LINE
  8
0
  6
CONTINUOUS
 62
     7
 10
-73.085693
 20
99.23938
 11
-69.679291
 21
99.23938
  0
LINE
  8
0
  6
CONTINUOUS
 62
     7
 10
-73.518723
 20
70.98938
 11
-73.085709
 21
71.23938
  0
LINE
  8
0
  6
CONTINUOUS
 62
     7
 10
-73.518738
 20
99.48938
 11
-73.085724
 21
99.23938
  0
LINE
  8
0
  6
CONTINUOUS
 62
     7
 10
-71.679291
 20
72.051376
 11
-71.679291
 21
71.23938
  0
LINE
  8
0
  6
CONTINUOUS
 62
     7
 10
-73.085724
 20
99.23938
 11
-71.679306
 21
98.427383
  0
LINE
  8
0
  6
CONTINUOUS
 62
     7
 10
-73.085709
 20
71.23938
 11
-71.679276
 21
72.051392
  0
LINE
  8
0
  6
CONTINUOUS
 62
     7
 10
-81.679291
 20
70.98938
 11
-73.518707
 21
70.98938
  0
LINE
  8
0
  6
CONTINUOUS
 62
     7
 10
-106.67929
 20
109.23938
 11
-92.679291
 21
109.23938
  0
LINE
  8
0
  6
CONTINUOUS
 62
     7
 10
-78.679291
 20
107.83296
 11
-78.679291
 21
111.23937
  0
LINE
  8
0
  6
CONTINUOUS
 62
     7
 10
-79.491272
 20
109.23938
 11
-79.491272
 21
111.23937
  0
LINE
  8
0
  6
CONTINUOUS
 62
     7
 10
-105.86731
 20
109.23938
 11
-105.86731
 21
111.23937
  0
LINE
  8
0
  6
CONTINUOUS
 62
     7
 10
-106.67929
 20
107.83296
 11
-106.67929
 21
111.23937
  0
LINE
  8
0
  6
CONTINUOUS
 62
     7
 10
-78.429291
 20
107.39996
 11
-78.679291
 21
107.83297
  0
LINE
  8
0
  6
CONTINUOUS
 62
     7
 10
-106.92931
 20
107.39996
 11
-106.67931
 21
107.83296
  0
LINE
  8
0
  6
CONTINUOUS
 62
     7
 10
-92.679291
 20
109.23938
 11
-78.679291
 21
109.23938
  0
LINE
  8
0
  6
CONTINUOUS
 62
     7
 10
-106.67931
 20
107.83296
 11
-105.86731
 21
109.23939
  0
LINE
  8
0
  6
CONTINUOUS
 62
     7
 10
-78.679291
 20
107.83297
 11
-79.491302
 21
109.2394
  0
LINE
  8
0
  6
CONTINUOUS
 62
     7
 10
-81.679291
 20
96.23938
 11
-81.679291
 21
70.98938
  0
LINE
  8
0
  6
CONTINUOUS
 62
     7
 10
-104.67929
 20
96.23938
 11
-104.67929
 21
68.23938
  0
LINE
  8
0
  6
CONTINUOUS
 62
     7
 10
-101.67929
 20
99.23938
 11
-84.679291
 21
99.23938
  0
LINE
  8
0
  6
CONTINUOUS
 62
     7
 10
-76.429291
 20
99.48938
 11
-73.518707
 21
99.48938
  0
LINE
  8
0
  6
CONTINUOUS
 62
     7
 10
-106.92929
 20
104.23938
 11
-106.92929
 21
107.39995
  0
LINE
  8
0
  6
CONTINUOUS
 62
     7
 10
-113.94724
 20
102.23938
 11
-108.92929
 21
102.23938
  0
LINE
  8
0
  6
CONTINUOUS
 62
     7
 10
-78.429291
 20
101.48938
 11
-78.429291
 21
107.39995
  0
LINE
  8
0
  6
CONTINUOUS
 62
     7
 10
-291.19235
 20
172.17924
 11
-292.98218
 21
172.17924
  0
LINE
  8
0
  6
CONTINUOUS
 62
     7
 10
-291.19235
 20
172.17924
 11
-291.19235
 21
158.68036
  0
LINE
  8
0
  6
CONTINUOUS
 62
     7
 10
-292.98218
 20
172.17924
 11
-292.98218
 21
158.68036
  0
LINE
  8
0
  6
CONTINUOUS
 62
     7
 10
-291.19235
 20
158.68036
 11
-292.98218
 21
158.68036
  0
LINE
  8
0
  6
CONTINUOUS
 62
     7
 10
-285.45737
 20
157.92981
 11
-297.45737
 21
157.92981
  0
LINE
  8
0
  6
CONTINUOUS
 62
     7
 10
-298.75732
 20
158.68033
 11
-297.45733
 21
157.92978
  0
LINE
  8
0
  6
CONTINUOUS
 62
     7
 10
-298.75735
 20
172.17924
 11
-298.75735
 21
158.68036
  0
LINE
  8
0
  6
CONTINUOUS
 62
     7
 10
-297.45733
 20
172.9298
 11
-298.75733
 21
172.17924
  0
LINE
  8
0
  6
CONTINUOUS
 62
     7
 10
-285.45737
 20
172.92979
 11
-297.45737
 21
172.92979
  0
LINE
  8
0
  6
CONTINUOUS
 62
     7
 10
-279.72238
 20
172.17924
 11
-277.93256
 21
172.17924
  0
LINE
  8
0
  6
CONTINUOUS
 62
     7
 10
-279.72238
 20
172.17924
 11
-279.72238
 21
158.68036
  0
LINE
  8
0
  6
CONTINUOUS
 62
     7
 10
-277.93256
 20
172.17924
 11
-277.93256
 21
158.68036
  0
LINE
  8
0
  6
CONTINUOUS
 62
     7
 10
-279.72238
 20
158.68036
 11
-277.93256
 21
158.68036
  0
LINE
  8
0
  6
CONTINUOUS
 62
     7
 10
-285.45737
 20
157.92981
 11
-273.45737
 21
157.92981
  0
LINE
  8
0
  6
CONTINUOUS
 62
     7
 10
-272.15737
 20
158.68036
 11
-273.45737
 21
157.92981
  0
LINE
  8
0
  6
CONTINUOUS
 62
     7
 10
-272.15735
 20
172.17924
 11
-272.15735
 21
158.68036
  0
LINE
  8
0
  6
CONTINUOUS
 62
     7
 10
-273.45737
 20
172.92979
 11
-272.15735
 21
172.17922
  0
LINE
  8
0
  6
CONTINUOUS
 62
     7
 10
-285.45737
 20
172.92979
 11
-273.45737
 21
172.92979
  0
LINE
  8
0
  6
CONTINUOUS
 62
     7
 10
-59.429825
 20
190.97437
 11
-59.429825
 21
192.76419
  0
LINE
  8
0
  6
CONTINUOUS
 62
     7
 10
-59.429825
 20
190.97437
 11
-72.928741
 21
190.97437
  0
LINE
  8
0
  6
CONTINUOUS
 62
     7
 10
-59.429825
 20
192.76419
 11
-72.928741
 21
192.76419
  0
LINE
  8
0
  6
CONTINUOUS
 62
     7
 10
-72.928741
 20
190.97437
 11
-72.928741
 21
192.76419
  0
LINE
  8
0
  6
CONTINUOUS
 62
     7
 10
-73.679291
 20
185.23938
 11
-73.679291
 21
197.23938
  0
LINE
  8
0
  6
CONTINUOUS
 62
     7
 10
-72.928741
 20
198.53937
 11
-73.679291
 21
197.23937
  0
LINE
  8
0
  6
CONTINUOUS
 62
     7
 10
-59.429825
 20
198.53938
 11
-72.928741
 21
198.53938
  0
LINE
  8
0
  6
CONTINUOUS
 62
     7
 10
-58.679276
 20
197.23936
 11
-59.42984
 21
198.53936
  0
LINE
  8
0
  6
CONTINUOUS
 62
     7
 10
-58.679276
 20
185.23938
 11
-58.679276
 21
197.23938
  0
LINE
  8
0
  6
CONTINUOUS
 62
     7
 10
-59.429825
 20
179.50439
 11
-59.429825
 21
177.71457
  0
LINE
  8
0
  6
CONTINUOUS
 62
     7
 10
-59.429825
 20
179.50439
 11
-72.928741
 21
179.50439
  0
LINE
  8
0
  6
CONTINUOUS
 62
     7
 10
-59.429825
 20
177.71457
 11
-72.928741
 21
177.71457
  0
LINE
  8
0
  6
CONTINUOUS
 62
     7
 10
-72.928741
 20
179.50439
 11
-72.928741
 21
177.71457
  0
LINE
  8
0
  6
CONTINUOUS
 62
     7
 10
-73.679291
 20
185.23938
 11
-73.679291
 21
173.23938
  0
LINE
  8
0
  6
CONTINUOUS
 62
     7
 10
-72.928711
 20
171.93939
 11
-73.679276
 21
173.2394
  0
LINE
  8
0
  6
CONTINUOUS
 62
     7
 10
-59.429825
 20
171.93936
 11
-72.928741
 21
171.93936
  0
LINE
  8
0
  6
CONTINUOUS
 62
     7
 10
-58.679276
 20
173.2394
 11
-59.429825
 21
171.93939
  0
LINE
  8
0
  6
CONTINUOUS
 62
     7
 10
-58.679276
 20
185.23938
 11
-58.679276
 21
173.23938
  0
LINE
  8
0
  6
CONTINUOUS
 62
     7
 10
-291.19235
 20
251.17924
 11
-292.98218
 21
251.17924
  0
LINE
  8
0
  6
CONTINUOUS
 62
     7
 10
-291.19235
 20
251.17924
 11
-291.19235
 21
237.68036
  0
LINE
  8
0
  6
CONTINUOUS
 62
     7
 10
-292.98218
 20
251.17924
 11
-292.98218
 21
237.68036
  0
LINE
  8
0
  6
CONTINUOUS
 62
     7
 10
-291.19235
 20
237.68036
 11
-292.98218
 21
237.68036
  0
LINE
  8
0
  6
CONTINUOUS
 62
     7
 10
-285.45737
 20
236.92981
 11
-297.45737
 21
236.92981
  0
LINE
  8
0
  6
CONTINUOUS
 62
     7
 10
-298.75735
 20
237.68034
 11
-297.45736
 21
236.92979
  0
LINE
  8
0
  6
CONTINUOUS
 62
     7
 10
-298.75739
 20
251.17924
 11
-298.75739
 21
237.68036
  0
LINE
  8
0
  6
CONTINUOUS
 62
     7
 10
-297.45736
 20
251.92979
 11
-298.75736
 21
251.17923
  0
LINE
  8
0
  6
CONTINUOUS
 62
     7
 10
-285.45737
 20
251.92979
 11
-297.45737
 21
251.92979
  0
LINE
  8
0
  6
CONTINUOUS
 62
     7
 10
-279.72238
 20
251.17924
 11
-277.93256
 21
251.17924
  0
LINE
  8
0
  6
CONTINUOUS
 62
     7
 10
-279.72238
 20
251.17924
 11
-279.72238
 21
237.68036
  0
LINE
  8
0
  6
CONTINUOUS
 62
     7
 10
-277.93256
 20
251.17924
 11
-277.93256
 21
237.68036
  0
LINE
  8
0
  6
CONTINUOUS
 62
     7
 10
-279.72238
 20
237.68036
 11
-277.93256
 21
237.68036
  0
LINE
  8
0
  6
CONTINUOUS
 62
     7
 10
-285.45737
 20
236.92981
 11
-273.45737
 21
236.92981
  0
LINE
  8
0
  6
CONTINUOUS
 62
     7
 10
-272.1574
 20
237.68035
 11
-273.4574
 21
236.9298
  0
LINE
  8
0
  6
CONTINUOUS
 62
     7
 10
-272.15735
 20
251.17924
 11
-272.15735
 21
237.68036
  0
LINE
  8
0
  6
CONTINUOUS
 62
     7
 10
-273.4574
 20
251.92979
 11
-272.15738
 21
251.17923
  0
LINE
  8
0
  6
CONTINUOUS
 62
     7
 10
-285.45737
 20
251.92979
 11
-273.45737
 21
251.92979
  0
LINE
  8
0
  6
CONTINUOUS
 62
     7
 10
-320.36041
 20
196.0298
 11
-321.45738
 21
197.9298
  0
LINE
  8
0
  6
CONTINUOUS
 62
     7
 10
-307.55432
 20
196.0298
 11
-320.36041
 21
196.0298
  0
LINE
  8
0
  6
CONTINUOUS
 62
     7
 10
-306.45738
 20
197.92981
 11
-307.55434
 21
196.02981
  0
LINE
  8
0
  6
CONTINUOUS
 62
     7
 10
-306.45737
 20
213.92979
 11
-306.45737
 21
197.92979
  0
LINE
  8
0
  6
CONTINUOUS
 62
     7
 10
-307.55432
 20
205.90422
 11
-307.55432
 21
204.08618
  0
LINE
  8
0
  6
CONTINUOUS
 62
     7
 10
-307.55432
 20
204.08618
 11
-320.36041
 21
204.08618
  0
LINE
  8
0
  6
CONTINUOUS
 62
     7
 10
-307.55432
 20
205.90422
 11
-320.36041
 21
205.90422
  0
LINE
  8
0
  6
CONTINUOUS
 62
     7
 10
-321.45737
 20
213.92979
 11
-321.45737
 21
197.92979
  0
LINE
  8
0
  6
CONTINUOUS
 62
     7
 10
-320.36041
 20
205.90422
 11
-320.36041
 21
204.08618
  0
LINE
  8
0
  6
CONTINUOUS
 62
     7
 10
-320.36042
 20
231.8298
 11
-321.45739
 21
229.9298
  0
LINE
  8
0
  6
CONTINUOUS
 62
     7
 10
-307.55432
 20
231.82979
 11
-320.36041
 21
231.82979
  0
LINE
  8
0
  6
CONTINUOUS
 62
     7
 10
-306.45738
 20
229.92979
 11
-307.55435
 21
231.82979
  0
LINE
  8
0
  6
CONTINUOUS
 62
     7
 10
-306.45737
 20
213.92979
 11
-306.45737
 21
229.92979
  0
LINE
  8
0
  6
CONTINUOUS
 62
     7
 10
-307.55432
 20
221.95537
 11
-307.55432
 21
223.77341
  0
LINE
  8
0
  6
CONTINUOUS
 62
     7
 10
-307.55432
 20
223.77341
 11
-320.36041
 21
223.77341
  0
LINE
  8
0
  6
CONTINUOUS
 62
     7
 10
-307.55432
 20
221.95537
 11
-320.36041
 21
221.95537
  0
LINE
  8
0
  6
CONTINUOUS
 62
     7
 10
-321.45737
 20
213.92979
 11
-321.45737
 21
229.92979
  0
LINE
  8
0
  6
CONTINUOUS
 62
     7
 10
-320.36041
 20
221.95537
 11
-320.36041
 21
223.77341
  0
LINE
  8
0
  6
CONTINUOUS
 62
     7
 10
-127.58232
 20
167.33939
 11
-128.67929
 21
169.2394
  0
LINE
  8
0
  6
CONTINUOUS
 62
     7
 10
-114.77625
 20
167.33939
 11
-127.58234
 21
167.33939
  0
LINE
  8
0
  6
CONTINUOUS
 62
     7
 10
-113.67926
 20
169.2394
 11
-114.77623
 21
167.33941
  0
LINE
  8
0
  6
CONTINUOUS
 62
     7
 10
-113.67929
 20
185.23938
 11
-113.67929
 21
169.23938
  0
LINE
  8
0
  6
CONTINUOUS
 62
     7
 10
-114.77625
 20
177.21381
 11
-114.77625
 21
175.39577
  0
LINE
  8
0
  6
CONTINUOUS
 62
     7
 10
-114.77625
 20
175.39577
 11
-127.58234
 21
175.39577
  0
LINE
  8
0
  6
CONTINUOUS
 62
     7
 10
-114.77625
 20
177.21381
 11
-127.58234
 21
177.21381
  0
LINE
  8
0
  6
CONTINUOUS
 62
     7
 10
-128.67928
 20
185.23938
 11
-128.67928
 21
169.23938
  0
LINE
  8
0
  6
CONTINUOUS
 62
     7
 10
-127.58234
 20
177.21381
 11
-127.58234
 21
175.39577
  0
LINE
  8
0
  6
CONTINUOUS
 62
     7
 10
-127.58231
 20
203.1394
 11
-128.67928
 21
201.23939
  0
LINE
  8
0
  6
CONTINUOUS
 62
     7
 10
-114.77625
 20
203.13937
 11
-127.58234
 21
203.13937
  0
LINE
  8
0
  6
CONTINUOUS
 62
     7
 10
-113.67928
 20
201.23939
 11
-114.77625
 21
203.13939
  0
LINE
  8
0
  6
CONTINUOUS
 62
     7
 10
-113.67929
 20
185.23938
 11
-113.67929
 21
201.23938
  0
LINE
  8
0
  6
CONTINUOUS
 62
     7
 10
-114.77625
 20
193.26495
 11
-114.77625
 21
195.08299
  0
LINE
  8
0
  6
CONTINUOUS
 62
     7
 10
-114.77625
 20
195.08299
 11
-127.58234
 21
195.08299
  0
LINE
  8
0
  6
CONTINUOUS
 62
     7
 10
-114.77625
 20
193.26495
 11
-127.58234
 21
193.26495
  0
LINE
  8
0
  6
CONTINUOUS
 62
     7
 10
-128.67928
 20
185.23938
 11
-128.67928
 21
201.23938
  0
LINE
  8
0
  6
CONTINUOUS
 62
     7
 10
-127.58234
 20
193.26495
 11
-127.58234
 21
195.08299
  0
LINE
  8
0
  6
CONTINUOUS
 62
     7
 10
-55.77626
 20
103.13937
 11
-54.679291
 21
101.23936
  0
LINE
  8
0
  6
CONTINUOUS
 62
     7
 10
-68.582336
 20
103.13937
 11
-55.77626
 21
103.13937
  0
LINE
  8
0
  6
CONTINUOUS
 62
     7
 10
-69.679291
 20
101.23936
 11
-68.582336
 21
103.13936
  0
LINE
  8
0
  6
CONTINUOUS
 62
     7
 10
-69.679291
 20
85.23938
 11
-69.679291
 21
101.23938
  0
LINE
  8
0
  6
CONTINUOUS
 62
     7
 10
-68.582336
 20
93.264954
 11
-68.582336
 21
95.082993
  0
LINE
  8
0
  6
CONTINUOUS
 62
     7
 10
-68.582336
 20
95.082993
 11
-55.77626
 21
95.082993
  0
LINE
  8
0
  6
CONTINUOUS
 62
     7
 10
-68.582336
 20
93.264954
 11
-55.77626
 21
93.264954
  0
LINE
  8
0
  6
CONTINUOUS
 62
     7
 10
-54.679291
 20
85.23938
 11
-54.679291
 21
101.23938
  0
LINE
  8
0
  6
CONTINUOUS
 62
     7
 10
-55.77626
 20
93.264954
 11
-55.77626
 21
95.082993
  0
LINE
  8
0
  6
CONTINUOUS
 62
     7
 10
-55.776245
 20
67.339371
 11
-54.679276
 21
69.23938
  0
LINE
  8
0
  6
CONTINUOUS
 62
     7
 10
-68.582336
 20
67.339386
 11
-55.77626
 21
67.339386
  0
LINE
  8
0
  6
CONTINUOUS
 62
     7
 10
-69.679291
 20
69.239365
 11
-68.582321
 21
67.339371
  0
LINE
  8
0
  6
CONTINUOUS
 62
     7
 10
-69.679291
 20
85.23938
 11
-69.679291
 21
69.23938
  0
LINE
  8
0
  6
CONTINUOUS
 62
     7
 10
-68.582336
 20
77.213806
 11
-68.582336
 21
75.395767
  0
LINE
  8
0
  6
CONTINUOUS
 62
     7
 10
-68.582336
 20
75.395767
 11
-55.77626
 21
75.395767
  0
LINE
  8
0
  6
CONTINUOUS
 62
     7
 10
-68.582336
 20
77.213806
 11
-55.77626
 21
77.213806
  0
LINE
  8
0
  6
CONTINUOUS
 62
     7
 10
-54.679291
 20
85.23938
 11
-54.679291
 21
69.23938
  0
LINE
  8
0
  6
CONTINUOUS
 62
     7
 10
-55.77626
 20
77.213806
 11
-55.77626
 21
75.395767
  0
LINE
  8
0
  6
CONTINUOUS
 62
     7
 10
-250.55436
 20
231.82979
 11
-249.45739
 21
229.92978
  0
LINE
  8
0
  6
CONTINUOUS
 62
     7
 10
-263.36041
 20
231.82979
 11
-250.55435
 21
231.82979
  0
LINE
  8
0
  6
CONTINUOUS
 62
     7
 10
-264.45738
 20
229.92978
 11
-263.36042
 21
231.82977
  0
LINE
  8
0
  6
CONTINUOUS
 62
     7
 10
-264.4574
 20
213.92979
 11
-264.4574
 21
229.92979
  0
LINE
  8
0
  6
CONTINUOUS
 62
     7
 10
-263.36041
 20
221.95537
 11
-263.36041
 21
223.77341
  0
LINE
  8
0
  6
CONTINUOUS
 62
     7
 10
-263.36041
 20
223.77341
 11
-250.55435
 21
223.77341
  0
LINE
  8
0
  6
CONTINUOUS
 62
     7
 10
-263.36041
 20
221.95537
 11
-250.55435
 21
221.95537
  0
LINE
  8
0
  6
CONTINUOUS
 62
     7
 10
-249.45737
 20
213.92979
 11
-249.45737
 21
229.92979
  0
LINE
  8
0
  6
CONTINUOUS
 62
     7
 10
-250.55435
 20
221.95537
 11
-250.55435
 21
223.77341
  0
LINE
  8
0
  6
CONTINUOUS
 62
     7
 10
-250.55434
 20
196.02978
 11
-249.45737
 21
197.92978
  0
LINE
  8
0
  6
CONTINUOUS
 62
     7
 10
-263.36041
 20
196.0298
 11
-250.55435
 21
196.0298
  0
LINE
  8
0
  6
CONTINUOUS
 62
     7
 10
-264.45739
 20
197.9298
 11
-263.36042
 21
196.02979
  0
LINE
  8
0
  6
CONTINUOUS
 62
     7
 10
-264.4574
 20
213.92979
 11
-264.4574
 21
197.92979
  0
LINE
  8
0
  6
CONTINUOUS
 62
     7
 10
-263.36041
 20
205.90422
 11
-263.36041
 21
204.08618
  0
LINE
  8
0
  6
CONTINUOUS
 62
     7
 10
-263.36041
 20
204.08618
 11
-250.55435
 21
204.08618
  0
LINE
  8
0
  6
CONTINUOUS
 62
     7
 10
-263.36041
 20
205.90422
 11
-250.55435
 21
205.90422
  0
LINE
  8
0
  6
CONTINUOUS
 62
     7
 10
-249.45737
 20
213.92979
 11
-249.45737
 21
197.92979
  0
LINE
  8
0
  6
CONTINUOUS
 62
     7
 10
-250.55435
 20
205.90422
 11
-250.55435
 21
204.08618
  0
LINE
  8
0
  6
CONTINUOUS
 62
     7
 10
-110.57928
 20
125.14241
 11
-108.67928
 21
126.23939
  0
LINE
  8
0
  6
CONTINUOUS
 62
     7
 10
-110.57928
 20
112.33633
 11
-110.57928
 21
125.14241
  0
LINE
  8
0
  6
CONTINUOUS
 62
     7
 10
-108.67928
 20
111.23938
 11
-110.57927
 21
112.33633
  0
LINE
  8
0
  6
CONTINUOUS
 62
     7
 10
-92.679291
 20
111.23937
 11
-108.67929
 21
111.23937
  0
LINE
  8
0
  6
CONTINUOUS
 62
     7
 10
-100.70486
 20
112.33633
 11
-102.52292
 21
112.33633
  0
LINE
  8
0
  6
CONTINUOUS
 62
     7
 10
-102.52292
 20
112.33633
 11
-102.52292
 21
125.14241
  0
LINE
  8
0
  6
CONTINUOUS
 62
     7
 10
-100.70486
 20
112.33633
 11
-100.70486
 21
125.14241
  0
LINE
  8
0
  6
CONTINUOUS
 62
     7
 10
-92.679291
 20
126.23938
 11
-108.67929
 21
126.23938
  0
LINE
  8
0
  6
CONTINUOUS
 62
     7
 10
-100.70486
 20
125.14241
 11
-102.52292
 21
125.14241
  0
LINE
  8
0
  6
CONTINUOUS
 62
     7
 10
-74.779282
 20
125.14243
 11
-76.679291
 21
126.2394
  0
LINE
  8
0
  6
CONTINUOUS
 62
     7
 10
-74.779297
 20
112.33633
 11
-74.779297
 21
125.14241
  0
LINE
  8
0
  6
CONTINUOUS
 62
     7
 10
-76.679291
 20
111.23939
 11
-74.779297
 21
112.33635
  0
LINE
  8
0
  6
CONTINUOUS
 62
     7
 10
-92.679291
 20
111.23937
 11
-76.679291
 21
111.23937
  0
LINE
  8
0
  6
CONTINUOUS
 62
     7
 10
-84.653717
 20
112.33633
 11
-82.835663
 21
112.33633
  0
LINE
  8
0
  6
CONTINUOUS
 62
     7
 10
-82.835663
 20
112.33633
 11
-82.835663
 21
125.14241
  0
LINE
  8
0
  6
CONTINUOUS
 62
     7
 10
-84.653717
 20
112.33633
 11
-84.653717
 21
125.14241
  0
LINE
  8
0
  6
CONTINUOUS
 62
     7
 10
-92.679291
 20
126.23938
 11
-76.679291
 21
126.23938
  0
LINE
  8
0
  6
CONTINUOUS
 62
     7
 10
-84.653717
 20
125.14241
 11
-82.835663
 21
125.14241
  0
LINE
  8
0
  6
CONTINUOUS
 62
     7
 10
-324.45737
 20
133.92979
 11
-324.45737
 21
113.42979
  0
LINE
  8
0
  6
CONTINUOUS
 62
     7
 10
-322.95627
 20
123.28273
 11
-322.95627
 21
121.49981
  0
LINE
  8
0
  6
CONTINUOUS
 62
     7
 10
-309.95847
 20
123.28273
 11
-322.95627
 21
123.28273
  0
LINE
  8
0
  6
CONTINUOUS
 62
     7
 10
-309.95847
 20
121.49981
 11
-322.95627
 21
121.49981
  0
LINE
  8
0
  6
CONTINUOUS
 62
     7
 10
-309.95847
 20
123.28273
 11
-309.95847
 21
121.49981
  0
LINE
  8
0
  6
CONTINUOUS
 62
     7
 10
-308.45737
 20
133.92979
 11
-308.45737
 21
113.42979
  0
LINE
  8
0
  6
CONTINUOUS
 62
     7
 10
-308.45733
 20
113.42978
 11
-309.95844
 21
110.82977
  0
LINE
  8
0
  6
CONTINUOUS
 62
     7
 10
-309.95847
 20
110.8298
 11
-322.95627
 21
110.8298
  0
LINE
  8
0
  6
CONTINUOUS
 62
     7
 10
-322.95626
 20
110.82981
 11
-324.45738
 21
113.42982
  0
LINE
  8
0
  6
CONTINUOUS
 62
     7
 10
-324.45737
 20
133.92979
 11
-324.45737
 21
154.42979
  0
LINE
  8
0
  6
CONTINUOUS
 62
     7
 10
-322.95627
 20
144.57686
 11
-322.95627
 21
146.35977
  0
LINE
  8
0
  6
CONTINUOUS
 62
     7
 10
-309.95847
 20
144.57686
 11
-322.95627
 21
144.57686
  0
LINE
  8
0
  6
CONTINUOUS
 62
     7
 10
-309.95847
 20
146.35977
 11
-322.95627
 21
146.35977
  0
LINE
  8
0
  6
CONTINUOUS
 62
     7
 10
-309.95847
 20
144.57686
 11
-309.95847
 21
146.35977
  0
LINE
  8
0
  6
CONTINUOUS
 62
     7
 10
-308.45737
 20
133.92979
 11
-308.45737
 21
154.42979
  0
LINE
  8
0
  6
CONTINUOUS
 62
     7
 10
-308.45733
 20
154.42978
 11
-309.95845
 21
157.02979
  0
LINE
  8
0
  6
CONTINUOUS
 62
     7
 10
-309.95847
 20
157.02979
 11
-322.95627
 21
157.02979
  0
LINE
  8
0
  6
CONTINUOUS
 62
     7
 10
-322.95623
 20
157.02977
 11
-324.45734
 21
154.42977
  0
LINE
  8
0
  6
CONTINUOUS
 62
     7
 10
-327.45737
 20
43.929794
 11
-327.45737
 21
23.429794
  0
LINE
  8
0
  6
CONTINUOUS
 62
     7
 10
-325.95627
 20
33.28273
 11
-325.95627
 21
31.499802
  0
LINE
  8
0
  6
CONTINUOUS
 62
     7
 10
-312.95847
 20
33.28273
 11
-325.95627
 21
33.28273
  0
LINE
  8
0
  6
CONTINUOUS
 62
     7
 10
-312.95847
 20
31.499802
 11
-325.95627
 21
31.499802
  0
LINE
  8
0
  6
CONTINUOUS
 62
     7
 10
-312.95847
 20
33.28273
 11
-312.95847
 21
31.499802
  0
LINE
  8
0
  6
CONTINUOUS
 62
     7
 10
-311.45737
 20
43.929794
 11
-311.45737
 21
23.429794
  0
LINE
  8
0
  6
CONTINUOUS
 62
     7
 10
-311.45734
 20
23.429764
 11
-312.95846
 21
20.829758
  0
LINE
  8
0
  6
CONTINUOUS
 62
     7
 10
-312.95847
 20
20.829803
 11
-325.95627
 21
20.829803
  0
LINE
  8
0
  6
CONTINUOUS
 62
     7
 10
-325.95625
 20
20.829803
 11
-327.45736
 21
23.429794
  0
LINE
  8
0
  6
CONTINUOUS
 62
     7
 10
-327.45737
 20
43.929794
 11
-327.45737
 21
64.429794
  0
LINE
  8
0
  6
CONTINUOUS
 62
     7
 10
-325.95627
 20
54.576859
 11
-325.95627
 21
56.359772
  0
LINE
  8
0
  6
CONTINUOUS
 62
     7
 10
-312.95847
 20
54.576859
 11
-325.95627
 21
54.576859
  0
LINE
  8
0
  6
CONTINUOUS
 62
     7
 10
-312.95847
 20
56.359772
 11
-325.95627
 21
56.359772
  0
LINE
  8
0
  6
CONTINUOUS
 62
     7
 10
-312.95847
 20
54.576859
 11
-312.95847
 21
56.359772
  0
LINE
  8
0
  6
CONTINUOUS
 62
     7
 10
-311.45737
 20
43.929794
 11
-311.45737
 21
64.429794
  0
LINE
  8
0
  6
CONTINUOUS
 62
     7
 10
-311.45734
 20
64.429779
 11
-312.95846
 21
67.029785
  0
LINE
  8
0
  6
CONTINUOUS
 62
     7
 10
-312.95847
 20
67.029785
 11
-325.95627
 21
67.029785
  0
LINE
  8
0
  6
CONTINUOUS
 62
     7
 10
-325.95626
 20
67.029785
 11
-327.45738
 21
64.429779
  0
LINE
  8
0
  6
CONTINUOUS
 62
     7
 10
-134.67928
 20
85.23938
 11
-134.67928
 21
64.73938
  0
LINE
  8
0
  6
CONTINUOUS
 62
     7
 10
-133.17818
 20
74.592316
 11
-133.17818
 21
72.809402
  0
LINE
  8
0
  6
CONTINUOUS
 62
     7
 10
-120.18042
 20
74.592316
 11
-133.17818
 21
74.592316
  0
LINE
  8
0
  6
CONTINUOUS
 62
     7
 10
-120.18042
 20
72.809402
 11
-133.17818
 21
72.809402
  0
LINE
  8
0
  6
CONTINUOUS
 62
     7
 10
-120.18042
 20
74.592316
 11
-120.18042
 21
72.809402
  0
LINE
  8
0
  6
CONTINUOUS
 62
     7
 10
-118.67929
 20
85.23938
 11
-118.67929
 21
64.73938
  0
LINE
  8
0
  6
CONTINUOUS
 62
     7
 10
-118.67928
 20
64.73938
 11
-120.18039
 21
62.139374
  0
LINE
  8
0
  6
CONTINUOUS
 62
     7
 10
-120.18042
 20
62.139389
 11
-133.17818
 21
62.139389
  0
LINE
  8
0
  6
CONTINUOUS
 62
     7
 10
-133.17818
 20
62.139389
 11
-134.67929
 21
64.739395
  0
LINE
  8
0
  6
CONTINUOUS
 62
     7
 10
-134.67928
 20
85.23938
 11
-134.67928
 21
105.73938
  0
LINE
  8
0
  6
CONTINUOUS
 62
     7
 10
-133.17818
 20
95.886444
 11
-133.17818
 21
97.669357
  0
LINE
  8
0
  6
CONTINUOUS
 62
     7
 10
-120.18042
 20
95.886444
 11
-133.17818
 21
95.886444
  0
LINE
  8
0
  6
CONTINUOUS
 62
     7
 10
-120.18042
 20
97.669357
 11
-133.17818
 21
97.669357
  0
LINE
  8
0
  6
CONTINUOUS
 62
     7
 10
-120.18042
 20
95.886444
 11
-120.18042
 21
97.669357
  0
LINE
  8
0
  6
CONTINUOUS
 62
     7
 10
-118.67929
 20
85.23938
 11
-118.67929
 21
105.73938
  0
LINE
  8
0
  6
CONTINUOUS
 62
     7
 10
-118.67929
 20
105.73937
 11
-120.1804
 21
108.33938
  0
LINE
  8
0
  6
CONTINUOUS
 62
     7
 10
-120.18042
 20
108.33937
 11
-133.17818
 21
108.33937
  0
LINE
  8
0
  6
CONTINUOUS
 62
     7
 10
-133.17818
 20
108.33937
 11
-134.67929
 21
105.73936
  0
LINE
  8
0
  6
CONTINUOUS
 62
     7
 10
-243.45737
 20
43.929794
 11
-243.45737
 21
64.429794
  0
LINE
  8
0
  6
CONTINUOUS
 62
     7
 10
-244.95847
 20
54.576859
 11
-244.95847
 21
56.359772
  0
LINE
  8
0
  6
CONTINUOUS
 62
     7
 10
-257.95624
 20
54.576859
 11
-244.95847
 21
54.576859
  0
LINE
  8
0
  6
CONTINUOUS
 62
     7
 10
-257.95624
 20
56.359772
 11
-244.95847
 21
56.359772
  0
LINE
  8
0
  6
CONTINUOUS
 62
     7
 10
-257.95624
 20
54.576859
 11
-257.95624
 21
56.359772
  0
LINE
  8
0
  6
CONTINUOUS
 62
     7
 10
-259.45737
 20
43.929794
 11
-259.45737
 21
64.429794
  0
LINE
  8
0
  6
CONTINUOUS
 62
     7
 10
-259.45736
 20
64.429779
 11
-257.95625
 21
67.029785
  0
LINE
  8
0
  6
CONTINUOUS
 62
     7
 10
-257.95624
 20
67.029785
 11
-244.95847
 21
67.029785
  0
LINE
  8
0
  6
CONTINUOUS
 62
     7
 10
-244.95846
 20
67.029785
 11
-243.45734
 21
64.429779
  0
LINE
  8
0
  6
CONTINUOUS
 62
     7
 10
-243.45737
 20
43.929794
 11
-243.45737
 21
23.429794
  0
LINE
  8
0
  6
CONTINUOUS
 62
     7
 10
-244.95847
 20
33.28273
 11
-244.95847
 21
31.499802
  0
LINE
  8
0
  6
CONTINUOUS
 62
     7
 10
-257.95624
 20
33.28273
 11
-244.95847
 21
33.28273
  0
LINE
  8
0
  6
CONTINUOUS
 62
     7
 10
-257.95624
 20
31.499802
 11
-244.95847
 21
31.499802
  0
LINE
  8
0
  6
CONTINUOUS
 62
     7
 10
-257.95624
 20
33.28273
 11
-257.95624
 21
31.499802
  0
LINE
  8
0
  6
CONTINUOUS
 62
     7
 10
-259.45737
 20
43.929794
 11
-259.45737
 21
23.429794
  0
LINE
  8
0
  6
CONTINUOUS
 62
     7
 10
-259.45737
 20
23.429794
 11
-257.95626
 21
20.829788
  0
LINE
  8
0
  6
CONTINUOUS
 62
     7
 10
-257.95624
 20
20.829803
 11
-244.95847
 21
20.829803
  0
LINE
  8
0
  6
CONTINUOUS
 62
     7
 10
-244.95847
 20
20.829803
 11
-243.45736
 21
23.42981
  0
LINE
  8
0
  6
CONTINUOUS
 62
     7
 10
-246.45737
 20
133.92979
 11
-246.45737
 21
154.42979
  0
LINE
  8
0
  6
CONTINUOUS
 62
     7
 10
-247.95847
 20
144.57686
 11
-247.95847
 21
146.35977
  0
LINE
  8
0
  6
CONTINUOUS
 62
     7
 10
-260.95624
 20
144.57686
 11
-247.95847
 21
144.57686
  0
LINE
  8
0
  6
CONTINUOUS
 62
     7
 10
-260.95624
 20
146.35977
 11
-247.95847
 21
146.35977
  0
LINE
  8
0
  6
CONTINUOUS
 62
     7
 10
-260.95624
 20
144.57686
 11
-260.95624
 21
146.35977
  0
LINE
  8
0
  6
CONTINUOUS
 62
     7
 10
-262.45737
 20
133.92979
 11
-262.45737
 21
154.42979
  0
LINE
  8
0
  6
CONTINUOUS
 62
     7
 10
-262.45736
 20
154.4298
 11
-260.95625
 21
157.0298
  0
LINE
  8
0
  6
CONTINUOUS
 62
     7
 10
-260.95624
 20
157.02979
 11
-247.95847
 21
157.02979
  0
LINE
  8
0
  6
CONTINUOUS
 62
     7
 10
-247.95846
 20
157.02978
 11
-246.45735
 21
154.42977
  0
LINE
  8
0
  6
CONTINUOUS
 62
     7
 10
-246.45737
 20
133.92979
 11
-246.45737
 21
113.42979
  0
LINE
  8
0
  6
CONTINUOUS
 62
     7
 10
-247.95847
 20
123.28273
 11
-247.95847
 21
121.49981
  0
LINE
  8
0
  6
CONTINUOUS
 62
     7
 10
-260.95624
 20
123.28273
 11
-247.95847
 21
123.28273
  0
LINE
  8
0
  6
CONTINUOUS
 62
     7
 10
-260.95624
 20
121.49981
 11
-247.95847
 21
121.49981
  0
LINE
  8
0
  6
CONTINUOUS
 62
     7
 10
-260.95624
 20
123.28273
 11
-260.95624
 21
121.49981
  0
LINE
  8
0
  6
CONTINUOUS
 62
     7
 10
-262.45737
 20
133.92979
 11
-262.45737
 21
113.42979
  0
LINE
  8
0
  6
CONTINUOUS
 62
     7
 10
-262.45736
 20
113.42979
 11
-260.95625
 21
110.82978
  0
LINE
  8
0
  6
CONTINUOUS
 62
     7
 10
-260.95624
 20
110.8298
 11
-247.95847
 21
110.8298
  0
LINE
  8
0
  6
CONTINUOUS
 62
     7
 10
-247.95847
 20
110.8298
 11
-246.45735
 21
113.4298
  0
ARC
  8
0
  6
CONTINUOUS
 62
     7
 10
-292.9375
 20
198.37979
 40
2
 50
90.000003
 51
139.45852
  0
ARC
  8
0
  6
CONTINUOUS
 62
     7
 10
-298.20737
 20
230.17979
 40
2
 50
270
 51
0
  0
ARC
  8
0
  6
CONTINUOUS
 62
     7
 10
-291.45737
 20
222.92979
 40
3
 50
90.000003
 51
180.00001
  0
ARC
  8
0
  6
CONTINUOUS
 62
     7
 10
-277.97723
 20
198.37979
 40
2
 50
40.541486
 51
89.999996
  0
ARC
  8
0
  6
CONTINUOUS
 62
     7
 10
-272.70737
 20
230.17979
 40
2
 50
180.00001
 51
270
  0
ARC
  8
0
  6
CONTINUOUS
 62
     7
 10
-279.45734
 20
222.92979
 40
3
 50
359.99999
 51
89.999996
  0
ARC
  8
0
  6
CONTINUOUS
 62
     7
 10
-303.72531
 20
152.92979
 40
2
 50
210
 51
270
  0
ARC
  8
0
  6
CONTINUOUS
 62
     7
 10
-303.72531
 20
114.92979
 40
2
 50
90.000003
 51
150
  0
ARC
  8
0
  6
CONTINUOUS
 62
     7
 10
-298.20737
 20
152.92979
 40
2
 50
270
 51
0
  0
ARC
  8
0
  6
CONTINUOUS
 62
     7
 10
-291.45737
 20
144.92979
 40
3
 50
90.000003
 51
180.00001
  0
ARC
  8
0
  6
CONTINUOUS
 62
     7
 10
-293.13449
 20
115.42979
 40
2
 50
90.000003
 51
131.40962
  0
ARC
  8
0
  6
CONTINUOUS
 62
     7
 10
-277.78024
 20
115.42979
 40
2
 50
48.590386
 51
89.999996
  0
ARC
  8
0
  6
CONTINUOUS
 62
     7
 10
-267.18942
 20
152.92979
 40
2
 50
270
 51
330
  0
ARC
  8
0
  6
CONTINUOUS
 62
     7
 10
-267.18942
 20
114.92979
 40
2
 50
30.000004
 51
89.999996
  0
ARC
  8
0
  6
CONTINUOUS
 62
     7
 10
-272.70737
 20
152.92979
 40
2
 50
180.00001
 51
270
  0
ARC
  8
0
  6
CONTINUOUS
 62
     7
 10
-279.45737
 20
144.92979
 40
3
 50
359.99999
 51
89.999996
  0
ARC
  8
0
  6
CONTINUOUS
 62
     7
 10
-306.72531
 20
24.929794
 40
2
 50
90.000003
 51
150
  0
ARC
  8
0
  6
CONTINUOUS
 62
     7
 10
-295.45737
 20
55.929794
 40
2
 50
89.999996
 51
180.00001
  0
ARC
  8
0
  6
CONTINUOUS
 62
     7
 10
-296.33932
 20
25.929794
 40
1.5
 50
90.000003
 51
138.18969
  0
ARC
  8
0
  6
CONTINUOUS
 62
     7
 10
-301.70734
 20
62.929794
 40
2
 50
270
 51
0
  0
ARC
  8
0
  6
CONTINUOUS
 62
     7
 10
-306.72531
 20
62.929794
 40
2
 50
210
 51
270
  0
ARC
  8
0
  6
CONTINUOUS
 62
     7
 10
-264.18939
 20
62.929794
 40
2
 50
270
 51
330
  0
ARC
  8
0
  6
CONTINUOUS
 62
     7
 10
-264.18939
 20
24.929794
 40
2
 50
30.000004
 51
89.999996
  0
ARC
  8
0
  6
CONTINUOUS
 62
     7
 10
-275.45737
 20
55.929794
 40
2
 50
359.99999
 51
90.000003
  0
ARC
  8
0
  6
CONTINUOUS
 62
     7
 10
-274.57538
 20
25.929794
 40
1.5
 50
41.810317
 51
89.999996
  0
ARC
  8
0
  6
CONTINUOUS
 62
     7
 10
-269.20737
 20
62.929794
 40
2
 50
180.00001
 51
270
  0
ARC
  8
0
  6
CONTINUOUS
 62
     7
 10
-97.679291
 20
194.23938
 40
3
 50
90.000003
 51
180.00001
  0
ARC
  8
0
  6
CONTINUOUS
 62
     7
 10
-87.679291
 20
194.23938
 40
3
 50
0
 51
90.000003
  0
ARC
  8
0
  6
CONTINUOUS
 62
     7
 10
-98.734222
 20
170.52394
 40
2
 50
106.55425
 51
166.54281
  0
ARC
  8
0
  6
CONTINUOUS
 62
     7
 10
-85.992096
 20
172.98056
 40
2
 50
48.97387
 51
95.270661
  0
ARC
  8
0
  6
CONTINUOUS
 62
     7
 10
-79.929291
 20
197.98938
 40
2
 50
179.99999
 51
270
  0
ARC
  8
0
  6
CONTINUOUS
 62
     7
 10
-105.42929
 20
201.48938
 40
2
 50
270
 51
0
  0
ARC
  8
0
  6
CONTINUOUS
 62
     7
 10
-79.929291
 20
107.25961
 40
68
 50
95.270661
 51
106.55425
  0
ARC
  8
0
  6
CONTINUOUS
 62
     7
 10
-101.67929
 20
96.23938
 40
3
 50
90.000003
 51
180.00001
  0
ARC
  8
0
  6
CONTINUOUS
 62
     7
 10
-84.679291
 20
96.23938
 40
3
 50
0
 51
90.000003
  0
ARC
  8
0
  6
CONTINUOUS
 62
     7
 10
-113.94724
 20
104.23938
 40
2
 50
210
 51
270
  0
ARC
  8
0
  6
CONTINUOUS
 62
     7
 10
-113.94727
 20
66.23938
 40
2
 50
90.000003
 51
150
  0
ARC
  8
0
  6
CONTINUOUS
 62
     7
 10
-76.429291
 20
101.48938
 40
2
 50
179.99999
 51
270
  0
ARC
  8
0
  6
CONTINUOUS
 62
     7
 10
-108.92929
 20
104.23938
 40
2
 50
270
 51
0
  0
ARC
  8
0
  6
CONTINUOUS
 62
     7
 10
-76.019928
 20
-58.310623
 40
130
 50
90.000003
 51
92.447539
  0
ARC
  8
0
  6
CONTINUOUS
 62
     7
 10
-83.012146
 20
69.49826
 40
2
 50
48.207383
 51
93.131439
  0
ARC
  8
0
  6
CONTINUOUS
 62
     7
 10
-76.019928
 20
-58.310623
 40
130
 50
93.131439
 51
102.3336
  0
ARC
  8
0
  6
CONTINUOUS
 62
     7
 10
-103.36118
 20
66.735199
 40
2
 50
102.3336
 51
131.2283
  0
POLYLINE
  8
0
  6
CONTINUOUS
 62
     7
 66
     1
 10
0
 20
0
  0
VERTEX
  8
0
  6
CONTINUOUS
 62
     7
 10
-285.45737
 20
70.21846
 42
-0.016924364
  0
VERTEX
  8
0
  6
CONTINUOUS
 62
     7
 10
-288.15024
 20
70.310046
 42
-0.01653495
  0
VERTEX
  8
0
  6
CONTINUOUS
 62
     7
 10
-290.83093
 20
70.581401
 42
-0.016230051
  0
VERTEX
  8
0
  6
CONTINUOUS
 62
     7
 10
-293.48294
 20
71.026749
 42
0
  0
SEQEND
  8
0
  0
POLYLINE
  8
0
  6
CONTINUOUS
 62
     7
 66
     1
 10
0
 20
0
  0
VERTEX
  8
0
  6
CONTINUOUS
 62
     7
 10
-303.35736
 20
83.832825
 42
-0.060910708
  0
VERTEX
  8
0
  6
CONTINUOUS
 62
     7
 10
-300.70223
 20
84.54499
 42
-0.069928274
  0
VERTEX
  8
0
  6
CONTINUOUS
 62
     7
 10
-297.95554
 20
84.545216
 42
-0.060970065
  0
VERTEX
  8
0
  6
CONTINUOUS
 62
     7
 10
-295.30096
 20
83.832825
 42
0
  0
SEQEND
  8
0
  0
POLYLINE
  8
0
  6
CONTINUOUS
 62
     7
 66
     1
 10
0
 20
0
  0
VERTEX
  8
0
  6
CONTINUOUS
 62
     7
 10
-295.30096
 20
71.026749
 42
-0.060980309
  0
VERTEX
  8
0
  6
CONTINUOUS
 62
     7
 10
-297.95596
 20
70.314312
 42
-0.069926141
  0
VERTEX
  8
0
  6
CONTINUOUS
 62
     7
 10
-300.70265
 20
70.314654
 42
-0.060900766
  0
VERTEX
  8
0
  6
CONTINUOUS
 62
     7
 10
-303.35736
 20
71.026749
 42
0
  0
SEQEND
  8
0
  0
POLYLINE
  8
0
  6
CONTINUOUS
 62
     7
 66
     1
 10
0
 20
0
  0
VERTEX
  8
0
  6
CONTINUOUS
 62
     7
 10
-293.48294
 20
83.832825
 42
-0.01624566
  0
VERTEX
  8
0
  6
CONTINUOUS
 62
     7
 10
-290.82837
 20
84.278524
 42
-0.016520531
  0
VERTEX
  8
0
  6
CONTINUOUS
 62
     7
 10
-288.15006
 20
84.549552
 42
-0.016923645
  0
VERTEX
  8
0
  6
CONTINUOUS
 62
     7
 10
-285.45737
 20
84.641129
 42
0
  0
SEQEND
  8
0
  0
POLYLINE
  8
0
  6
CONTINUOUS
 62
     7
 66
     1
 10
0
 20
0
  0
VERTEX
  8
0
  6
CONTINUOUS
 62
     7
 10
-285.45737
 20
70.21846
 42
0.016924364
  0
VERTEX
  8
0
  6
CONTINUOUS
 62
     7
 10
-282.76449
 20
70.310046
 42
0.01653495
  0
VERTEX
  8
0
  6
CONTINUOUS
 62
     7
 10
-280.08381
 20
70.581401
 42
0.016230051
  0
VERTEX
  8
0
  6
CONTINUOUS
 62
     7
 10
-277.43179
 20
71.026749
 42
0
  0
SEQEND
  8
0
  0
POLYLINE
  8
0
  6
CONTINUOUS
 62
     7
 66
     1
 10
0
 20
0
  0
VERTEX
  8
0
  6
CONTINUOUS
 62
     7
 10
-267.55737
 20
83.832825
 42
0.060910759
  0
VERTEX
  8
0
  6
CONTINUOUS
 62
     7
 10
-270.21249
 20
84.544991
 42
0.069928427
  0
VERTEX
  8
0
  6
CONTINUOUS
 62
     7
 10
-272.95917
 20
84.545215
 42
0.06096991
  0
VERTEX
  8
0
  6
CONTINUOUS
 62
     7
 10
-275.61374
 20
83.832825
 42
0
  0
SEQEND
  8
0
  0
POLYLINE
  8
0
  6
CONTINUOUS
 62
     7
 66
     1
 10
0
 20
0
  0
VERTEX
  8
0
  6
CONTINUOUS
 62
     7
 10
-275.61374
 20
71.026749
 42
0.060980074
  0
VERTEX
  8
0
  6
CONTINUOUS
 62
     7
 10
-272.95875
 20
70.314313
 42
0.069926301
  0
VERTEX
  8
0
  6
CONTINUOUS
 62
     7
 10
-270.21207
 20
70.314653
 42
0.060900889
  0
VERTEX
  8
0
  6
CONTINUOUS
 62
     7
 10
-267.55737
 20
71.026749
 42
0
  0
SEQEND
  8
0
  0
POLYLINE
  8
0
  6
CONTINUOUS
 62
     7
 66
     1
 10
0
 20
0
  0
VERTEX
  8
0
  6
CONTINUOUS
 62
     7
 10
-277.43179
 20
83.832825
 42
0.01624566
  0
VERTEX
  8
0
  6
CONTINUOUS
 62
     7
 10
-280.08637
 20
84.278524
 42
0.016520531
  0
VERTEX
  8
0
  6
CONTINUOUS
 62
     7
 10
-282.76467
 20
84.549552
 42
0.016923645
  0
VERTEX
  8
0
  6
CONTINUOUS
 62
     7
 10
-285.45737
 20
84.641129
 42
0
  0
SEQEND
  8
0
  0
POLYLINE
  8
0
  6
CONTINUOUS
 62
     7
 66
     1
 10
0
 20
0
  0
VERTEX
  8
0
  6
CONTINUOUS
 62
     7
 10
-100.20409
 20
222.48883
 42
0.050243631
  0
VERTEX
  8
0
  6
CONTINUOUS
 62
     7
 10
-102.11479
 20
222.89718
 42
0.054947064
  0
VERTEX
  8
0
  6
CONTINUOUS
 62
     7
 10
-104.0692
 20
222.8969
 42
0.050155593
  0
VERTEX
  8
0
  6
CONTINUOUS
 62
     7
 10
-105.9793
 20
222.48883
 42
0
  0
SEQEND
  8
0
  0
POLYLINE
  8
0
  6
CONTINUOUS
 62
     7
 66
     1
 10
0
 20
0
  0
VERTEX
  8
0
  6
CONTINUOUS
 62
     7
 10
-98.414268
 20
222.48883
 42
-0.013138069
  0
VERTEX
  8
0
  6
CONTINUOUS
 62
     7
 10
-96.512876
 20
222.74411
 42
-0.013285875
  0
VERTEX
  8
0
  6
CONTINUOUS
 62
     7
 10
-94.599805
 20
222.8987
 42
-0.013500074
  0
VERTEX
  8
0
  6
CONTINUOUS
 62
     7
 10
-92.679283
 20
222.95071
 42
0
  0
SEQEND
  8
0
  0
POLYLINE
  8
0
  6
CONTINUOUS
 62
     7
 66
     1
 10
0
 20
0
  0
VERTEX
  8
0
  6
CONTINUOUS
 62
     7
 10
-98.414268
 20
208.98994
 42
0.013138069
  0
VERTEX
  8
0
  6
CONTINUOUS
 62
     7
 10
-96.512876
 20
208.73466
 42
0.013285875
  0
VERTEX
  8
0
  6
CONTINUOUS
 62
     7
 10
-94.599805
 20
208.58008
 42
0.013500074
  0
VERTEX
  8
0
  6
CONTINUOUS
 62
     7
 10
-92.679283
 20
208.52806
 42
0
  0
SEQEND
  8
0
  0
POLYLINE
  8
0
  6
CONTINUOUS
 62
     7
 66
     1
 10
0
 20
0
  0
VERTEX
  8
0
  6
CONTINUOUS
 62
     7
 10
-100.20409
 20
208.98994
 42
-0.050243361
  0
VERTEX
  8
0
  6
CONTINUOUS
 62
     7
 10
-102.11478
 20
208.5816
 42
-0.054947299
  0
VERTEX
  8
0
  6
CONTINUOUS
 62
     7
 10
-104.06919
 20
208.58187
 42
-0.050155695
  0
VERTEX
  8
0
  6
CONTINUOUS
 62
     7
 10
-105.97927
 20
208.98994
 42
0
  0
SEQEND
  8
0
  0
POLYLINE
  8
0
  6
CONTINUOUS
 62
     7
 66
     1
 10
0
 20
0
  0
VERTEX
  8
0
  6
CONTINUOUS
 62
     7
 10
-85.154472
 20
222.48883
 42
-0.050243631
  0
VERTEX
  8
0
  6
CONTINUOUS
 62
     7
 10
-83.243774
 20
222.89718
 42
-0.054947064
  0
VERTEX
  8
0
  6
CONTINUOUS
 62
     7
 10
-81.289362
 20
222.8969
 42
-0.050155593
  0
VERTEX
  8
0
  6
CONTINUOUS
 62
     7
 10
-79.379265
 20
222.48883
 42
0
  0
SEQEND
  8
0
  0
POLYLINE
  8
0
  6
CONTINUOUS
 62
     7
 66
     1
 10
0
 20
0
  0
VERTEX
  8
0
  6
CONTINUOUS
 62
     7
 10
-86.944298
 20
222.48883
 42
0.013138069
  0
VERTEX
  8
0
  6
CONTINUOUS
 62
     7
 10
-88.84569
 20
222.74411
 42
0.013285875
  0
VERTEX
  8
0
  6
CONTINUOUS
 62
     7
 10
-90.758761
 20
222.8987
 42
0.013500074
  0
VERTEX
  8
0
  6
CONTINUOUS
 62
     7
 10
-92.679283
 20
222.95071
 42
0
  0
SEQEND
  8
0
  0
POLYLINE
  8
0
  6
CONTINUOUS
 62
     7
 66
     1
 10
0
 20
0
  0
VERTEX
  8
0
  6
CONTINUOUS
 62
     7
 10
-86.944298
 20
208.98994
 42
-0.013138069
  0
VERTEX
  8
0
  6
CONTINUOUS
 62
     7
 10
-88.84569
 20
208.73466
 42
-0.013285875
  0
VERTEX
  8
0
  6
CONTINUOUS
 62
     7
 10
-90.758761
 20
208.58008
 42
-0.013500074
  0
VERTEX
  8
0
  6
CONTINUOUS
 62
     7
 10
-92.679283
 20
208.52806
 42
0
  0
SEQEND
  8
0
  0
POLYLINE
  8
0
  6
CONTINUOUS
 62
     7
 66
     1
 10
0
 20
0
  0
VERTEX
  8
0
  6
CONTINUOUS
 62
     7
 10
-85.154472
 20
208.98994
 42
0.050243631
  0
VERTEX
  8
0
  6
CONTINUOUS
 62
     7
 10
-83.243774
 20
208.5816
 42
0.054947064
  0
VERTEX
  8
0
  6
CONTINUOUS
 62
     7
 10
-81.289362
 20
208.58187
 42
0.050155593
  0
VERTEX
  8
0
  6
CONTINUOUS
 62
     7
 10
-79.379265
 20
208.98994
 42
0
  0
SEQEND
  8
0
  0
POLYLINE
  8
0
  6
CONTINUOUS
 62
     7
 66
     1
 10
0
 20
0
  0
VERTEX
  8
0
  6
CONTINUOUS
 62
     7
 10
-292.98218
 20
172.17924
 42
0.050243361
  0
VERTEX
  8
0
  6
CONTINUOUS
 62
     7
 10
-294.89287
 20
172.58759
 42
0.054947299
  0
VERTEX
  8
0
  6
CONTINUOUS
 62
     7
 10
-296.84727
 20
172.58732
 42
0.050155695
  0
VERTEX
  8
0
  6
CONTINUOUS
 62
     7
 10
-298.75735
 20
172.17924
 42
0
  0
SEQEND
  8
0
  0
POLYLINE
  8
0
  6
CONTINUOUS
 62
     7
 66
     1
 10
0
 20
0
  0
VERTEX
  8
0
  6
CONTINUOUS
 62
     7
 10
-291.19235
 20
172.17924
 42
-0.013138069
  0
VERTEX
  8
0
  6
CONTINUOUS
 62
     7
 10
-289.29096
 20
172.43452
 42
-0.013285875
  0
VERTEX
  8
0
  6
CONTINUOUS
 62
     7
 10
-287.37789
 20
172.58911
 42
-0.013500074
  0
VERTEX
  8
0
  6
CONTINUOUS
 62
     7
 10
-285.45737
 20
172.64113
 42
0
  0
SEQEND
  8
0
  0
POLYLINE
  8
0
  6
CONTINUOUS
 62
     7
 66
     1
 10
0
 20
0
  0
VERTEX
  8
0
  6
CONTINUOUS
 62
     7
 10
-291.19235
 20
158.68036
 42
0.013138069
  0
VERTEX
  8
0
  6
CONTINUOUS
 62
     7
 10
-289.29096
 20
158.42508
 42
0.013285875
  0
VERTEX
  8
0
  6
CONTINUOUS
 62
     7
 10
-287.37789
 20
158.27049
 42
0.013500074
  0
VERTEX
  8
0
  6
CONTINUOUS
 62
     7
 10
-285.45737
 20
158.21848
 42
0
  0
SEQEND
  8
0
  0
POLYLINE
  8
0
  6
CONTINUOUS
 62
     7
 66
     1
 10
0
 20
0
  0
VERTEX
  8
0
  6
CONTINUOUS
 62
     7
 10
-292.98218
 20
158.68036
 42
-0.050243361
  0
VERTEX
  8
0
  6
CONTINUOUS
 62
     7
 10
-294.89287
 20
158.27201
 42
-0.054947299
  0
VERTEX
  8
0
  6
CONTINUOUS
 62
     7
 10
-296.84727
 20
158.27229
 42
-0.050155695
  0
VERTEX
  8
0
  6
CONTINUOUS
 62
     7
 10
-298.75735
 20
158.68036
 42
0
  0
SEQEND
  8
0
  0
POLYLINE
  8
0
  6
CONTINUOUS
 62
     7
 66
     1
 10
0
 20
0
  0
VERTEX
  8
0
  6
CONTINUOUS
 62
     7
 10
-277.93256
 20
172.17924
 42
-0.050243631
  0
VERTEX
  8
0
  6
CONTINUOUS
 62
     7
 10
-276.02186
 20
172.58759
 42
-0.054947064
  0
VERTEX
  8
0
  6
CONTINUOUS
 62
     7
 10
-274.06745
 20
172.58732
 42
-0.050155593
  0
VERTEX
  8
0
  6
CONTINUOUS
 62
     7
 10
-272.15735
 20
172.17924
 42
0
  0
SEQEND
  8
0
  0
POLYLINE
  8
0
  6
CONTINUOUS
 62
     7
 66
     1
 10
0
 20
0
  0
VERTEX
  8
0
  6
CONTINUOUS
 62
     7
 10
-279.72238
 20
172.17924
 42
0.013138069
  0
VERTEX
  8
0
  6
CONTINUOUS
 62
     7
 10
-281.62377
 20
172.43452
 42
0.013285875
  0
VERTEX
  8
0
  6
CONTINUOUS
 62
     7
 10
-283.53684
 20
172.58911
 42
0.013500074
  0
VERTEX
  8
0
  6
CONTINUOUS
 62
     7
 10
-285.45737
 20
172.64113
 42
0
  0
SEQEND
  8
0
  0
POLYLINE
  8
0
  6
CONTINUOUS
 62
     7
 66
     1
 10
0
 20
0
  0
VERTEX
  8
0
  6
CONTINUOUS
 62
     7
 10
-279.72238
 20
158.68036
 42
-0.013138069
  0
VERTEX
  8
0
  6
CONTINUOUS
 62
     7
 10
-281.62377
 20
158.42508
 42
-0.013285875
  0
VERTEX
  8
0
  6
CONTINUOUS
 62
     7
 10
-283.53684
 20
158.27049
 42
-0.013500074
  0
VERTEX
  8
0
  6
CONTINUOUS
 62
     7
 10
-285.45737
 20
158.21848
 42
0
  0
SEQEND
  8
0
  0
POLYLINE
  8
0
  6
CONTINUOUS
 62
     7
 66
     1
 10
0
 20
0
  0
VERTEX
  8
0
  6
CONTINUOUS
 62
     7
 10
-277.93256
 20
158.68036
 42
0.050243631
  0
VERTEX
  8
0
  6
CONTINUOUS
 62
     7
 10
-276.02186
 20
158.27201
 42
0.054947064
  0
VERTEX
  8
0
  6
CONTINUOUS
 62
     7
 10
-274.06745
 20
158.27229
 42
0.050155593
  0
VERTEX
  8
0
  6
CONTINUOUS
 62
     7
 10
-272.15735
 20
158.68036
 42
0
  0
SEQEND
  8
0
  0
POLYLINE
  8
0
  6
CONTINUOUS
 62
     7
 66
     1
 10
0
 20
0
  0
VERTEX
  8
0
  6
CONTINUOUS
 62
     7
 10
-59.429829
 20
192.76419
 42
0.050243496
  0
VERTEX
  8
0
  6
CONTINUOUS
 62
     7
 10
-59.021483
 20
194.67488
 42
0.054947182
  0
VERTEX
  8
0
  6
CONTINUOUS
 62
     7
 10
-59.021757
 20
196.62929
 42
0.050155644
  0
VERTEX
  8
0
  6
CONTINUOUS
 62
     7
 10
-59.429829
 20
198.53938
 42
0
  0
SEQEND
  8
0
  0
POLYLINE
  8
0
  6
CONTINUOUS
 62
     7
 66
     1
 10
0
 20
0
  0
VERTEX
  8
0
  6
CONTINUOUS
 62
     7
 10
-59.429829
 20
190.97437
 42
-0.013138069
  0
VERTEX
  8
0
  6
CONTINUOUS
 62
     7
 10
-59.174549
 20
189.07297
 42
-0.013285875
  0
VERTEX
  8
0
  6
CONTINUOUS
 62
     7
 10
-59.01996
 20
187.1599
 42
-0.013500074
  0
VERTEX
  8
0
  6
CONTINUOUS
 62
     7
 10
-58.967945
 20
185.23938
 42
0
  0
SEQEND
  8
0
  0
POLYLINE
  8
0
  6
CONTINUOUS
 62
     7
 66
     1
 10
0
 20
0
  0
VERTEX
  8
0
  6
CONTINUOUS
 62
     7
 10
-72.928734
 20
190.97437
 42
0.013138069
  0
VERTEX
  8
0
  6
CONTINUOUS
 62
     7
 10
-73.184013
 20
189.07297
 42
0.013285875
  0
VERTEX
  8
0
  6
CONTINUOUS
 62
     7
 10
-73.338603
 20
187.1599
 42
0.013500074
  0
VERTEX
  8
0
  6
CONTINUOUS
 62
     7
 10
-73.390617
 20
185.23938
 42
0
  0
SEQEND
  8
0
  0
POLYLINE
  8
0
  6
CONTINUOUS
 62
     7
 66
     1
 10
0
 20
0
  0
VERTEX
  8
0
  6
CONTINUOUS
 62
     7
 10
-72.928734
 20
192.76419
 42
-0.050243496
  0
VERTEX
  8
0
  6
CONTINUOUS
 62
     7
 10
-73.337079
 20
194.67488
 42
-0.054947182
  0
VERTEX
  8
0
  6
CONTINUOUS
 62
     7
 10
-73.336805
 20
196.62929
 42
-0.050155644
  0
VERTEX
  8
0
  6
CONTINUOUS
 62
     7
 10
-72.928734
 20
198.53938
 42
0
  0
SEQEND
  8
0
  0
POLYLINE
  8
0
  6
CONTINUOUS
 62
     7
 66
     1
 10
0
 20
0
  0
VERTEX
  8
0
  6
CONTINUOUS
 62
     7
 10
-59.429829
 20
177.71457
 42
-0.050243631
  0
VERTEX
  8
0
  6
CONTINUOUS
 62
     7
 10
-59.021483
 20
175.80387
 42
-0.054947064
  0
VERTEX
  8
0
  6
CONTINUOUS
 62
     7
 10
-59.021758
 20
173.84946
 42
-0.050155593
  0
VERTEX
  8
0
  6
CONTINUOUS
 62
     7
 10
-59.429829
 20
171.93936
 42
0
  0
SEQEND
  8
0
  0
POLYLINE
  8
0
  6
CONTINUOUS
 62
     7
 66
     1
 10
0
 20
0
  0
VERTEX
  8
0
  6
CONTINUOUS
 62
     7
 10
-59.429829
 20
179.50439
 42
0.013138069
  0
VERTEX
  8
0
  6
CONTINUOUS
 62
     7
 10
-59.174549
 20
181.40579
 42
0.013285875
  0
VERTEX
  8
0
  6
CONTINUOUS
 62
     7
 10
-59.01996
 20
183.31886
 42
0.013500074
  0
VERTEX
  8
0
  6
CONTINUOUS
 62
     7
 10
-58.967945
 20
185.23938
 42
0
  0
SEQEND
  8
0
  0
POLYLINE
  8
0
  6
CONTINUOUS
 62
     7
 66
     1
 10
0
 20
0
  0
VERTEX
  8
0
  6
CONTINUOUS
 62
     7
 10
-72.928734
 20
179.50439
 42
-0.013138069
  0
VERTEX
  8
0
  6
CONTINUOUS
 62
     7
 10
-73.184013
 20
181.40579
 42
-0.013285875
  0
VERTEX
  8
0
  6
CONTINUOUS
 62
     7
 10
-73.338603
 20
183.31886
 42
-0.013500074
  0
VERTEX
  8
0
  6
CONTINUOUS
 62
     7
 10
-73.390617
 20
185.23938
 42
0
  0
SEQEND
  8
0
  0
POLYLINE
  8
0
  6
CONTINUOUS
 62
     7
 66
     1
 10
0
 20
0
  0
VERTEX
  8
0
  6
CONTINUOUS
 62
     7
 10
-72.928734
 20
177.71457
 42
0.050247136
  0
VERTEX
  8
0
  6
CONTINUOUS
 62
     7
 10
-73.337057
 20
175.80387
 42
0.054938951
  0
VERTEX
  8
0
  6
CONTINUOUS
 62
     7
 10
-73.336782
 20
173.84946
 42
0.050159115
  0
VERTEX
  8
0
  6
CONTINUOUS
 62
     7
 10
-72.928734
 20
171.93936
 42
0
  0
SEQEND
  8
0
  0
POLYLINE
  8
0
  6
CONTINUOUS
 62
     7
 66
     1
 10
0
 20
0
  0
VERTEX
  8
0
  6
CONTINUOUS
 62
     7
 10
-292.98218
 20
251.17924
 42
0.050243631
  0
VERTEX
  8
0
  6
CONTINUOUS
 62
     7
 10
-294.89288
 20
251.58759
 42
0.054947064
  0
VERTEX
  8
0
  6
CONTINUOUS
 62
     7
 10
-296.84729
 20
251.58732
 42
0.050155593
  0
VERTEX
  8
0
  6
CONTINUOUS
 62
     7
 10
-298.75739
 20
251.17924
 42
0
  0
SEQEND
  8
0
  0
POLYLINE
  8
0
  6
CONTINUOUS
 62
     7
 66
     1
 10
0
 20
0
  0
VERTEX
  8
0
  6
CONTINUOUS
 62
     7
 10
-291.19235
 20
251.17924
 42
-0.013138069
  0
VERTEX
  8
0
  6
CONTINUOUS
 62
     7
 10
-289.29096
 20
251.43452
 42
-0.013285875
  0
VERTEX
  8
0
  6
CONTINUOUS
 62
     7
 10
-287.37789
 20
251.58911
 42
-0.013500074
  0
VERTEX
  8
0
  6
CONTINUOUS
 62
     7
 10
-285.45737
 20
251.64113
 42
0
  0
SEQEND
  8
0
  0
POLYLINE
  8
0
  6
CONTINUOUS
 62
     7
 66
     1
 10
0
 20
0
  0
VERTEX
  8
0
  6
CONTINUOUS
 62
     7
 10
-291.19235
 20
237.68036
 42
0.013138069
  0
VERTEX
  8
0
  6
CONTINUOUS
 62
     7
 10
-289.29096
 20
237.42508
 42
0.013285875
  0
VERTEX
  8
0
  6
CONTINUOUS
 62
     7
 10
-287.37789
 20
237.27049
 42
0.013500074
  0
VERTEX
  8
0
  6
CONTINUOUS
 62
     7
 10
-285.45737
 20
237.21848
 42
0
  0
SEQEND
  8
0
  0
POLYLINE
  8
0
  6
CONTINUOUS
 62
     7
 66
     1
 10
0
 20
0
  0
VERTEX
  8
0
  6
CONTINUOUS
 62
     7
 10
-292.98218
 20
237.68036
 42
-0.050243631
  0
VERTEX
  8
0
  6
CONTINUOUS
 62
     7
 10
-294.89288
 20
237.27201
 42
-0.054947064
  0
VERTEX
  8
0
  6
CONTINUOUS
 62
     7
 10
-296.84729
 20
237.27229
 42
-0.050155593
  0
VERTEX
  8
0
  6
CONTINUOUS
 62
     7
 10
-298.75739
 20
237.68036
 42
0
  0
SEQEND
  8
0
  0
POLYLINE
  8
0
  6
CONTINUOUS
 62
     7
 66
     1
 10
0
 20
0
  0
VERTEX
  8
0
  6
CONTINUOUS
 62
     7
 10
-277.93256
 20
251.17924
 42
-0.050243631
  0
VERTEX
  8
0
  6
CONTINUOUS
 62
     7
 10
-276.02186
 20
251.58759
 42
-0.054947064
  0
VERTEX
  8
0
  6
CONTINUOUS
 62
     7
 10
-274.06745
 20
251.58732
 42
-0.050155593
  0
VERTEX
  8
0
  6
CONTINUOUS
 62
     7
 10
-272.15735
 20
251.17924
 42
0
  0
SEQEND
  8
0
  0
POLYLINE
  8
0
  6
CONTINUOUS
 62
     7
 66
     1
 10
0
 20
0
  0
VERTEX
  8
0
  6
CONTINUOUS
 62
     7
 10
-279.72238
 20
251.17924
 42
0.013138069
  0
VERTEX
  8
0
  6
CONTINUOUS
 62
     7
 10
-281.62377
 20
251.43452
 42
0.013285875
  0
VERTEX
  8
0
  6
CONTINUOUS
 62
     7
 10
-283.53684
 20
251.58911
 42
0.013500074
  0
VERTEX
  8
0
  6
CONTINUOUS
 62
     7
 10
-285.45737
 20
251.64113
 42
0
  0
SEQEND
  8
0
  0
POLYLINE
  8
0
  6
CONTINUOUS
 62
     7
 66
     1
 10
0
 20
0
  0
VERTEX
  8
0
  6
CONTINUOUS
 62
     7
 10
-279.72238
 20
237.68036
 42
-0.013138069
  0
VERTEX
  8
0
  6
CONTINUOUS
 62
     7
 10
-281.62377
 20
237.42508
 42
-0.013285875
  0
VERTEX
  8
0
  6
CONTINUOUS
 62
     7
 10
-283.53684
 20
237.27049
 42
-0.013500074
  0
VERTEX
  8
0
  6
CONTINUOUS
 62
     7
 10
-285.45737
 20
237.21848
 42
0
  0
SEQEND
  8
0
  0
POLYLINE
  8
0
  6
CONTINUOUS
 62
     7
 66
     1
 10
0
 20
0
  0
VERTEX
  8
0
  6
CONTINUOUS
 62
     7
 10
-277.93256
 20
237.68036
 42
0.050243631
  0
VERTEX
  8
0
  6
CONTINUOUS
 62
     7
 10
-276.02186
 20
237.27201
 42
0.054947064
  0
VERTEX
  8
0
  6
CONTINUOUS
 62
     7
 10
-274.06745
 20
237.27229
 42
0.050155593
  0
VERTEX
  8
0
  6
CONTINUOUS
 62
     7
 10
-272.15735
 20
237.68036
 42
0
  0
SEQEND
  8
0
  0
POLYLINE
  8
0
  6
CONTINUOUS
 62
     7
 66
     1
 10
0
 20
0
  0
VERTEX
  8
0
  6
CONTINUOUS
 62
     7
 10
-306.74603
 20
213.92979
 42
-0.016924364
  0
VERTEX
  8
0
  6
CONTINUOUS
 62
     7
 10
-306.83762
 20
211.23692
 42
-0.01653495
  0
VERTEX
  8
0
  6
CONTINUOUS
 62
     7
 10
-307.10897
 20
208.55623
 42
-0.016230051
  0
VERTEX
  8
0
  6
CONTINUOUS
 62
     7
 10
-307.55432
 20
205.90422
 42
0
  0
SEQEND
  8
0
  0
POLYLINE
  8
0
  6
CONTINUOUS
 62
     7
 66
     1
 10
0
 20
0
  0
VERTEX
  8
0
  6
CONTINUOUS
 62
     7
 10
-320.36041
 20
196.0298
 42
-0.060911984
  0
VERTEX
  8
0
  6
CONTINUOUS
 62
     7
 10
-321.07257
 20
198.68493
 42
-0.069925443
  0
VERTEX
  8
0
  6
CONTINUOUS
 62
     7
 10
-321.07279
 20
201.43161
 42
-0.060971265
  0
VERTEX
  8
0
  6
CONTINUOUS
 62
     7
 10
-320.36041
 20
204.08618
 42
0
  0
SEQEND
  8
0
  0
POLYLINE
  8
0
  6
CONTINUOUS
 62
     7
 66
     1
 10
0
 20
0
  0
VERTEX
  8
0
  6
CONTINUOUS
 62
     7
 10
-307.55432
 20
204.08618
 42
-0.060980192
  0
VERTEX
  8
0
  6
CONTINUOUS
 62
     7
 10
-306.84189
 20
201.43119
 42
-0.069926221
  0
VERTEX
  8
0
  6
CONTINUOUS
 62
     7
 10
-306.84223
 20
198.6845
 42
-0.060900827
  0
VERTEX
  8
0
  6
CONTINUOUS
 62
     7
 10
-307.55432
 20
196.0298
 42
0
  0
SEQEND
  8
0
  0
POLYLINE
  8
0
  6
CONTINUOUS
 62
     7
 66
     1
 10
0
 20
0
  0
VERTEX
  8
0
  6
CONTINUOUS
 62
     7
 10
-320.36041
 20
205.90422
 42
-0.016246285
  0
VERTEX
  8
0
  6
CONTINUOUS
 62
     7
 10
-320.80611
 20
208.55879
 42
-0.016520534
  0
VERTEX
  8
0
  6
CONTINUOUS
 62
     7
 10
-321.07713
 20
211.2371
 42
-0.016923018
  0
VERTEX
  8
0
  6
CONTINUOUS
 62
     7
 10
-321.1687
 20
213.92979
 42
0
  0
SEQEND
  8
0
  0
POLYLINE
  8
0
  6
CONTINUOUS
 62
     7
 66
     1
 10
0
 20
0
  0
VERTEX
  8
0
  6
CONTINUOUS
 62
     7
 10
-306.74603
 20
213.92979
 42
0.016924364
  0
VERTEX
  8
0
  6
CONTINUOUS
 62
     7
 10
-306.83762
 20
216.62267
 42
0.01653495
  0
VERTEX
  8
0
  6
CONTINUOUS
 62
     7
 10
-307.10897
 20
219.30336
 42
0.016230051
  0
VERTEX
  8
0
  6
CONTINUOUS
 62
     7
 10
-307.55432
 20
221.95537
 42
0
  0
SEQEND
  8
0
  0
POLYLINE
  8
0
  6
CONTINUOUS
 62
     7
 66
     1
 10
0
 20
0
  0
VERTEX
  8
0
  6
CONTINUOUS
 62
     7
 10
-320.36041
 20
231.82979
 42
0.060911984
  0
VERTEX
  8
0
  6
CONTINUOUS
 62
     7
 10
-321.07257
 20
229.17466
 42
0.069925443
  0
VERTEX
  8
0
  6
CONTINUOUS
 62
     7
 10
-321.07279
 20
226.42798
 42
0.060971265
  0
VERTEX
  8
0
  6
CONTINUOUS
 62
     7
 10
-320.36041
 20
223.77341
 42
0
  0
SEQEND
  8
0
  0
POLYLINE
  8
0
  6
CONTINUOUS
 62
     7
 66
     1
 10
0
 20
0
  0
VERTEX
  8
0
  6
CONTINUOUS
 62
     7
 10
-307.55432
 20
223.77341
 42
0.060980192
  0
VERTEX
  8
0
  6
CONTINUOUS
 62
     7
 10
-306.84189
 20
226.4284
 42
0.069926221
  0
VERTEX
  8
0
  6
CONTINUOUS
 62
     7
 10
-306.84223
 20
229.17508
 42
0.060900827
  0
VERTEX
  8
0
  6
CONTINUOUS
 62
     7
 10
-307.55432
 20
231.82979
 42
0
  0
SEQEND
  8
0
  0
POLYLINE
  8
0
  6
CONTINUOUS
 62
     7
 66
     1
 10
0
 20
0
  0
VERTEX
  8
0
  6
CONTINUOUS
 62
     7
 10
-320.36041
 20
221.95537
 42
0.016246285
  0
VERTEX
  8
0
  6
CONTINUOUS
 62
     7
 10
-320.80611
 20
219.30079
 42
0.016520534
  0
VERTEX
  8
0
  6
CONTINUOUS
 62
     7
 10
-321.07713
 20
216.62249
 42
0.016923018
  0
VERTEX
  8
0
  6
CONTINUOUS
 62
     7
 10
-321.1687
 20
213.92979
 42
0
  0
SEQEND
  8
0
  0
POLYLINE
  8
0
  6
CONTINUOUS
 62
     7
 66
     1
 10
0
 20
0
  0
VERTEX
  8
0
  6
CONTINUOUS
 62
     7
 10
-113.96795
 20
185.23938
 42
-0.016924364
  0
VERTEX
  8
0
  6
CONTINUOUS
 62
     7
 10
-114.05953
 20
182.5465
 42
-0.01653495
  0
VERTEX
  8
0
  6
CONTINUOUS
 62
     7
 10
-114.33089
 20
179.86582
 42
-0.016230051
  0
VERTEX
  8
0
  6
CONTINUOUS
 62
     7
 10
-114.77624
 20
177.21381
 42
0
  0
SEQEND
  8
0
  0
POLYLINE
  8
0
  6
CONTINUOUS
 62
     7
 66
     1
 10
0
 20
0
  0
VERTEX
  8
0
  6
CONTINUOUS
 62
     7
 10
-127.58233
 20
167.33939
 42
-0.060912609
  0
VERTEX
  8
0
  6
CONTINUOUS
 62
     7
 10
-128.29448
 20
169.99451
 42
-0.069923989
  0
VERTEX
  8
0
  6
CONTINUOUS
 62
     7
 10
-128.2947
 20
172.74119
 42
-0.060971904
  0
VERTEX
  8
0
  6
CONTINUOUS
 62
     7
 10
-127.58233
 20
175.39577
 42
0
  0
SEQEND
  8
0
  0
POLYLINE
  8
0
  6
CONTINUOUS
 62
     7
 66
     1
 10
0
 20
0
  0
VERTEX
  8
0
  6
CONTINUOUS
 62
     7
 10
-114.77624
 20
175.39577
 42
-0.060980192
  0
VERTEX
  8
0
  6
CONTINUOUS
 62
     7
 10
-114.0638
 20
172.74077
 42
-0.069926221
  0
VERTEX
  8
0
  6
CONTINUOUS
 62
     7
 10
-114.06414
 20
169.99409
 42
-0.060900827
  0
VERTEX
  8
0
  6
CONTINUOUS
 62
     7
 10
-114.77624
 20
167.33939
 42
0
  0
SEQEND
  8
0
  0
POLYLINE
  8
0
  6
CONTINUOUS
 62
     7
 66
     1
 10
0
 20
0
  0
VERTEX
  8
0
  6
CONTINUOUS
 62
     7
 10
-127.58233
 20
177.21381
 42
-0.016246597
  0
VERTEX
  8
0
  6
CONTINUOUS
 62
     7
 10
-128.02802
 20
179.86838
 42
-0.016520535
  0
VERTEX
  8
0
  6
CONTINUOUS
 62
     7
 10
-128.29904
 20
182.54669
 42
-0.016922705
  0
VERTEX
  8
0
  6
CONTINUOUS
 62
     7
 10
-128.39061
 20
185.23938
 42
0
  0
SEQEND
  8
0
  0
POLYLINE
  8
0
  6
CONTINUOUS
 62
     7
 66
     1
 10
0
 20
0
  0
VERTEX
  8
0
  6
CONTINUOUS
 62
     7
 10
-113.96795
 20
185.23938
 42
0.016924364
  0
VERTEX
  8
0
  6
CONTINUOUS
 62
     7
 10
-114.05953
 20
187.93226
 42
0.01653495
  0
VERTEX
  8
0
  6
CONTINUOUS
 62
     7
 10
-114.33089
 20
190.61294
 42
0.016230051
  0
VERTEX
  8
0
  6
CONTINUOUS
 62
     7
 10
-114.77624
 20
193.26495
 42
0
  0
SEQEND
  8
0
  0
POLYLINE
  8
0
  6
CONTINUOUS
 62
     7
 66
     1
 10
0
 20
0
  0
VERTEX
  8
0
  6
CONTINUOUS
 62
     7
 10
-127.58233
 20
203.13937
 42
0.060912609
  0
VERTEX
  8
0
  6
CONTINUOUS
 62
     7
 10
-128.29448
 20
200.48425
 42
0.069923989
  0
VERTEX
  8
0
  6
CONTINUOUS
 62
     7
 10
-128.2947
 20
197.73757
 42
0.060971904
  0
VERTEX
  8
0
  6
CONTINUOUS
 62
     7
 10
-127.58233
 20
195.08299
 42
0
  0
SEQEND
  8
0
  0
POLYLINE
  8
0
  6
CONTINUOUS
 62
     7
 66
     1
 10
0
 20
0
  0
VERTEX
  8
0
  6
CONTINUOUS
 62
     7
 10
-114.77624
 20
195.08299
 42
0.060980192
  0
VERTEX
  8
0
  6
CONTINUOUS
 62
     7
 10
-114.0638
 20
197.73799
 42
0.069926221
  0
VERTEX
  8
0
  6
CONTINUOUS
 62
     7
 10
-114.06414
 20
200.48467
 42
0.060900827
  0
VERTEX
  8
0
  6
CONTINUOUS
 62
     7
 10
-114.77624
 20
203.13937
 42
0
  0
SEQEND
  8
0
  0
POLYLINE
  8
0
  6
CONTINUOUS
 62
     7
 66
     1
 10
0
 20
0
  0
VERTEX
  8
0
  6
CONTINUOUS
 62
     7
 10
-127.58233
 20
193.26495
 42
0.016246597
  0
VERTEX
  8
0
  6
CONTINUOUS
 62
     7
 10
-128.02802
 20
190.61038
 42
0.016520535
  0
VERTEX
  8
0
  6
CONTINUOUS
 62
     7
 10
-128.29904
 20
187.93207
 42
0.016922705
  0
VERTEX
  8
0
  6
CONTINUOUS
 62
     7
 10
-128.39061
 20
185.23938
 42
0
  0
SEQEND
  8
0
  0
POLYLINE
  8
0
  6
CONTINUOUS
 62
     7
 66
     1
 10
0
 20
0
  0
VERTEX
  8
0
  6
CONTINUOUS
 62
     7
 10
-69.390617
 20
85.23938
 42
-0.016924364
  0
VERTEX
  8
0
  6
CONTINUOUS
 62
     7
 10
-69.299032
 20
87.932257
 42
-0.01653495
  0
VERTEX
  8
0
  6
CONTINUOUS
 62
     7
 10
-69.027677
 20
90.612941
 42
-0.016230051
  0
VERTEX
  8
0
  6
CONTINUOUS
 62
     7
 10
-68.582329
 20
93.264954
 42
0
  0
SEQEND
  8
0
  0
POLYLINE
  8
0
  6
CONTINUOUS
 62
     7
 66
     1
 10
0
 20
0
  0
VERTEX
  8
0
  6
CONTINUOUS
 62
     7
 10
-55.776257
 20
103.13937
 42
-0.060911984
  0
VERTEX
  8
0
  6
CONTINUOUS
 62
     7
 10
-55.064102
 20
100.48425
 42
-0.069925443
  0
VERTEX
  8
0
  6
CONTINUOUS
 62
     7
 10
-55.063877
 20
97.737569
 42
-0.060971265
  0
VERTEX
  8
0
  6
CONTINUOUS
 62
     7
 10
-55.776257
 20
95.082993
 42
0
  0
SEQEND
  8
0
  0
POLYLINE
  8
0
  6
CONTINUOUS
 62
     7
 66
     1
 10
0
 20
0
  0
VERTEX
  8
0
  6
CONTINUOUS
 62
     7
 10
-68.582329
 20
95.082993
 42
-0.060980192
  0
VERTEX
  8
0
  6
CONTINUOUS
 62
     7
 10
-69.294765
 20
97.737987
 42
-0.069926221
  0
VERTEX
  8
0
  6
CONTINUOUS
 62
     7
 10
-69.294424
 20
100.48467
 42
-0.060900827
  0
VERTEX
  8
0
  6
CONTINUOUS
 62
     7
 10
-68.582329
 20
103.13937
 42
0
  0
SEQEND
  8
0
  0
POLYLINE
  8
0
  6
CONTINUOUS
 62
     7
 66
     1
 10
0
 20
0
  0
VERTEX
  8
0
  6
CONTINUOUS
 62
     7
 10
-55.776257
 20
93.264954
 42
-0.016246285
  0
VERTEX
  8
0
  6
CONTINUOUS
 62
     7
 10
-55.330562
 20
90.610379
 42
-0.016520534
  0
VERTEX
  8
0
  6
CONTINUOUS
 62
     7
 10
-55.05954
 20
87.932073
 42
-0.016923018
  0
VERTEX
  8
0
  6
CONTINUOUS
 62
     7
 10
-54.967968
 20
85.23938
 42
0
  0
SEQEND
  8
0
  0
POLYLINE
  8
0
  6
CONTINUOUS
 62
     7
 66
     1
 10
0
 20
0
  0
VERTEX
  8
0
  6
CONTINUOUS
 62
     7
 10
-69.390617
 20
85.23938
 42
0.016924364
  0
VERTEX
  8
0
  6
CONTINUOUS
 62
     7
 10
-69.299032
 20
82.546503
 42
0.01653495
  0
VERTEX
  8
0
  6
CONTINUOUS
 62
     7
 10
-69.027677
 20
79.865819
 42
0.016230051
  0
VERTEX
  8
0
  6
CONTINUOUS
 62
     7
 10
-68.582329
 20
77.213806
 42
0
  0
SEQEND
  8
0
  0
POLYLINE
  8
0
  6
CONTINUOUS
 62
     7
 66
     1
 10
0
 20
0
  0
VERTEX
  8
0
  6
CONTINUOUS
 62
     7
 10
-55.776257
 20
67.339386
 42
0.060911984
  0
VERTEX
  8
0
  6
CONTINUOUS
 62
     7
 10
-55.064102
 20
69.994511
 42
0.069925443
  0
VERTEX
  8
0
  6
CONTINUOUS
 62
     7
 10
-55.063877
 20
72.741191
 42
0.060971265
  0
VERTEX
  8
0
  6
CONTINUOUS
 62
     7
 10
-55.776257
 20
75.395767
 42
0
  0
SEQEND
  8
0
  0
POLYLINE
  8
0
  6
CONTINUOUS
 62
     7
 66
     1
 10
0
 20
0
  0
VERTEX
  8
0
  6
CONTINUOUS
 62
     7
 10
-68.582329
 20
75.395767
 42
0.060980192
  0
VERTEX
  8
0
  6
CONTINUOUS
 62
     7
 10
-69.294765
 20
72.740773
 42
0.069926221
  0
VERTEX
  8
0
  6
CONTINUOUS
 62
     7
 10
-69.294424
 20
69.99409
 42
0.060900827
  0
VERTEX
  8
0
  6
CONTINUOUS
 62
     7
 10
-68.582329
 20
67.339386
 42
0
  0
SEQEND
  8
0
  0
POLYLINE
  8
0
  6
CONTINUOUS
 62
     7
 66
     1
 10
0
 20
0
  0
VERTEX
  8
0
  6
CONTINUOUS
 62
     7
 10
-55.776257
 20
77.213806
 42
0.016246285
  0
VERTEX
  8
0
  6
CONTINUOUS
 62
     7
 10
-55.330562
 20
79.868381
 42
0.016520534
  0
VERTEX
  8
0
  6
CONTINUOUS
 62
     7
 10
-55.05954
 20
82.546687
 42
0.016923018
  0
VERTEX
  8
0
  6
CONTINUOUS
 62
     7
 10
-54.967968
 20
85.23938
 42
0
  0
SEQEND
  8
0
  0
POLYLINE
  8
0
  6
CONTINUOUS
 62
     7
 66
     1
 10
0
 20
0
  0
VERTEX
  8
0
  6
CONTINUOUS
 62
     7
 10
-264.1687
 20
213.92979
 42
-0.016924364
  0
VERTEX
  8
0
  6
CONTINUOUS
 62
     7
 10
-264.07712
 20
216.62267
 42
-0.01653495
  0
VERTEX
  8
0
  6
CONTINUOUS
 62
     7
 10
-263.80576
 20
219.30336
 42
-0.016230051
  0
VERTEX
  8
0
  6
CONTINUOUS
 62
     7
 10
-263.36041
 20
221.95537
 42
0
  0
SEQEND
  8
0
  0
POLYLINE
  8
0
  6
CONTINUOUS
 62
     7
 66
     1
 10
0
 20
0
  0
VERTEX
  8
0
  6
CONTINUOUS
 62
     7
 10
-250.55435
 20
231.82979
 42
-0.060911984
  0
VERTEX
  8
0
  6
CONTINUOUS
 62
     7
 10
-249.8422
 20
229.17466
 42
-0.069925443
  0
VERTEX
  8
0
  6
CONTINUOUS
 62
     7
 10
-249.84197
 20
226.42798
 42
-0.060971265
  0
VERTEX
  8
0
  6
CONTINUOUS
 62
     7
 10
-250.55435
 20
223.77341
 42
0
  0
SEQEND
  8
0
  0
POLYLINE
  8
0
  6
CONTINUOUS
 62
     7
 66
     1
 10
0
 20
0
  0
VERTEX
  8
0
  6
CONTINUOUS
 62
     7
 10
-263.36041
 20
223.77341
 42
-0.060980192
  0
VERTEX
  8
0
  6
CONTINUOUS
 62
     7
 10
-264.07285
 20
226.4284
 42
-0.069926221
  0
VERTEX
  8
0
  6
CONTINUOUS
 62
     7
 10
-264.07251
 20
229.17508
 42
-0.060900827
  0
VERTEX
  8
0
  6
CONTINUOUS
 62
     7
 10
-263.36041
 20
231.82979
 42
0
  0
SEQEND
  8
0
  0
POLYLINE
  8
0
  6
CONTINUOUS
 62
     7
 66
     1
 10
0
 20
0
  0
VERTEX
  8
0
  6
CONTINUOUS
 62
     7
 10
-250.55435
 20
221.95537
 42
-0.016246285
  0
VERTEX
  8
0
  6
CONTINUOUS
 62
     7
 10
-250.10866
 20
219.30079
 42
-0.016520534
  0
VERTEX
  8
0
  6
CONTINUOUS
 62
     7
 10
-249.83764
 20
216.62249
 42
-0.016923018
  0
VERTEX
  8
0
  6
CONTINUOUS
 62
     7
 10
-249.74606
 20
213.92979
 42
0
  0
SEQEND
  8
0
  0
POLYLINE
  8
0
  6
CONTINUOUS
 62
     7
 66
     1
 10
0
 20
0
  0
VERTEX
  8
0
  6
CONTINUOUS
 62
     7
 10
-264.1687
 20
213.92979
 42
0.016924364
  0
VERTEX
  8
0
  6
CONTINUOUS
 62
     7
 10
-264.07712
 20
211.23692
 42
0.01653495
  0
VERTEX
  8
0
  6
CONTINUOUS
 62
     7
 10
-263.80576
 20
208.55623
 42
0.016230051
  0
VERTEX
  8
0
  6
CONTINUOUS
 62
     7
 10
-263.36041
 20
205.90422
 42
0
  0
SEQEND
  8
0
  0
POLYLINE
  8
0
  6
CONTINUOUS
 62
     7
 66
     1
 10
0
 20
0
  0
VERTEX
  8
0
  6
CONTINUOUS
 62
     7
 10
-250.55435
 20
196.0298
 42
0.060911984
  0
VERTEX
  8
0
  6
CONTINUOUS
 62
     7
 10
-249.8422
 20
198.68493
 42
0.069925443
  0
VERTEX
  8
0
  6
CONTINUOUS
 62
     7
 10
-249.84197
 20
201.43161
 42
0.060971265
  0
VERTEX
  8
0
  6
CONTINUOUS
 62
     7
 10
-250.55435
 20
204.08618
 42
0
  0
SEQEND
  8
0
  0
POLYLINE
  8
0
  6
CONTINUOUS
 62
     7
 66
     1
 10
0
 20
0
  0
VERTEX
  8
0
  6
CONTINUOUS
 62
     7
 10
-263.36041
 20
204.08618
 42
0.060980192
  0
VERTEX
  8
0
  6
CONTINUOUS
 62
     7
 10
-264.07285
 20
201.43119
 42
0.069926221
  0
VERTEX
  8
0
  6
CONTINUOUS
 62
     7
 10
-264.07251
 20
198.6845
 42
0.060900827
  0
VERTEX
  8
0
  6
CONTINUOUS
 62
     7
 10
-263.36041
 20
196.0298
 42
0
  0
SEQEND
  8
0
  0
POLYLINE
  8
0
  6
CONTINUOUS
 62
     7
 66
     1
 10
0
 20
0
  0
VERTEX
  8
0
  6
CONTINUOUS
 62
     7
 10
-250.55435
 20
205.90422
 42
0.016246285
  0
VERTEX
  8
0
  6
CONTINUOUS
 62
     7
 10
-250.10866
 20
208.55879
 42
0.016520534
  0
VERTEX
  8
0
  6
CONTINUOUS
 62
     7
 10
-249.83764
 20
211.2371
 42
0.016923018
  0
VERTEX
  8
0
  6
CONTINUOUS
 62
     7
 10
-249.74606
 20
213.92979
 42
0
  0
SEQEND
  8
0
  0
POLYLINE
  8
0
  6
CONTINUOUS
 62
     7
 66
     1
 10
0
 20
0
  0
VERTEX
  8
0
  6
CONTINUOUS
 62
     7
 10
-92.679283
 20
111.52805
 42
-0.016924364
  0
VERTEX
  8
0
  6
CONTINUOUS
 62
     7
 10
-95.37216
 20
111.61963
 42
-0.01653495
  0
VERTEX
  8
0
  6
CONTINUOUS
 62
     7
 10
-98.052844
 20
111.89099
 42
-0.016230051
  0
VERTEX
  8
0
  6
CONTINUOUS
 62
     7
 10
-100.70486
 20
112.33633
 42
0
  0
SEQEND
  8
0
  0
POLYLINE
  8
0
  6
CONTINUOUS
 62
     7
 66
     1
 10
0
 20
0
  0
VERTEX
  8
0
  6
CONTINUOUS
 62
     7
 10
-110.57928
 20
125.14241
 42
-0.060911384
  0
VERTEX
  8
0
  6
CONTINUOUS
 62
     7
 10
-107.92416
 20
125.85457
 42
-0.069926974
  0
VERTEX
  8
0
  6
CONTINUOUS
 62
     7
 10
-105.17748
 20
125.85479
 42
-0.060970549
  0
VERTEX
  8
0
  6
CONTINUOUS
 62
     7
 10
-102.52291
 20
125.14241
 42
0
  0
SEQEND
  8
0
  0
POLYLINE
  8
0
  6
CONTINUOUS
 62
     7
 66
     1
 10
0
 20
0
  0
VERTEX
  8
0
  6
CONTINUOUS
 62
     7
 10
-102.52291
 20
112.33633
 42
-0.060980074
  0
VERTEX
  8
0
  6
CONTINUOUS
 62
     7
 10
-105.1779
 20
111.6239
 42
-0.069926301
  0
VERTEX
  8
0
  6
CONTINUOUS
 62
     7
 10
-107.92458
 20
111.62424
 42
-0.060900889
  0
VERTEX
  8
0
  6
CONTINUOUS
 62
     7
 10
-110.57928
 20
112.33633
 42
0
  0
SEQEND
  8
0
  0
POLYLINE
  8
0
  6
CONTINUOUS
 62
     7
 66
     1
 10
0
 20
0
  0
VERTEX
  8
0
  6
CONTINUOUS
 62
     7
 10
-100.70486
 20
125.14241
 42
-0.016245973
  0
VERTEX
  8
0
  6
CONTINUOUS
 62
     7
 10
-98.050282
 20
125.58811
 42
-0.016520532
  0
VERTEX
  8
0
  6
CONTINUOUS
 62
     7
 10
-95.371976
 20
125.85913
 42
-0.016923332
  0
VERTEX
  8
0
  6
CONTINUOUS
 62
     7
 10
-92.679283
 20
125.95071
 42
0
  0
SEQEND
  8
0
  0
POLYLINE
  8
0
  6
CONTINUOUS
 62
     7
 66
     1
 10
0
 20
0
  0
VERTEX
  8
0
  6
CONTINUOUS
 62
     7
 10
-92.679283
 20
111.52805
 42
0.016924364
  0
VERTEX
  8
0
  6
CONTINUOUS
 62
     7
 10
-89.986406
 20
111.61963
 42
0.01653495
  0
VERTEX
  8
0
  6
CONTINUOUS
 62
     7
 10
-87.305722
 20
111.89099
 42
0.016230051
  0
VERTEX
  8
0
  6
CONTINUOUS
 62
     7
 10
-84.653709
 20
112.33633
 42
0
  0
SEQEND
  8
0
  0
POLYLINE
  8
0
  6
CONTINUOUS
 62
     7
 66
     1
 10
0
 20
0
  0
VERTEX
  8
0
  6
CONTINUOUS
 62
     7
 10
-74.779289
 20
125.14241
 42
0.060911359
  0
VERTEX
  8
0
  6
CONTINUOUS
 62
     7
 10
-77.434414
 20
125.85457
 42
0.069926897
  0
VERTEX
  8
0
  6
CONTINUOUS
 62
     7
 10
-80.181095
 20
125.8548
 42
0.060970626
  0
VERTEX
  8
0
  6
CONTINUOUS
 62
     7
 10
-82.83567
 20
125.14241
 42
0
  0
SEQEND
  8
0
  0
POLYLINE
  8
0
  6
CONTINUOUS
 62
     7
 66
     1
 10
0
 20
0
  0
VERTEX
  8
0
  6
CONTINUOUS
 62
     7
 10
-82.83567
 20
112.33633
 42
0.060980192
  0
VERTEX
  8
0
  6
CONTINUOUS
 62
     7
 10
-80.180676
 20
111.6239
 42
0.069926221
  0
VERTEX
  8
0
  6
CONTINUOUS
 62
     7
 10
-77.433993
 20
111.62424
 42
0.060900827
  0
VERTEX
  8
0
  6
CONTINUOUS
 62
     7
 10
-74.779289
 20
112.33633
 42
0
  0
SEQEND
  8
0
  0
POLYLINE
  8
0
  6
CONTINUOUS
 62
     7
 66
     1
 10
0
 20
0
  0
VERTEX
  8
0
  6
CONTINUOUS
 62
     7
 10
-84.653709
 20
125.14241
 42
0.016245973
  0
VERTEX
  8
0
  6
CONTINUOUS
 62
     7
 10
-87.308284
 20
125.58811
 42
0.016520532
  0
VERTEX
  8
0
  6
CONTINUOUS
 62
     7
 10
-89.98659
 20
125.85913
 42
0.016923332
  0
VERTEX
  8
0
  6
CONTINUOUS
 62
     7
 10
-92.679283
 20
125.95071
 42
0
  0
SEQEND
  8
0
  0
POLYLINE
  8
0
  6
CONTINUOUS
 62
     7
 66
     1
 10
0
 20
0
  0
VERTEX
  8
0
  6
CONTINUOUS
 62
     7
 10
-324.16867
 20
133.92979
 42
0.019161186
  0
VERTEX
  8
0
  6
CONTINUOUS
 62
     7
 10
-324.03081
 20
130.35392
 42
0.018603482
  0
VERTEX
  8
0
  6
CONTINUOUS
 62
     7
 10
-323.62367
 20
126.79856
 42
0.018213295
  0
VERTEX
  8
0
  6
CONTINUOUS
 62
     7
 10
-322.95627
 20
123.28273
 42
0
  0
SEQEND
  8
0
  0
POLYLINE
  8
0
  6
CONTINUOUS
 62
     7
 66
     1
 10
0
 20
0
  0
VERTEX
  8
0
  6
CONTINUOUS
 62
     7
 10
-322.95627
 20
121.49981
 42
0.067339303
  0
VERTEX
  8
0
  6
CONTINUOUS
 62
     7
 10
-324.02236
 20
117.99456
 42
0.080046109
  0
VERTEX
  8
0
  6
CONTINUOUS
 62
     7
 10
-324.02207
 20
114.33515
 42
0.067285211
  0
VERTEX
  8
0
  6
CONTINUOUS
 62
     7
 10
-322.95627
 20
110.8298
 42
0
  0
SEQEND
  8
0
  0
POLYLINE
  8
0
  6
CONTINUOUS
 62
     7
 66
     1
 10
0
 20
0
  0
VERTEX
  8
0
  6
CONTINUOUS
 62
     7
 10
-309.95847
 20
121.49981
 42
-0.06733981
  0
VERTEX
  8
0
  6
CONTINUOUS
 62
     7
 10
-308.89235
 20
117.99457
 42
-0.080048861
  0
VERTEX
  8
0
  6
CONTINUOUS
 62
     7
 10
-308.89264
 20
114.33515
 42
-0.067285709
  0
VERTEX
  8
0
  6
CONTINUOUS
 62
     7
 10
-309.95847
 20
110.8298
 42
0
  0
SEQEND
  8
0
  0
POLYLINE
  8
0
  6
CONTINUOUS
 62
     7
 66
     1
 10
0
 20
0
  0
VERTEX
  8
0
  6
CONTINUOUS
 62
     7
 10
-308.74603
 20
133.92979
 42
-0.019161791
  0
VERTEX
  8
0
  6
CONTINUOUS
 62
     7
 10
-308.8839
 20
130.35391
 42
-0.018603818
  0
VERTEX
  8
0
  6
CONTINUOUS
 62
     7
 10
-309.29104
 20
126.79856
 42
-0.018213376
  0
VERTEX
  8
0
  6
CONTINUOUS
 62
     7
 10
-309.95847
 20
123.28273
 42
0
  0
SEQEND
  8
0
  0
POLYLINE
  8
0
  6
CONTINUOUS
 62
     7
 66
     1
 10
0
 20
0
  0
VERTEX
  8
0
  6
CONTINUOUS
 62
     7
 10
-324.16867
 20
133.92979
 42
-0.019161186
  0
VERTEX
  8
0
  6
CONTINUOUS
 62
     7
 10
-324.03081
 20
137.50567
 42
-0.018603482
  0
VERTEX
  8
0
  6
CONTINUOUS
 62
     7
 10
-323.62367
 20
141.06102
 42
-0.018213295
  0
VERTEX
  8
0
  6
CONTINUOUS
 62
     7
 10
-322.95627
 20
144.57686
 42
0
  0
SEQEND
  8
0
  0
POLYLINE
  8
0
  6
CONTINUOUS
 62
     7
 66
     1
 10
0
 20
0
  0
VERTEX
  8
0
  6
CONTINUOUS
 62
     7
 10
-322.95627
 20
146.35977
 42
-0.067339303
  0
VERTEX
  8
0
  6
CONTINUOUS
 62
     7
 10
-324.02236
 20
149.86502
 42
-0.080046109
  0
VERTEX
  8
0
  6
CONTINUOUS
 62
     7
 10
-324.02207
 20
153.52443
 42
-0.067285211
  0
VERTEX
  8
0
  6
CONTINUOUS
 62
     7
 10
-322.95627
 20
157.02979
 42
0
  0
SEQEND
  8
0
  0
POLYLINE
  8
0
  6
CONTINUOUS
 62
     7
 66
     1
 10
0
 20
0
  0
VERTEX
  8
0
  6
CONTINUOUS
 62
     7
 10
-309.95847
 20
146.35977
 42
0.06733981
  0
VERTEX
  8
0
  6
CONTINUOUS
 62
     7
 10
-308.89235
 20
149.86502
 42
0.080048861
  0
VERTEX
  8
0
  6
CONTINUOUS
 62
     7
 10
-308.89264
 20
153.52443
 42
0.067285709
  0
VERTEX
  8
0
  6
CONTINUOUS
 62
     7
 10
-309.95847
 20
157.02979
 42
0
  0
SEQEND
  8
0
  0
POLYLINE
  8
0
  6
CONTINUOUS
 62
     7
 66
     1
 10
0
 20
0
  0
VERTEX
  8
0
  6
CONTINUOUS
 62
     7
 10
-308.74603
 20
133.92979
 42
0.019161791
  0
VERTEX
  8
0
  6
CONTINUOUS
 62
     7
 10
-308.8839
 20
137.50567
 42
0.018603818
  0
VERTEX
  8
0
  6
CONTINUOUS
 62
     7
 10
-309.29104
 20
141.06103
 42
0.018213376
  0
VERTEX
  8
0
  6
CONTINUOUS
 62
     7
 10
-309.95847
 20
144.57686
 42
0
  0
SEQEND
  8
0
  0
POLYLINE
  8
0
  6
CONTINUOUS
 62
     7
 66
     1
 10
0
 20
0
  0
VERTEX
  8
0
  6
CONTINUOUS
 62
     7
 10
-327.16867
 20
43.929794
 42
0.019161169
  0
VERTEX
  8
0
  6
CONTINUOUS
 62
     7
 10
-327.03081
 20
40.353913
 42
0.018603458
  0
VERTEX
  8
0
  6
CONTINUOUS
 62
     7
 10
-326.62367
 20
36.798559
 42
0.018213333
  0
VERTEX
  8
0
  6
CONTINUOUS
 62
     7
 10
-325.95627
 20
33.282722
 42
0
  0
SEQEND
  8
0
  0
POLYLINE
  8
0
  6
CONTINUOUS
 62
     7
 66
     1
 10
0
 20
0
  0
VERTEX
  8
0
  6
CONTINUOUS
 62
     7
 10
-325.95627
 20
31.499809
 42
0.067339254
  0
VERTEX
  8
0
  6
CONTINUOUS
 62
     7
 10
-327.02236
 20
27.994566
 42
0.080046143
  0
VERTEX
  8
0
  6
CONTINUOUS
 62
     7
 10
-327.02207
 20
24.335158
 42
0.067285235
  0
VERTEX
  8
0
  6
CONTINUOUS
 62
     7
 10
-325.95627
 20
20.829803
 42
0
  0
SEQEND
  8
0
  0
POLYLINE
  8
0
  6
CONTINUOUS
 62
     7
 66
     1
 10
0
 20
0
  0
VERTEX
  8
0
  6
CONTINUOUS
 62
     7
 10
-312.95847
 20
31.499809
 42
-0.067339761
  0
VERTEX
  8
0
  6
CONTINUOUS
 62
     7
 10
-311.89235
 20
27.994568
 42
-0.080048895
  0
VERTEX
  8
0
  6
CONTINUOUS
 62
     7
 10
-311.89264
 20
24.335156
 42
-0.067285733
  0
VERTEX
  8
0
  6
CONTINUOUS
 62
     7
 10
-312.95847
 20
20.829803
 42
0
  0
SEQEND
  8
0
  0
POLYLINE
  8
0
  6
CONTINUOUS
 62
     7
 66
     1
 10
0
 20
0
  0
VERTEX
  8
0
  6
CONTINUOUS
 62
     7
 10
-311.74603
 20
43.929794
 42
-0.019161774
  0
VERTEX
  8
0
  6
CONTINUOUS
 62
     7
 10
-311.8839
 20
40.353911
 42
-0.018603794
  0
VERTEX
  8
0
  6
CONTINUOUS
 62
     7
 10
-312.29104
 20
36.798557
 42
-0.018213413
  0
VERTEX
  8
0
  6
CONTINUOUS
 62
     7
 10
-312.95847
 20
33.282722
 42
0
  0
SEQEND
  8
0
  0
POLYLINE
  8
0
  6
CONTINUOUS
 62
     7
 66
     1
 10
0
 20
0
  0
VERTEX
  8
0
  6
CONTINUOUS
 62
     7
 10
-327.16867
 20
43.929794
 42
-0.019161186
  0
VERTEX
  8
0
  6
CONTINUOUS
 62
     7
 10
-327.03081
 20
47.505674
 42
-0.018603482
  0
VERTEX
  8
0
  6
CONTINUOUS
 62
     7
 10
-326.62367
 20
51.061025
 42
-0.018213295
  0
VERTEX
  8
0
  6
CONTINUOUS
 62
     7
 10
-325.95627
 20
54.576859
 42
0
  0
SEQEND
  8
0
  0
POLYLINE
  8
0
  6
CONTINUOUS
 62
     7
 66
     1
 10
0
 20
0
  0
VERTEX
  8
0
  6
CONTINUOUS
 62
     7
 10
-325.95627
 20
56.359772
 42
-0.067339303
  0
VERTEX
  8
0
  6
CONTINUOUS
 62
     7
 10
-327.02236
 20
59.865018
 42
-0.080046109
  0
VERTEX
  8
0
  6
CONTINUOUS
 62
     7
 10
-327.02207
 20
63.524427
 42
-0.067285211
  0
VERTEX
  8
0
  6
CONTINUOUS
 62
     7
 10
-325.95627
 20
67.029785
 42
0
  0
SEQEND
  8
0
  0
POLYLINE
  8
0
  6
CONTINUOUS
 62
     7
 66
     1
 10
0
 20
0
  0
VERTEX
  8
0
  6
CONTINUOUS
 62
     7
 10
-312.95847
 20
56.359772
 42
0.06733981
  0
VERTEX
  8
0
  6
CONTINUOUS
 62
     7
 10
-311.89235
 20
59.865016
 42
0.080048861
  0
VERTEX
  8
0
  6
CONTINUOUS
 62
     7
 10
-311.89264
 20
63.52443
 42
0.067285709
  0
VERTEX
  8
0
  6
CONTINUOUS
 62
     7
 10
-312.95847
 20
67.029785
 42
0
  0
SEQEND
  8
0
  0
POLYLINE
  8
0
  6
CONTINUOUS
 62
     7
 66
     1
 10
0
 20
0
  0
VERTEX
  8
0
  6
CONTINUOUS
 62
     7
 10
-311.74603
 20
43.929794
 42
0.019161791
  0
VERTEX
  8
0
  6
CONTINUOUS
 62
     7
 10
-311.8839
 20
47.505675
 42
0.018603818
  0
VERTEX
  8
0
  6
CONTINUOUS
 62
     7
 10
-312.29104
 20
51.061026
 42
0.018213376
  0
VERTEX
  8
0
  6
CONTINUOUS
 62
     7
 10
-312.95847
 20
54.576859
 42
0
  0
SEQEND
  8
0
  0
POLYLINE
  8
0
  6
CONTINUOUS
 62
     7
 66
     1
 10
0
 20
0
  0
VERTEX
  8
0
  6
CONTINUOUS
 62
     7
 10
-134.39061
 20
85.23938
 42
0.019162134
  0
VERTEX
  8
0
  6
CONTINUOUS
 62
     7
 10
-134.25274
 20
81.6635
 42
0.018603473
  0
VERTEX
  8
0
  6
CONTINUOUS
 62
     7
 10
-133.84559
 20
78.108149
 42
0.018212355
  0
VERTEX
  8
0
  6
CONTINUOUS
 62
     7
 10
-133.17818
 20
74.592316
 42
0
  0
SEQEND
  8
0
  0
POLYLINE
  8
0
  6
CONTINUOUS
 62
     7
 66
     1
 10
0
 20
0
  0
VERTEX
  8
0
  6
CONTINUOUS
 62
     7
 10
-133.17818
 20
72.809402
 42
0.067337372
  0
VERTEX
  8
0
  6
CONTINUOUS
 62
     7
 10
-134.24429
 20
69.304159
 42
0.080050506
  0
VERTEX
  8
0
  6
CONTINUOUS
 62
     7
 10
-134.244
 20
65.644748
 42
0.067283318
  0
VERTEX
  8
0
  6
CONTINUOUS
 62
     7
 10
-133.17818
 20
62.139393
 42
0
  0
SEQEND
  8
0
  0
POLYLINE
  8
0
  6
CONTINUOUS
 62
     7
 66
     1
 10
0
 20
0
  0
VERTEX
  8
0
  6
CONTINUOUS
 62
     7
 10
-120.18041
 20
72.809402
 42
-0.067337879
  0
VERTEX
  8
0
  6
CONTINUOUS
 62
     7
 10
-119.11427
 20
69.304161
 42
-0.080053259
  0
VERTEX
  8
0
  6
CONTINUOUS
 62
     7
 10
-119.11457
 20
65.644746
 42
-0.067283816
  0
VERTEX
  8
0
  6
CONTINUOUS
 62
     7
 10
-120.18041
 20
62.139393
 42
0
  0
SEQEND
  8
0
  0
POLYLINE
  8
0
  6
CONTINUOUS
 62
     7
 66
     1
 10
0
 20
0
  0
VERTEX
  8
0
  6
CONTINUOUS
 62
     7
 10
-118.96795
 20
85.23938
 42
-0.019162739
  0
VERTEX
  8
0
  6
CONTINUOUS
 62
     7
 10
-119.10582
 20
81.663499
 42
-0.018603809
  0
VERTEX
  8
0
  6
CONTINUOUS
 62
     7
 10
-119.51298
 20
78.108148
 42
-0.018212435
  0
VERTEX
  8
0
  6
CONTINUOUS
 62
     7
 10
-120.18041
 20
74.592316
 42
0
  0
SEQEND
  8
0
  0
POLYLINE
  8
0
  6
CONTINUOUS
 62
     7
 66
     1
 10
0
 20
0
  0
VERTEX
  8
0
  6
CONTINUOUS
 62
     7
 10
-134.39061
 20
85.23938
 42
-0.019162134
  0
VERTEX
  8
0
  6
CONTINUOUS
 62
     7
 10
-134.25274
 20
88.81526
 42
-0.018603473
  0
VERTEX
  8
0
  6
CONTINUOUS
 62
     7
 10
-133.84559
 20
92.370611
 42
-0.018212355
  0
VERTEX
  8
0
  6
CONTINUOUS
 62
     7
 10
-133.17818
 20
95.886444
 42
0
  0
SEQEND
  8
0
  0
POLYLINE
  8
0
  6
CONTINUOUS
 62
     7
 66
     1
 10
0
 20
0
  0
VERTEX
  8
0
  6
CONTINUOUS
 62
     7
 10
-133.17818
 20
97.669357
 42
-0.067337396
  0
VERTEX
  8
0
  6
CONTINUOUS
 62
     7
 10
-134.24429
 20
101.1746
 42
-0.080050489
  0
VERTEX
  8
0
  6
CONTINUOUS
 62
     7
 10
-134.244
 20
104.83401
 42
-0.067283306
  0
VERTEX
  8
0
  6
CONTINUOUS
 62
     7
 10
-133.17818
 20
108.33937
 42
0
  0
SEQEND
  8
0
  0
POLYLINE
  8
0
  6
CONTINUOUS
 62
     7
 66
     1
 10
0
 20
0
  0
VERTEX
  8
0
  6
CONTINUOUS
 62
     7
 10
-120.18041
 20
97.669357
 42
0.067337903
  0
VERTEX
  8
0
  6
CONTINUOUS
 62
     7
 10
-119.11427
 20
101.1746
 42
0.080053242
  0
VERTEX
  8
0
  6
CONTINUOUS
 62
     7
 10
-119.11457
 20
104.83402
 42
0.067283804
  0
VERTEX
  8
0
  6
CONTINUOUS
 62
     7
 10
-120.18041
 20
108.33937
 42
0
  0
SEQEND
  8
0
  0
POLYLINE
  8
0
  6
CONTINUOUS
 62
     7
 66
     1
 10
0
 20
0
  0
VERTEX
  8
0
  6
CONTINUOUS
 62
     7
 10
-118.96795
 20
85.23938
 42
0.019162739
  0
VERTEX
  8
0
  6
CONTINUOUS
 62
     7
 10
-119.10582
 20
88.815261
 42
0.018603809
  0
VERTEX
  8
0
  6
CONTINUOUS
 62
     7
 10
-119.51298
 20
92.370612
 42
0.018212435
  0
VERTEX
  8
0
  6
CONTINUOUS
 62
     7
 10
-120.18041
 20
95.886444
 42
0
  0
SEQEND
  8
0
  0
POLYLINE
  8
0
  6
CONTINUOUS
 62
     7
 66
     1
 10
0
 20
0
  0
VERTEX
  8
0
  6
CONTINUOUS
 62
     7
 10
-243.74605
 20
43.929794
 42
0.01916166
  0
VERTEX
  8
0
  6
CONTINUOUS
 62
     7
 10
-243.88392
 20
47.505674
 42
0.018603478
  0
VERTEX
  8
0
  6
CONTINUOUS
 62
     7
 10
-244.29106
 20
51.061025
 42
0.018212825
  0
VERTEX
  8
0
  6
CONTINUOUS
 62
     7
 10
-244.95847
 20
54.576859
 42
0
  0
SEQEND
  8
0
  0
POLYLINE
  8
0
  6
CONTINUOUS
 62
     7
 66
     1
 10
0
 20
0
  0
VERTEX
  8
0
  6
CONTINUOUS
 62
     7
 10
-244.95847
 20
56.359772
 42
0.06733835
  0
VERTEX
  8
0
  6
CONTINUOUS
 62
     7
 10
-243.89236
 20
59.865017
 42
0.080048299
  0
VERTEX
  8
0
  6
CONTINUOUS
 62
     7
 10
-243.89266
 20
63.524428
 42
0.067284259
  0
VERTEX
  8
0
  6
CONTINUOUS
 62
     7
 10
-244.95847
 20
67.029785
 42
0
  0
SEQEND
  8
0
  0
POLYLINE
  8
0
  6
CONTINUOUS
 62
     7
 66
     1
 10
0
 20
0
  0
VERTEX
  8
0
  6
CONTINUOUS
 62
     7
 10
-257.95624
 20
56.359772
 42
-0.067337903
  0
VERTEX
  8
0
  6
CONTINUOUS
 62
     7
 10
-259.02238
 20
59.865014
 42
-0.080053242
  0
VERTEX
  8
0
  6
CONTINUOUS
 62
     7
 10
-259.02208
 20
63.524431
 42
-0.067283804
  0
VERTEX
  8
0
  6
CONTINUOUS
 62
     7
 10
-257.95624
 20
67.029785
 42
0
  0
SEQEND
  8
0
  0
POLYLINE
  8
0
  6
CONTINUOUS
 62
     7
 66
     1
 10
0
 20
0
  0
VERTEX
  8
0
  6
CONTINUOUS
 62
     7
 10
-259.1687
 20
43.929794
 42
-0.019162739
  0
VERTEX
  8
0
  6
CONTINUOUS
 62
     7
 10
-259.03083
 20
47.505675
 42
-0.018603809
  0
VERTEX
  8
0
  6
CONTINUOUS
 62
     7
 10
-258.62367
 20
51.061027
 42
-0.018212435
  0
VERTEX
  8
0
  6
CONTINUOUS
 62
     7
 10
-257.95624
 20
54.576859
 42
0
  0
SEQEND
  8
0
  0
POLYLINE
  8
0
  6
CONTINUOUS
 62
     7
 66
     1
 10
0
 20
0
  0
VERTEX
  8
0
  6
CONTINUOUS
 62
     7
 10
-243.74605
 20
43.929794
 42
-0.019161643
  0
VERTEX
  8
0
  6
CONTINUOUS
 62
     7
 10
-243.88392
 20
40.353912
 42
-0.018603453
  0
VERTEX
  8
0
  6
CONTINUOUS
 62
     7
 10
-244.29106
 20
36.798558
 42
-0.018212863
  0
VERTEX
  8
0
  6
CONTINUOUS
 62
     7
 10
-244.95847
 20
33.282722
 42
0
  0
SEQEND
  8
0
  0
POLYLINE
  8
0
  6
CONTINUOUS
 62
     7
 66
     1
 10
0
 20
0
  0
VERTEX
  8
0
  6
CONTINUOUS
 62
     7
 10
-244.95847
 20
31.499809
 42
-0.0673383
  0
VERTEX
  8
0
  6
CONTINUOUS
 62
     7
 10
-243.89236
 20
27.994566
 42
-0.080048333
  0
VERTEX
  8
0
  6
CONTINUOUS
 62
     7
 10
-243.89266
 20
24.335158
 42
-0.067284282
  0
VERTEX
  8
0
  6
CONTINUOUS
 62
     7
 10
-244.95847
 20
20.829803
 42
0
  0
SEQEND
  8
0
  0
POLYLINE
  8
0
  6
CONTINUOUS
 62
     7
 66
     1
 10
0
 20
0
  0
VERTEX
  8
0
  6
CONTINUOUS
 62
     7
 10
-257.95624
 20
31.499809
 42
0.067337854
  0
VERTEX
  8
0
  6
CONTINUOUS
 62
     7
 10
-259.02238
 20
27.994569
 42
0.080053276
  0
VERTEX
  8
0
  6
CONTINUOUS
 62
     7
 10
-259.02208
 20
24.335155
 42
0.067283827
  0
VERTEX
  8
0
  6
CONTINUOUS
 62
     7
 10
-257.95624
 20
20.829803
 42
0
  0
SEQEND
  8
0
  0
POLYLINE
  8
0
  6
CONTINUOUS
 62
     7
 66
     1
 10
0
 20
0
  0
VERTEX
  8
0
  6
CONTINUOUS
 62
     7
 10
-259.1687
 20
43.929794
 42
0.019162723
  0
VERTEX
  8
0
  6
CONTINUOUS
 62
     7
 10
-259.03083
 20
40.353911
 42
0.018603784
  0
VERTEX
  8
0
  6
CONTINUOUS
 62
     7
 10
-258.62367
 20
36.798557
 42
0.018212473
  0
VERTEX
  8
0
  6
CONTINUOUS
 62
     7
 10
-257.95624
 20
33.282722
 42
0
  0
SEQEND
  8
0
  0
POLYLINE
  8
0
  6
CONTINUOUS
 62
     7
 66
     1
 10
0
 20
0
  0
VERTEX
  8
0
  6
CONTINUOUS
 62
     7
 10
-246.74605
 20
133.92979
 42
0.01916166
  0
VERTEX
  8
0
  6
CONTINUOUS
 62
     7
 10
-246.88392
 20
137.50567
 42
0.018603478
  0
VERTEX
  8
0
  6
CONTINUOUS
 62
     7
 10
-247.29106
 20
141.06103
 42
0.018212825
  0
VERTEX
  8
0
  6
CONTINUOUS
 62
     7
 10
-247.95847
 20
144.57686
 42
0
  0
SEQEND
  8
0
  0
POLYLINE
  8
0
  6
CONTINUOUS
 62
     7
 66
     1
 10
0
 20
0
  0
VERTEX
  8
0
  6
CONTINUOUS
 62
     7
 10
-247.95847
 20
146.35977
 42
0.06733835
  0
VERTEX
  8
0
  6
CONTINUOUS
 62
     7
 10
-246.89236
 20
149.86502
 42
0.080048299
  0
VERTEX
  8
0
  6
CONTINUOUS
 62
     7
 10
-246.89266
 20
153.52443
 42
0.067284259
  0
VERTEX
  8
0
  6
CONTINUOUS
 62
     7
 10
-247.95847
 20
157.02979
 42
0
  0
SEQEND
  8
0
  0
POLYLINE
  8
0
  6
CONTINUOUS
 62
     7
 66
     1
 10
0
 20
0
  0
VERTEX
  8
0
  6
CONTINUOUS
 62
     7
 10
-260.95624
 20
146.35977
 42
-0.06733981
  0
VERTEX
  8
0
  6
CONTINUOUS
 62
     7
 10
-262.02236
 20
149.86502
 42
-0.080048861
  0
VERTEX
  8
0
  6
CONTINUOUS
 62
     7
 10
-262.02206
 20
153.52443
 42
-0.067285709
  0
VERTEX
  8
0
  6
CONTINUOUS
 62
     7
 10
-260.95624
 20
157.02979
 42
0
  0
SEQEND
  8
0
  0
POLYLINE
  8
0
  6
CONTINUOUS
 62
     7
 66
     1
 10
0
 20
0
  0
VERTEX
  8
0
  6
CONTINUOUS
 62
     7
 10
-262.16867
 20
133.92979
 42
-0.019161791
  0
VERTEX
  8
0
  6
CONTINUOUS
 62
     7
 10
-262.0308
 20
137.50567
 42
-0.018603818
  0
VERTEX
  8
0
  6
CONTINUOUS
 62
     7
 10
-261.62366
 20
141.06103
 42
-0.018213376
  0
VERTEX
  8
0
  6
CONTINUOUS
 62
     7
 10
-260.95624
 20
144.57686
 42
0
  0
SEQEND
  8
0
  0
POLYLINE
  8
0
  6
CONTINUOUS
 62
     7
 66
     1
 10
0
 20
0
  0
VERTEX
  8
0
  6
CONTINUOUS
 62
     7
 10
-246.74605
 20
133.92979
 42
-0.01916166
  0
VERTEX
  8
0
  6
CONTINUOUS
 62
     7
 10
-246.88392
 20
130.35391
 42
-0.018603478
  0
VERTEX
  8
0
  6
CONTINUOUS
 62
     7
 10
-247.29106
 20
126.79856
 42
-0.018212825
  0
VERTEX
  8
0
  6
CONTINUOUS
 62
     7
 10
-247.95847
 20
123.28273
 42
0
  0
SEQEND
  8
0
  0
POLYLINE
  8
0
  6
CONTINUOUS
 62
     7
 66
     1
 10
0
 20
0
  0
VERTEX
  8
0
  6
CONTINUOUS
 62
     7
 10
-247.95847
 20
121.49981
 42
-0.06733835
  0
VERTEX
  8
0
  6
CONTINUOUS
 62
     7
 10
-246.89236
 20
117.99456
 42
-0.080048299
  0
VERTEX
  8
0
  6
CONTINUOUS
 62
     7
 10
-246.89266
 20
114.33515
 42
-0.067284259
  0
VERTEX
  8
0
  6
CONTINUOUS
 62
     7
 10
-247.95847
 20
110.8298
 42
0
  0
SEQEND
  8
0
  0
POLYLINE
  8
0
  6
CONTINUOUS
 62
     7
 66
     1
 10
0
 20
0
  0
VERTEX
  8
0
  6
CONTINUOUS
 62
     7
 10
-260.95624
 20
121.49981
 42
0.06733981
  0
VERTEX
  8
0
  6
CONTINUOUS
 62
     7
 10
-262.02236
 20
117.99457
 42
0.080048861
  0
VERTEX
  8
0
  6
CONTINUOUS
 62
     7
 10
-262.02206
 20
114.33515
 42
0.067285709
  0
VERTEX
  8
0
  6
CONTINUOUS
 62
     7
 10
-260.95624
 20
110.8298
 42
0
  0
SEQEND
  8
0
  0
POLYLINE
  8
0
  6
CONTINUOUS
 62
     7
 66
     1
 10
0
 20
0
  0
VERTEX
  8
0
  6
CONTINUOUS
 62
     7
 10
-262.16867
 20
133.92979
 42
0.019161791
  0
VERTEX
  8
0
  6
CONTINUOUS
 62
     7
 10
-262.0308
 20
130.35391
 42
0.018603818
  0
VERTEX
  8
0
  6
CONTINUOUS
 62
     7
 10
-261.62366
 20
126.79856
 42
0.018213376
  0
VERTEX
  8
0
  6
CONTINUOUS
 62
     7
 10
-260.95624
 20
123.28273
 42
0
  0
SEQEND
  8
0
  0
TEXT
  8
0
  6
CONTINUOUS
 62
     7
 10
-388.09248
 20
275.26605
 40
5
 41
0.8437661
  1
ＭＲ－Ｊ　　径違いチーズ
  0
TEXT
  8
0
  6
CONTINUOUS
 62
     7
 10
-158.07919
 20
118.12466
 40
4.8000002
 41
1.0062112
  1
25X20X20
  0
TEXT
  8
0
  6
CONTINUOUS
 62
     7
 10
-339.59032
 20
243.35552
 40
4.8000002
 41
1.0102041
  1
20X13
  0
TEXT
  8
0
  6
CONTINUOUS
 62
     7
 10
-342.20989
 20
166.86405
 40
4.8000002
 41
1.0102041
  1
25X13
  0
TEXT
  8
0
  6
CONTINUOUS
 62
     7
 10
-339.59032
 20
76.750803
 40
4.8000002
 41
1.0102041
  1
25X20
  0
TEXT
  8
0
  6
CONTINUOUS
 62
     7
 10
-153.7761
 20
214.5137
 40
4.8000002
 41
1.0062112
  1
20X13X13
  0
LINE
  8
1
  6
CONTINUOUS
 62
     7
 10
0
 20
297
 11
0
 21
0
  0
LINE
  8
1
  6
CONTINUOUS
 62
     7
 10
-420
 20
297
 11
-420
 21
0
  0
LINE
  8
1
  6
CONTINUOUS
 62
     7
 10
-420
 20
0
 11
0
 21
0
  0
LINE
  8
1
  6
CONTINUOUS
 62
     7
 10
-420
 20
297
 11
0
 21
297
  0
LINE
  8
1
  6
CONTINUOUS
 62
     7
 10
-420
 20
297
 11
0
 21
297
  0
ARC
  8
1
  6
CONTINUOUS
 62
     7
 10
116.6
 20
10.178727
 40
0.40000001
 50
285
 51
0
  0
ENDSEC
  0
EOF
